Paradise City

by Guns N' Roses

Guitar Pro Tab  |  v4.06  |  Posted on March 31, 2007, 12:30 p.m. ← Back

Guitar Pro Tab Summary

Album

unknown

Song Author

unknown

Tabbed by

Andr´┐Ż Silva

Instruments

1st → Clean Chorus Guitar
2nd → Riffs + Solo
3rd → Rythm Guitar 1
4th → Overdubs+Octave Fx
5th → Rythm Guitar 2
6th → Basse 7
7th → Synth 6
8th → Percussions

File Size

89 KB

Views

4,496






Tablature Sheet

Title: Paradise City
Artist: Guns N' Roses
Album: 
Author: 






Track 1: Clean Chorus Guitar
Back to top
D#|-3----3--------3--3---------3-----------|-------------3--------3--3---------3-----------|
A#|-0-------0-----------0---------0-----0--|-1--1-----------1-----------1---------1-----1--|
F#|-0----------0-----------0---------0-----|-0--0--------------0-----------0---------0-----|
C#|-0--------------------------------------|-0--2-----2------------------------------------|
G#|-2--------------------------------------|-------3---------------------------------------|
D#|-3--------------------------------------|-----------------------------------------------|


D#|-----------3-----------------------3-----------|------3--------3--3--------------------------------|
A#|-1--1---1-----1-----1--1--1-----1-----1-----0--|-0-------0-----------0--------0--------0-----------|
F#|-0--2------------2-----0--0--------------0-----|-0----------0-----------0--2-----0--0-----------0--|
C#|-0--3------------------0--2--------------------|-0----------------------------------------0--2-----|
G#|-----------------------------3-----------------|-2-------------------------------------------------|
D#|-----------------------------------------------|-3-------------------------------------------------|


D#|-3----3--------3--3---------3-----------|-------------3--------3--3---------3-----------|
A#|-0-------0-----------0---------0-----0--|-1--------------1-----------1---------1-----1--|
F#|-0----------0-----------0---------0-----|-0-----------------0-----------0---------0-----|
C#|-0--------------------------------------|-0--2-----2------------------------------------|
G#|-2--------------------------------------|-------3---------------------------------------|
D#|-3--------------------------------------|-----------------------------------------------|


D#|-----------3-----------------------3-----------|------3--------3--3--------------------------------|
A#|-1------1-----1-----1--1--------1-----1-----0--|-0-------0-----------0--------0--------0-----------|
F#|-0--2------------2-----0-----------------0-----|-0----------0-----------0--2-----0--0-----------0--|
C#|-0--3------------------0--2--------------------|-0----------------------------------------0--2-----|
G#|-----------------------------3-----------------|-2-------------------------------------------------|
D#|-----------------------------------------------|-3-------------------------------------------------|


D#|-3----3--------3--3---------3-----------|-------------3--------3--3---------3-----------|
A#|-0-------0-----------0---------0-----0--|-1--------------1-----------1---------1-----1--|
F#|-0----------0-----------0---------0-----|-0-----------------0-----------0---------0-----|
C#|-0--------------------------------------|-0--2-----2------------------------------------|
G#|-2--------------------------------------|-------3---------------------------------------|
D#|-3--------------------------------------|-----------------------------------------------|


D#|-----------3-----------------------3-----------|------3--------3--3--------------------------------|
A#|-1------1-----1-----1--1--------1-----1-----0--|-0-------0-----------0--------0--------0-----------|
F#|-0--2------------2-----0-----------------0-----|-0----------0-----------0--2-----0--0-----------0--|
C#|-0--3------------------0--2--------------------|-0----------------------------------------0--2-----|
G#|-----------------------------3-----------------|-2-------------------------------------------------|
D#|-----------------------------------------------|-3-------------------------------------------------|


D#|-3----3--------3--3---------3-----------|-------------3--------3--3---------3-----------|
A#|-0-------0-----------0---------0-----0--|-1--------------1-----------1---------1-----1--|
F#|-0----------0-----------0---------0-----|-0-----------------0-----------0---------0-----|
C#|-0--------------------------------------|-0--2-----2------------------------------------|
G#|-2--------------------------------------|-------3---------------------------------------|
D#|-3--------------------------------------|-----------------------------------------------|


D#|-----------3-----------------------3-----------|------3--------3--3--------------------------------|
A#|-1------1-----1-----1--1--------1-----1-----0--|-0-------0-----------0--------0--------0-----------|
F#|-0--2------------2-----0-----------------0-----|-0----------0-----------0--2-----0--0-----------0--|
C#|-0--3------------------0--2--------------------|-0----------------------------------------0--2-----|
G#|-----------------------------3-----------------|-2-------------------------------------------------|
D#|-----------------------------------------------|-3-------------------------------------------------|


D#|--------|--------|--------|--------|--------|--------|--------|--------|--------|
A#|--------|--------|--------|--------|--------|--------|--------|--------|--------|
F#|--------|--------|--------|--------|--------|--------|--------|--------|--------|
C#|--------|--------|--------|--------|--------|--------|--------|--------|--------|
G#|--------|--------|--------|--------|--------|--------|--------|--------|--------|
D#|--------|--------|--------|--------|--------|--------|--------|--------|--------|


D#|--------|--------|--------|--------|--------|--------|--------|--------|--------|
A#|--------|--------|--------|--------|--------|--------|--------|--------|--------|
F#|--------|--------|--------|--------|--------|--------|--------|--------|--------|
C#|--------|--------|--------|--------|--------|--------|--------|--------|--------|
G#|--------|--------|--------|--------|--------|--------|--------|--------|--------|
D#|--------|--------|--------|--------|--------|--------|--------|--------|--------|


D#|--------|--------|--------|--------|--------|-------|--------|--------|--------|
A#|--------|--------|--------|--------|--------|-------|--------|--------|--------|
F#|--------|--------|--------|--------|--------|-------|--------|--------|--------|
C#|--------|--------|--------|--------|--------|-------|--------|--------|--------|
G#|--------|--------|--------|--------|--------|-------|--------|--------|--------|
D#|--------|--------|--------|--------|--------|-------|--------|--------|--------|


D#|--------|--------|--------|--------|--------|--------|-------|--------|--------|
A#|--------|--------|--------|--------|--------|--------|-------|--------|--------|
F#|--------|--------|--------|--------|--------|--------|-------|--------|--------|
C#|--------|--------|--------|--------|--------|--------|-------|--------|--------|
G#|--------|--------|--------|--------|--------|--------|-------|--------|--------|
D#|--------|--------|--------|--------|--------|--------|-------|--------|--------|


D#|--------|--------|--------|--------|--------|--------|--------|--------|--------|
A#|--------|--------|--------|--------|--------|--------|--------|--------|--------|
F#|--------|--------|--------|--------|--------|--------|--------|--------|--------|
C#|--------|--------|--------|--------|--------|--------|--------|--------|--------|
G#|--------|--------|--------|--------|--------|--------|--------|--------|--------|
D#|--------|--------|--------|--------|--------|--------|--------|--------|--------|


D#|--------|--------|--------|--------|--------|--------|-------|--------|--------|
A#|--------|--------|--------|--------|--------|--------|-------|--------|--------|
F#|--------|--------|--------|--------|--------|--------|-------|--------|--------|
C#|--------|--------|--------|--------|--------|--------|-------|--------|--------|
G#|--------|--------|--------|--------|--------|--------|-------|--------|--------|
D#|--------|--------|--------|--------|--------|--------|-------|--------|--------|


D#|--------|--------|--------|--------|--------|--------|--------|--------|--------|
A#|--------|--------|--------|--------|--------|--------|--------|--------|--------|
F#|--------|--------|--------|--------|--------|--------|--------|--------|--------|
C#|--------|--------|--------|--------|--------|--------|--------|--------|--------|
G#|--------|--------|--------|--------|--------|--------|--------|--------|--------|
D#|--------|--------|--------|--------|--------|--------|--------|--------|--------|


D#|--------|--------|--------|--------|--------|--------|-------|--------|--------|
A#|--------|--------|--------|--------|--------|--------|-------|--------|--------|
F#|--------|--------|--------|--------|--------|--------|-------|--------|--------|
C#|--------|--------|--------|--------|--------|--------|-------|--------|--------|
G#|--------|--------|--------|--------|--------|--------|-------|--------|--------|
D#|--------|--------|--------|--------|--------|--------|-------|--------|--------|


D#|--------|--------|--------|--------|--------|--------|--------|--------|--------|
A#|--------|--------|--------|--------|--------|--------|--------|--------|--------|
F#|--------|--------|--------|--------|--------|--------|--------|--------|--------|
C#|--------|--------|--------|--------|--------|--------|--------|--------|--------|
G#|--------|--------|--------|--------|--------|--------|--------|--------|--------|
D#|--------|--------|--------|--------|--------|--------|--------|--------|--------|


D#|--------|-------|--------|--------|--------|--------|--------|--------|--------|
A#|--------|-------|--------|--------|--------|--------|--------|--------|--------|
F#|--------|-------|--------|--------|--------|--------|--------|--------|--------|
C#|--------|-------|--------|--------|--------|--------|--------|--------|--------|
G#|--------|-------|--------|--------|--------|--------|--------|--------|--------|
D#|--------|-------|--------|--------|--------|--------|--------|--------|--------|


D#|--------|--------|--------|--------|--------|--------|--------|--------|--------|
A#|--------|--------|--------|--------|--------|--------|--------|--------|--------|
F#|--------|--------|--------|--------|--------|--------|--------|--------|--------|
C#|--------|--------|--------|--------|--------|--------|--------|--------|--------|
G#|--------|--------|--------|--------|--------|--------|--------|--------|--------|
D#|--------|--------|--------|--------|--------|--------|--------|--------|--------|


D#|--------|--------|--------|--------|--------|--------|--------|--------|--------|
A#|--------|--------|--------|--------|--------|--------|--------|--------|--------|
F#|--------|--------|--------|--------|--------|--------|--------|--------|--------|
C#|--------|--------|--------|--------|--------|--------|--------|--------|--------|
G#|--------|--------|--------|--------|--------|--------|--------|--------|--------|
D#|--------|--------|--------|--------|--------|--------|--------|--------|--------|


D#|--------|--------|--------|--------|--------|--------|--------|--------|--------|
A#|--------|--------|--------|--------|--------|--------|--------|--------|--------|
F#|--------|--------|--------|--------|--------|--------|--------|--------|--------|
C#|--------|--------|--------|--------|--------|--------|--------|--------|--------|
G#|--------|--------|--------|--------|--------|--------|--------|--------|--------|
D#|--------|--------|--------|--------|--------|--------|--------|--------|--------|


D#|--------|--------|--------|--------|--------|--------|--------|--------|--------|
A#|--------|--------|--------|--------|--------|--------|--------|--------|--------|
F#|--------|--------|--------|--------|--------|--------|--------|--------|--------|
C#|--------|--------|--------|--------|--------|--------|--------|--------|--------|
G#|--------|--------|--------|--------|--------|--------|--------|--------|--------|
D#|--------|--------|--------|--------|--------|--------|--------|--------|--------|


D#|--------|--------|--------|--------|--------|--------|--------|--------|--------|
A#|--------|--------|--------|--------|--------|--------|--------|--------|--------|
F#|--------|--------|--------|--------|--------|--------|--------|--------|--------|
C#|--------|--------|--------|--------|--------|--------|--------|--------|--------|
G#|--------|--------|--------|--------|--------|--------|--------|--------|--------|
D#|--------|--------|--------|--------|--------|--------|--------|--------|--------|


D#|--------|--------|--------|--------|--------|--------|--------|--------|--------|
A#|--------|--------|--------|--------|--------|--------|--------|--------|--------|
F#|--------|--------|--------|--------|--------|--------|--------|--------|--------|
C#|--------|--------|--------|--------|--------|--------|--------|--------|--------|
G#|--------|--------|--------|--------|--------|--------|--------|--------|--------|
D#|--------|--------|--------|--------|--------|--------|--------|--------|--------|


D#|--------|--------|--------|--------|--------|--------|--------|--------|--------|
A#|--------|--------|--------|--------|--------|--------|--------|--------|--------|
F#|--------|--------|--------|--------|--------|--------|--------|--------|--------|
C#|--------|--------|--------|--------|--------|--------|--------|--------|--------|
G#|--------|--------|--------|--------|--------|--------|--------|--------|--------|
D#|--------|--------|--------|--------|--------|--------|--------|--------|--------|


D#|--------|--------|--------|--------|--------|--------|
A#|--------|--------|--------|--------|--------|--------|
F#|--------|--------|--------|--------|--------|--------|
C#|--------|--------|--------|--------|--------|--------|
G#|--------|--------|--------|--------|--------|--------|
D#|--------|--------|--------|--------|--------|--------|









Track 2: Rythm Guitar 1
Back to top
D#|--------|--------|--------|--------|--------|--------|--------|--------|--------|
A#|--------|--------|--------|--------|--------|--------|--------|--------|--------|
F#|--------|--------|--------|--------|--------|--------|--------|--------|--------|
C#|--------|--------|--------|--------|--------|--------|--------|--------|--------|
G#|--------|--------|--------|--------|--------|--------|--------|--------|--------|
D#|--------|--------|--------|--------|--------|--------|--------|--------|--------|


D#|--------|--------|--------|--------|--------|--------|----------------------|-3-----3----3---0--0--|
A#|--------|--------|--------|--------|--------|--------|----------------------|-3-----3----3---0--0--|
F#|--------|--------|--------|--------|--------|--------|----------------0--0--|-0-----0----0---0--0--|
C#|--------|--------|--------|--------|--------|--------|----------------0--0--|-0-----0----0---0--0--|
G#|--------|--------|--------|--------|--------|--------|----------------0--0--|-0-----0----0---3--3--|
D#|--------|--------|--------|--------|--------|--------|----------------3--3--|-3-----3----3---0--0--|


D#|----------------0--0--|-------0--0--------0--0--|-3-----3----3---------|-3-----3----3---0--0--|
A#|-5-----5----5---0--0--|-10----0--0--5-----0--0--|-3-----3----3---------|-3-----3----3---0--0--|
F#|-5-----5----5---0--0--|-10----0--0--5-----0--0--|-0-----0----0---0--0--|-0-----0----0---0--0--|
C#|-5-----5----5---0--0--|-10----0--0--5-----0--0--|-0-----0----0---0--0--|-0-----0----0---0--0--|
G#|-3-----3----3---8--8--|-8-----3--3--3-----0--0--|-0-----0----0---0--0--|-0-----0----0---3--3--|
D#|----------------0--0--|-------0--0--------3--3--|-3-----3----3---3--3--|-3-----3----3---0--0--|


D#|----------------0--0--|-------0--0--------0--0--|-3-----3----3---------|-3-----3----3---0--0--|
A#|-5-----5----5---0--0--|-10----0--0--5-----0--0--|-3-----3----3---------|-3-----3----3---0--0--|
F#|-5-----5----5---0--0--|-10----0--0--5-----0--0--|-0-----0----0---0--0--|-0-----0----0---0--0--|
C#|-5-----5----5---0--0--|-10----0--0--5-----0--0--|-0-----0----0---0--0--|-0-----0----0---0--0--|
G#|-3-----3----3---8--8--|-8-----3--3--3-----0--0--|-0-----0----0---0--0--|-0-----0----0---3--3--|
D#|----------------0--0--|-------0--0--------3--3--|-3-----3----3---3--3--|-3-----3----3---0--0--|


D#|----------------0--0--|-------0--0--------0--0--|-3-----3----3---------|-3-----3----3---0--0--|
A#|-5-----5----5---0--0--|-10----0--0--5-----0--0--|-3-----3----3---------|-3-----3----3---0--0--|
F#|-5-----5----5---0--0--|-10----0--0--5-----0--0--|-0-----0----0---0--0--|-0-----0----0---0--0--|
C#|-5-----5----5---0--0--|-10----0--0--5-----0--0--|-0-----0----0---0--0--|-0-----0----0---0--0--|
G#|-3-----3----3---8--8--|-8-----3--3--3-----0--0--|-0-----0----0---0--0--|-0-----0----0---3--3--|
D#|----------------0--0--|-------0--0--------3--3--|-3-----3----3---3--3--|-3-----3----3---0--0--|


D#|----------------0--0--|-------0--0--------0--0--|-3-----3----3---------|-----------------------------------------|
A#|-5-----5----5---0--0--|-10----0--0--5-----0--0--|-3-----3----3---------|-----------------------------------------|
F#|-5-----5----5---0--0--|-10----0--0--5-----0--0--|-0-----0----0---0--0--|-----------------------------------------|
C#|-5-----5----5---0--0--|-10----0--0--5-----0--0--|-0-----0----0---0--0--|-----------------------------------------|
G#|-3-----3----3---8--8--|-8-----3--3--3-----0--0--|-0-----0----0---0--0--|------------------------------------1----|
D#|----------------0--0--|-------0--0--------3--3--|-3-----3----3---3--3--|-3---1--2--3---1--2--3--1--3--1--3-------|


D#|-----------------------------------------|-----------------------------------------|
A#|-----------------------------------------|-----------------------------------------|
F#|-----------------------------------------|-----------------------------------------|
C#|-----------------------------------------|-----------------------------------------|
G#|---------------------------------3--1----|------------------------------------1----|
D#|-3---1--2--3---1--2--3--1--3--1----------|-3---1--2--3---1--2--3--1--3--1--3-------|


D#|-------------------------------------|-------------------------------------------|
A#|-------------------------------------|--------------------------------------3----|
F#|-------------------------------------|--------------------------------------3----|
C#|-------------------------------------|--------------------------------------3----|
G#|-----------------------------3--1----|--------------------------------------1----|
D#|-3---1--2--3---1--2--3---1-----------|-3---1--2--3--3--1--2--3--1--3--1--3-------|


D#|-------------------------------------------|-------------------------------------------|
A#|-----------------------------------5--3----|--------------------------------------3----|
F#|-----------------------------------5--3----|--------------------------------------3----|
C#|-----------------------------------5--3----|--------------------------------------3----|
G#|-----------------------------------3--1----|--------------------------------------1----|
D#|-3---1--2--3--3--1--2--3--1--3--1----------|-3---1--2--3--3--1--2--3--1--3--1--3-------|


D#|-------------------|--------|-----------------------------------|-----------------------------------------|
A#|--------------3----|-5------|-----------------------------------|-----------------------------------------|
F#|--------------3----|-5------|-----------------------------------|-----------------------------------------|
C#|--------------3----|-5------|-----------------------------------|-----------------------------------------|
G#|--------------1----|-3------|-3--3--3--3--3--1------------------|------------------------------------1----|
D#|-3---1--2--3-------|--------|-------------------1--3--3---------|-3---1--2--3---1--2--3--1--3--1--3-------|


D#|-----------------------------------------|-----------------------------------------|
A#|-----------------------------------------|-----------------------------------------|
F#|-----------------------------------------|-----------------------------------------|
C#|-----------------------------------------|-----------------------------------------|
G#|---------------------------------3--1----|------------------------------------1----|
D#|-3---1--2--3---1--2--3--1--3--1----------|-3---1--2--3---1--2--3--1--3--1--3-------|


D#|-------------------------------------|-------------------------------------------|
A#|-------------------------------------|--------------------------------------3----|
F#|-------------------------------------|--------------------------------------3----|
C#|-------------------------------------|--------------------------------------3----|
G#|-----------------------------3--1----|--------------------------------------1----|
D#|-3---1--2--3---1--2--3---1-----------|-3---1--2--3--3--1--2--3--1--3--1--3-------|


D#|-------------------------------------------|-------------------------------------------|
A#|-----------------------------------5--3----|--------------------------------------3----|
F#|-----------------------------------5--3----|--------------------------------------3----|
C#|-----------------------------------5--3----|--------------------------------------3----|
G#|-----------------------------------3--1----|--------------------------------------1----|
D#|-3---1--2--3--3--1--2--3--1--3--1----------|-3---1--2--3--3--1--2--3--1--3--1--3-------|


D#|-------------------|--------|-----------------------------------|-3-----3----3---0--0--|
A#|--------------3----|-5------|-----------------------------------|-3-----3----3---0--0--|
F#|--------------3----|-5------|-----------------------------------|-0-----0----0---0--0--|
C#|--------------3----|-5------|-----------------------------------|-0-----0----0---0--0--|
G#|--------------1----|-3------|-3--3--3--3--3--1------------------|-0-----0----0---3--3--|
D#|-3---1--2--3-------|--------|-------------------1--3--3---------|-3-----3----3---0--0--|


D#|----------------0--0--|-------0--0--------0--0--|-3-----3----3---------|-3-----3----3---0--0--|
A#|-5-----5----5---0--0--|-10----0--0--5-----0--0--|-3-----3----3---------|-3-----3----3---0--0--|
F#|-5-----5----5---0--0--|-10----0--0--5-----0--0--|-0-----0----0---0--0--|-0-----0----0---0--0--|
C#|-5-----5----5---0--0--|-10----0--0--5-----0--0--|-0-----0----0---0--0--|-0-----0----0---0--0--|
G#|-3-----3----3---8--8--|-8-----3--3--3-----0--0--|-0-----0----0---0--0--|-0-----0----0---3--3--|
D#|----------------0--0--|-------0--0--------3--3--|-3-----3----3---3--3--|-3-----3----3---0--0--|


D#|----------------0--0--|-------0--0--------0--0--|-3-----3----3---------|-----------------------------------------|
A#|-5-----5----5---0--0--|-10----0--0--5-----0--0--|-3-----3----3---------|-----------------------------------------|
F#|-5-----5----5---0--0--|-10----0--0--5-----0--0--|-0-----0----0---0--0--|-----------------------------------------|
C#|-5-----5----5---0--0--|-10----0--0--5-----0--0--|-0-----0----0---0--0--|-----------------------------------------|
G#|-3-----3----3---8--8--|-8-----3--3--3-----0--0--|-0-----0----0---0--0--|------------------------------------1----|
D#|----------------0--0--|-------0--0--------3--3--|-3-----3----3---3--3--|-3---1--2--3---1--2--3--1--3--1--3-------|


D#|-----------------------------------------|-----------------------------------------|
A#|-----------------------------------------|-----------------------------------------|
F#|-----------------------------------------|-----------------------------------------|
C#|-----------------------------------------|-----------------------------------------|
G#|---------------------------------3--1----|------------------------------------1----|
D#|-3---1--2--3---1--2--3--1--3--1----------|-3---1--2--3---1--2--3--1--3--1--3-------|


D#|-------------------------------------|-------------------------------------------|
A#|-------------------------------------|--------------------------------------3----|
F#|-------------------------------------|--------------------------------------3----|
C#|-------------------------------------|--------------------------------------3----|
G#|-----------------------------3--1----|--------------------------------------1----|
D#|-3---1--2--3---1--2--3---1-----------|-3---1--2--3--3--1--2--3--1--3--1--3-------|


D#|-------------------------------------------|-------------------------------------------|
A#|-----------------------------------5--3----|--------------------------------------3----|
F#|-----------------------------------5--3----|--------------------------------------3----|
C#|-----------------------------------5--3----|--------------------------------------3----|
G#|-----------------------------------3--1----|--------------------------------------1----|
D#|-3---1--2--3--3--1--2--3--1--3--1----------|-3---1--2--3--3--1--2--3--1--3--1--3-------|


D#|-------------------|--------|-----------------------------------|-3-----3----3---0--0--|
A#|--------------3----|-5------|-----------------------------------|-3-----3----3---0--0--|
F#|--------------3----|-5------|-----------------------------------|-0-----0----0---0--0--|
C#|--------------3----|-5------|-----------------------------------|-0-----0----0---0--0--|
G#|--------------1----|-3------|-3--3--3--3--3--1------------------|-0-----0----0---3--3--|
D#|-3---1--2--3-------|--------|-------------------1--3--3---------|-3-----3----3---0--0--|


D#|----------------0--0--|-------0--0--------0--0--|-3-----3----3---------|-3-----3----3---0--0--|
A#|-5-----5----5---0--0--|-10----0--0--5-----0--0--|-3-----3----3---------|-3-----3----3---0--0--|
F#|-5-----5----5---0--0--|-10----0--0--5-----0--0--|-0-----0----0---0--0--|-0-----0----0---0--0--|
C#|-5-----5----5---0--0--|-10----0--0--5-----0--0--|-0-----0----0---0--0--|-0-----0----0---0--0--|
G#|-3-----3----3---8--8--|-8-----3--3--3-----0--0--|-0-----0----0---0--0--|-0-----0----0---3--3--|
D#|----------------0--0--|-------0--0--------3--3--|-3-----3----3---3--3--|-3-----3----3---0--0--|


D#|----------------0--0--|-------0--0--------0--0--|----------------------|-----------------------------------------|
A#|-5-----5----5---0--0--|-10----0--0--5-----0--0--|----------------------|-----------------------------------------|
F#|-5-----5----5---0--0--|-10----0--0--5-----0--0--|----------------------|-----------------------------------------|
C#|-5-----5----5---0--0--|-10----0--0--5-----0--0--|----------------------|-----------------------------------------|
G#|-3-----3----3---8--8--|-8-----3--3--3-----0--0--|-5--3-----3----3---3--|------------------------------------1----|
D#|----------------0--0--|-------0--0--------3--3--|-3--1-----1----1---1--|-3---1--2--3---1--2--3--1--3--1--3-------|


D#|-----------------------------------------|-----------------------------------------|
A#|-----------------------------------------|-----------------------------------------|
F#|-----------------------------------------|-----------------------------------------|
C#|-----------------------------------------|-----------------------------------------|
G#|------------------------------------1----|------------------------------------1----|
D#|-3---1--2--3---1--2--3--1--3--1--3-------|-3---1--2--3---1--2--3--1--3--1--3-------|


D#|-------------------------------------|-----------------------------------------|
A#|-------------------------------------|-----------------------------------------|
F#|-------------------------------------|-----------------------------------------|
C#|-------------------------------------|-----------------------------------------|
G#|-----------------------------3--1----|------------------------------------3----|
D#|-3---1--2--3---1--2--3---1-----------|-5---3--4--5---3--4--5--3--5--3--5-------|


D#|-----------------------------------------|-------------------------------------------|
A#|-----------------------------------------|--------------------------------------3----|
F#|-----------------------------------------|--------------------------------------3----|
C#|-----------------------------------------|--------------------------------------3----|
G#|---------------------------------5--3----|--------------------------------------1----|
D#|-5---3--4--5---3--4--5--3--5--3----------|-3---1--2--3--3--1--2--3--1--3--1--3-------|


D#|-------------------|--------|---------------------------------------------|---------------------------------------------|
A#|-------------------|-5------|---------------------------------------------|---------------------------------------------|
F#|-------------------|-5------|-7--7--7--7--7---0--0--7--7--7--7--7---0--0--|-5--5--5--5--5---0--0--5--5--5--5--5---0--0--|
C#|-------------------|-5------|-7--7--7--7--7---0--0--7--7--7--7--7---0--0--|-5--5--5--5--5---0--0--5--5--5--5--5---0--0--|
G#|-------------------|-3------|-5--5--5--5--5---0--0--5--5--5--5--5---0--0--|-3--3--3--3--3---0--0--3--3--3--3--3---0--0--|
D#|-3---1--2--3---1---|--------|---------------------------------------------|---------------------------------------------|


D#|---------------------------------------------|---------------------------------------------|
A#|---------------------------------------------|---------------------------------------------|
F#|-7--7--7--7--7---0--0--7--7--7--7--7---0--0--|-5--5--5--5--5---0--0--5--5--5--5--5---0--0--|
C#|-7--7--7--7--7---0--0--7--7--7--7--7---0--0--|-5--5--5--5--5---0--0--5--5--5--5--5---0--0--|
G#|-5--5--5--5--5---0--0--5--5--5--5--5---0--0--|-3--3--3--3--3---0--0--3--3--3--3--3---0--0--|
D#|---------------------------------------------|---------------------------------------------|


D#|---------------------------------------------|---------------------------------------------|
A#|---------------------------------------------|---------------------------------------------|
F#|-7--7--7--7--7---0--0--7--7--7--7--7---0--0--|-5--5--5--5--5---0--0--5--5--5--5--5---0--0--|
C#|-7--7--7--7--7---0--0--7--7--7--7--7---0--0--|-5--5--5--5--5---0--0--5--5--5--5--5---0--0--|
G#|-5--5--5--5--5---0--0--5--5--5--5--5---0--0--|-3--3--3--3--3---0--0--3--3--3--3--3---0--0--|
D#|---------------------------------------------|---------------------------------------------|


D#|---------------------------------------------|-------------|-------------------------------------------|
A#|---------------------------------------------|-5-----3-----|--------------------------------------3----|
F#|-7--7--7--7--7---0--0--7--7--7--7--7---0--0--|-5-----3-----|--------------------------------------3----|
C#|-7--7--7--7--7---0--0--7--7--7--7--7---0--0--|-5-----3-----|--------------------------------------3----|
G#|-5--5--5--5--5---0--0--5--5--5--5--5---0--0--|-3-----1-----|--------------------------------------1----|
D#|---------------------------------------------|-------------|-3---1--2--3--3--1--2--3--1--3--1--3-------|


D#|-------------------------------------------|-------------------------------------------|
A#|-----------------------------------5--3----|--------------------------------------3----|
F#|-----------------------------------5--3----|--------------------------------------3----|
C#|-----------------------------------5--3----|--------------------------------------3----|
G#|-----------------------------------3--1----|--------------------------------------1----|
D#|-3---1--2--3--3--1--2--3--1--3--1----------|-3---1--2--3--3--1--2--3--1--3--1--3-------|


D#|-------------------|--------|-----------------------------------|-3-----3----3---0--0--|
A#|--------------3----|-5------|-----------------------------------|-3-----3----3---0--0--|
F#|--------------3----|-5------|-----------------------------------|-0-----0----0---0--0--|
C#|--------------3----|-5------|-----------------------------------|-0-----0----0---0--0--|
G#|--------------1----|-3------|-3--3--3--3--3--1------------------|-0-----0----0---3--3--|
D#|-3---1--2--3-------|--------|-------------------1--3--3---------|-3-----3----3---0--0--|


D#|----------------0--0--|-------0--0--------0--0--|-3-----3----3---------|-3-----3----3---0--0--|
A#|-5-----5----5---0--0--|-10----0--0--5-----0--0--|-3-----3----3---------|-3-----3----3---0--0--|
F#|-5-----5----5---0--0--|-10----0--0--5-----0--0--|-0-----0----0---0--0--|-0-----0----0---0--0--|
C#|-5-----5----5---0--0--|-10----0--0--5-----0--0--|-0-----0----0---0--0--|-0-----0----0---0--0--|
G#|-3-----3----3---8--8--|-8-----3--3--3-----0--0--|-0-----0----0---0--0--|-0-----0----0---3--3--|
D#|----------------0--0--|-------0--0--------3--3--|-3-----3----3---3--3--|-3-----3----3---0--0--|


D#|----------------0--0--|-------0--0--------0--0--|-3-----3----3---------|-3-----3----3---0--0--|
A#|-5-----5----5---0--0--|-10----0--0--5-----0--0--|-3-----3----3---------|-3-----3----3---0--0--|
F#|-5-----5----5---0--0--|-10----0--0--5-----0--0--|-0-----0----0---0--0--|-0-----0----0---0--0--|
C#|-5-----5----5---0--0--|-10----0--0--5-----0--0--|-0-----0----0---0--0--|-0-----0----0---0--0--|
G#|-3-----3----3---8--8--|-8-----3--3--3-----0--0--|-0-----0----0---0--0--|-0-----0----0---3--3--|
D#|----------------0--0--|-------0--0--------3--3--|-3-----3----3---3--3--|-3-----3----3---0--0--|


D#|----------------0--0--|-------0--0--------0--0--|-3-----3----3---------|-3-----3----3---0--0--|
A#|-5-----5----5---0--0--|-10----0--0--5-----0--0--|-3-----3----3---------|-3-----3----3---0--0--|
F#|-5-----5----5---0--0--|-10----0--0--5-----0--0--|-0-----0----0---0--0--|-0-----0----0---0--0--|
C#|-5-----5----5---0--0--|-10----0--0--5-----0--0--|-0-----0----0---0--0--|-0-----0----0---0--0--|
G#|-3-----3----3---8--8--|-8-----3--3--3-----0--0--|-0-----0----0---0--0--|-0-----0----0---3--3--|
D#|----------------0--0--|-------0--0--------3--3--|-3-----3----3---3--3--|-3-----3----3---0--0--|


D#|----------------0--0--|-------------|-3------|-3------|-3------|-3------|-3------|
A#|-5-----5----5---0--0--|-10----5-----|-3------|-3------|-3------|-3------|-3------|
F#|-5-----5----5---0--0--|-10----5-----|-0------|-0------|-0------|-0------|-0------|
C#|-5-----5----5---0--0--|-10----5-----|-0------|-0------|-0------|-0------|-0------|
G#|-3-----3----3---8--8--|-8-----3-----|-0------|-0------|-0------|-0------|-0------|
D#|----------------0--0--|-------------|-3------|-3------|-3------|-3------|-3------|


D#|-3------|-------------------------------------------|-------------------------------------------|
A#|-3------|-------------------------------------------|-------------------------------------------|
F#|-0------|-------------------------------------------|-------------------------------------------|
C#|-0------|-------------------------------------------|-5---5--5--5--5---5--5--5--5--5--5--5---5--|
G#|-0------|-5---5--5--5--5---5--5--5--5--5--5--5---5--|-3---3--3--3--3---3--3--3--3--3--3--3---3--|
D#|-3------|-3---3--3--3--3---3--3--3--3--3--3--3---3--|-------------------------------------------|


D#|-------------|-----------------------------------------|-------------------------------------------|
A#|-10----5-----|-----------------------------------------|-------------------------------------------|
F#|-10----5-----|-----------------------------------------|-------------------------------------------|
C#|-10----5-----|-----------------------------------------|-------------------------------------------|
G#|-8-----3-----|-5---5--5--5----5-----5-----5--5---5--5--|-5---5--5--5--5---5--5--5--5--5--5--5---5--|
D#|-------------|-3---3--3--3----3-----3-----3--3---3--3--|-3---3--3--3--3---3--3--3--3--3--3--3---3--|


D#|-------------------------------------------|-------------|-----------------------------------------|
A#|-------------------------------------------|-10----5-----|-----------------------------------------|
F#|-------------------------------------------|-10----5-----|-----------------------------------------|
C#|-5---5--5--5--5---5--5--5--5--5--5--5---5--|-10----5-----|-----------------------------------------|
G#|-3---3--3--3--3---3--3--3--3--3--3--3---3--|-8-----3-----|-5---5--5--5----5-----5-----5--5---5--5--|
D#|-------------------------------------------|-------------|-3---3--3--3----3-----3-----3--3---3--3--|


D#|-------------------------------------------|-------------------------------------------|
A#|-------------------------------------------|-------------------------------------------|
F#|-------------------------------------------|-------------------------------------------|
C#|-------------------------------------------|-5---5--5--5--5---5--5--5--5--5--5--5---5--|
G#|-5---5--5--5--5---5--5--5--5--5--5--5---5--|-3---3--3--3--3---3--3--3--3--3--3--3---3--|
D#|-3---3--3--3--3---3--3--3--3--3--3--3---3--|-------------------------------------------|


D#|-------------|-----------------------------------------|-------------------------------------------|
A#|-10----5-----|-----------------------------------------|-------------------------------------------|
F#|-10----5-----|-----------------------------------------|-------------------------------------------|
C#|-10----5-----|-----------------------------------------|-------------------------------------------|
G#|-8-----3-----|-5---5--5--5----5-----5-----5--5---5--5--|-5---5--5--5--5---5--5--5--5--5--5--5---5--|
D#|-------------|-3---3--3--3----3-----3-----3--3---3--3--|-3---3--3--3--3---3--3--3--3--3--3--3---3--|


D#|-------------------------------------------|-------------|-----------------------------------------|
A#|-------------------------------------------|-10----5-----|-----------------------------------------|
F#|-------------------------------------------|-10----5-----|-----------------------------------------|
C#|-5---5--5--5--5---5--5--5--5--5--5--5---5--|-10----5-----|-----------------------------------------|
G#|-3---3--3--3--3---3--3--3--3--3--3--3---3--|-8-----3-----|-5---5--5--5----5-----5-----5--5---5--5--|
D#|-------------------------------------------|-------------|-3---3--3--3----3-----3-----3--3---3--3--|


D#|-------------------------------------------|-------------------------------------------|
A#|-------------------------------------------|-------------------------------------------|
F#|-------------------------------------------|-------------------------------------------|
C#|-------------------------------------------|-5---5--5--5--5---5--5--5--5--5--5--5---5--|
G#|-5---5--5--5--5---5--5--5--5--5--5--5---5--|-3---3--3--3--3---3--3--3--3--3--3--3---3--|
D#|-3---3--3--3--3---3--3--3--3--3--3--3---3--|-------------------------------------------|


D#|-------------|-----------------------------------------|-------------------------------------------|
A#|-10----5-----|-----------------------------------------|-------------------------------------------|
F#|-10----5-----|-----------------------------------------|-------------------------------------------|
C#|-10----5-----|-----------------------------------------|-------------------------------------------|
G#|-8-----3-----|-5---5--5--5----5-----5-----5--5---5--5--|-5---5--5--5--5---5--5--5--5--5--5--5---5--|
D#|-------------|-3---3--3--3----3-----3-----3--3---3--3--|-3---3--3--3--3---3--3--3--3--3--3--3---3--|


D#|-------------------------------------------|-------------|-----------------------------------------|
A#|-------------------------------------------|-10----5-----|-----------------------------------------|
F#|-------------------------------------------|-10----5-----|-----------------------------------------|
C#|-5---5--5--5--5---5--5--5--5--5--5--5---5--|-10----5-----|-----------------------------------------|
G#|-3---3--3--3--3---3--3--3--3--3--3--3---3--|-8-----3-----|-5---5--5--5----5-----5-----5--5---5--5--|
D#|-------------------------------------------|-------------|-3---3--3--3----3-----3-----3--3---3--3--|


D#|-------------------------------------------|-------------------------------------------|
A#|-------------------------------------------|-------------------------------------------|
F#|-------------------------------------------|-------------------------------------------|
C#|-------------------------------------------|-5---5--5--5--5---5--5--5--5--5--5--5---5--|
G#|-5---5--5--5--5---5--5--5--5--5--5--5---5--|-3---3--3--3--3---3--3--3--3--3--3--3---3--|
D#|-3---3--3--3--3---3--3--3--3--3--3--3---3--|-------------------------------------------|


D#|-------------|-----------------------------------------|-------------------------------------------|
A#|-10----5-----|-----------------------------------------|-------------------------------------------|
F#|-10----5-----|-----------------------------------------|-------------------------------------------|
C#|-10----5-----|-----------------------------------------|-------------------------------------------|
G#|-8-----3-----|-5---5--5--5----5-----5-----5--5---5--5--|-5---5--5--5--5---5--5--5--5--5--5--5---5--|
D#|-------------|-3---3--3--3----3-----3-----3--3---3--3--|-3---3--3--3--3---3--3--3--3--3--3--3---3--|


D#|-------------------------------------------|-------------|-----------------------------------------|
A#|-------------------------------------------|-10----5-----|-----------------------------------------|
F#|-------------------------------------------|-10----5-----|-----------------------------------------|
C#|-5---5--5--5--5---5--5--5--5--5--5--5---5--|-10----5-----|-----------------------------------------|
G#|-3---3--3--3--3---3--3--3--3--3--3--3---3--|-8-----3-----|-5---5--5--5----5-----5-----5--5---5--5--|
D#|-------------------------------------------|-------------|-3---3--3--3----3-----3-----3--3---3--3--|


D#|-------------------------------------------|-------------------------------------------|
A#|-------------------------------------------|-------------------------------------------|
F#|-------------------------------------------|-------------------------------------------|
C#|-------------------------------------------|-5---5--5--5--5---5--5--5--5--5--5--5---5--|
G#|-5---5--5--5--5---5--5--5--5--5--5--5---5--|-3---3--3--3--3---3--3--3--3--3--3--3---3--|
D#|-3---3--3--3--3---3--3--3--3--3--3--3---3--|-------------------------------------------|


D#|-------------|-----------------------------------------|-------------------------------------------|
A#|-10----5-----|-----------------------------------------|-------------------------------------------|
F#|-10----5-----|-----------------------------------------|-------------------------------------------|
C#|-10----5-----|-----------------------------------------|-------------------------------------------|
G#|-8-----3-----|-5---5--5--5----5-----5-----5--5---5--5--|-5---5--5--5--5---5--5--5--5--5--5--5---5--|
D#|-------------|-3---3--3--3----3-----3-----3--3---3--3--|-3---3--3--3--3---3--3--3--3--3--3--3---3--|


D#|-------------------------------------------|-------------|-----------------------------------------|
A#|-------------------------------------------|-10----5-----|-----------------------------------------|
F#|-------------------------------------------|-10----5-----|-----------------------------------------|
C#|-5---5--5--5--5---5--5--5--5--5--5--5---5--|-10----5-----|-----------------------------------------|
G#|-3---3--3--3--3---3--3--3--3--3--3--3---3--|-8-----3-----|-5---5--5--5----5-----5-----5--5---5--5--|
D#|-------------------------------------------|-------------|-3---3--3--3----3-----3-----3--3---3--3--|


D#|-------------------------------------------|-------------------------------------------|
A#|-------------------------------------------|-------------------------------------------|
F#|-------------------------------------------|-------------------------------------------|
C#|-------------------------------------------|-5---5--5--5--5---5--5--5--5--5--5--5---5--|
G#|-5---5--5--5--5---5--5--5--5--5--5--5---5--|-3---3--3--3--3---3--3--3--3--3--3--3---3--|
D#|-3---3--3--3--3---3--3--3--3--3--3--3---3--|-------------------------------------------|


D#|-------------|-----------------------------------------|-------------------------------------------|
A#|-10----5-----|-----------------------------------------|-------------------------------------------|
F#|-10----5-----|-----------------------------------------|-------------------------------------------|
C#|-10----5-----|-----------------------------------------|-------------------------------------------|
G#|-8-----3-----|-5---5--5--5----5-----5-----5--5---5--5--|-5---5--5--5--5---5--5--5--5--5--5--5---5--|
D#|-------------|-3---3--3--3----3-----3-----3--3---3--3--|-3---3--3--3--3---3--3--3--3--3--3--3---3--|


D#|-------------------------------------------|-------------|-3------|-3------|-3------|
A#|-------------------------------------------|-10----5-----|-3------|-3------|-3------|
F#|-------------------------------------------|-10----5-----|-0------|-0------|-0------|
C#|-5---5--5--5--5---5--5--5--5--5--5--5---5--|-10----5-----|-0------|-0------|-0------|
G#|-3---3--3--3--3---3--3--3--3--3--3--3---3--|-8-----3-----|-0------|-0------|-0------|
D#|-------------------------------------------|-------------|-3------|-3------|-3------|


D#|-3------|-3------|-----------------|
A#|-3------|-3------|-----------------|
F#|-0------|-0------|-----------------|
C#|-0------|-0------|-5---------------|
G#|-0------|-0------|-5---------------|
D#|-3------|-3------|-3---------------|









Track 3: Riffs + Solo
Back to top
D#|--------|--------|--------|--------|--------|--------|--------|--------|--------|
A#|--------|--------|--------|--------|--------|--------|--------|--------|--------|
F#|--------|--------|--------|--------|--------|--------|--------|--------|--------|
C#|--------|--------|--------|--------|--------|--------|--------|--------|--------|
G#|--------|--------|--------|--------|--------|--------|--------|--------|--------|
D#|--------|--------|--------|--------|--------|--------|--------|--------|--------|


D#|--------|--------|--------|--------|--------|--------|--------|--------|--------|
A#|--------|--------|--------|--------|--------|--------|--------|--------|--------|
F#|--------|--------|--------|--------|--------|--------|--------|--------|--------|
C#|--------|--------|--------|--------|--------|--------|--------|--------|--------|
G#|--------|--------|--------|--------|--------|--------|--------|--------|--------|
D#|--------|--------|--------|--------|--------|--------|--------|--------|--------|


D#|--------|--------|--------|--------|--------|--------|-------------------------------------------|
A#|--------|--------|--------|--------|--------|--------|-----------------------15------------------|
F#|--------|--------|--------|--------|--------|--------|-------12-12-12-----------14---14-14-12----|
C#|--------|--------|--------|--------|--------|--------|-12-14-----------14-12------------------14-|
G#|--------|--------|--------|--------|--------|--------|-------------------------------------------|
D#|--------|--------|--------|--------|--------|--------|-------------------------------------------|


D#|-------------------------------------------|----------------------------|-------------|
A#|-----------------------15------------------|-13---13---13---10-10-8-----|-10----------|
F#|-------12-12-12-----------14---14-14-12----|-------------------------9--|-------------|
C#|-12-14-----------14-12------------------14-|----------------------------|-------------|
G#|-------------------------------------------|----------------------------|-------------|
D#|-------------------------------------------|----------------------------|-------------|


D#|-------------------------------------------|-------------------------------------------|
A#|-----------------------15------------------|-----------------------15------------------|
F#|-------12-12-12-----------14---14-14-12----|-------12-12-12-----------14---14-14-12----|
C#|-12-14-----------14-12------------------14-|-12-14-----------14-12------------------14-|
G#|-------------------------------------------|-------------------------------------------|
D#|-------------------------------------------|-------------------------------------------|


D#|-----------15----------------|--------|--------|--------|--------|--------|--------|
A#|-13---13------13--13---12-13-|-12-----|--------|--------|--------|--------|--------|
F#|-----------------------------|--------|--------|--------|--------|--------|--------|
C#|-----------------------------|--------|--------|--------|--------|--------|--------|
G#|-----------------------------|--------|--------|--------|--------|--------|--------|
D#|-----------------------------|--------|--------|--------|--------|--------|--------|


D#|--------|--------|-------|--------|--------|--------|--------|--------|--------|
A#|--------|--------|-------|--------|--------|--------|--------|--------|--------|
F#|--------|--------|-------|--------|--------|--------|--------|--------|--------|
C#|--------|--------|-------|--------|--------|--------|--------|--------|--------|
G#|--------|--------|-------|--------|--------|--------|--------|--------|--------|
D#|--------|--------|-------|--------|--------|--------|--------|--------|--------|


D#|--------|--------|--------|-------|--------|--------|--------|--------|--------|
A#|--------|--------|--------|-------|--------|--------|--------|--------|--------|
F#|--------|--------|--------|-------|--------|--------|--------|--------|--------|
C#|--------|--------|--------|-------|--------|--------|--------|--------|--------|
G#|--------|--------|--------|-------|--------|--------|--------|--------|--------|
D#|--------|--------|--------|-------|--------|--------|--------|--------|--------|


D#|--------|--------|--------|--------|--------|--------|--------|--------|--------|
A#|--------|--------|--------|--------|--------|--------|--------|--------|--------|
F#|--------|--------|--------|--------|--------|--------|--------|--------|--------|
C#|--------|--------|--------|--------|--------|--------|--------|--------|--------|
G#|--------|--------|--------|--------|--------|--------|--------|--------|--------|
D#|--------|--------|--------|--------|--------|--------|--------|--------|--------|


D#|--------|--------|--------|-------|--------|--------|--------|--------|--------|
A#|--------|--------|--------|-------|--------|--------|--------|--------|--------|
F#|--------|--------|--------|-------|--------|--------|--------|--------|--------|
C#|--------|--------|--------|-------|--------|--------|--------|--------|--------|
G#|--------|--------|--------|-------|--------|--------|--------|--------|--------|
D#|--------|--------|--------|-------|--------|--------|--------|--------|--------|


D#|--------|--------|--------|--------|--------|-------------------------------|--------------------------------|
A#|--------|--------|--------|--------|--------|-------------------------------|--------------------------------|
F#|--------|--------|--------|--------|--------|-------------------3-----------|-5----5--3----3-------5--5--3---|
C#|--------|--------|--------|--------|--------|-3---3----3---5-------5--3-----|-----------------5--------------|
G#|--------|--------|--------|--------|--------|----------------------------5--|--------------------------------|
D#|--------|--------|--------|--------|--------|-------------------------------|--------------------------------|


D#|--------------1---------------6-------|------------5------------------|-----5--8------------------------------------|
A#|----------3-------1--6--6--6----------|---------------8--8----8---8---|-8---------8--8--5--8------5--8--------------|
F#|-5----5---------------------------5---|-5----3--4---------------------|-----------------------7---------7--7--5-----|
C#|--------------------------------------|-------------------------------|------------------------------------------7--|
G#|--------------------------------------|-------------------------------|---------------------------------------------|
D#|--------------------------------------|-------------------------------|---------------------------------------------|


D#|------------------------------------------|----------3-----------------3--------|
A#|------------------------------------------|-5----5------3-----5----5------3-----|
F#|-7--5-------------------------------------|-5----5---------3--5----5---------3--|
C#|-------7--5-------------------------------|-------------------------------------|
G#|-------------7--6--5--3--5--5--3----------|-------------------------------------|
D#|----------------------------------5--5----|-------------------------------------|


D#|----------3--------|----------------------|----10----------10----------10----------10-------|
A#|-5----5------3-----|-5-----5--------------|-------------------------------------------------|
F#|-5----5---------3--|-5---------5-------10-|-11----12-10-11-------10-11----12-10-11-------8--|
C#|-------------------|----------------------|-------------------------------------------------|
G#|-------------------|----------------------|-------------------------------------------------|
D#|-------------------|----------------------|-------------------------------------------------|


D#|----8-----------8-----------8-----------8--------|----10----------10----------10----------10-------|
A#|-------------------------------------------------|-------------------------------------------------|
F#|-9-----10-8--9--------8--9-----10-8--9--------10-|-11----12-10-11-------10-11----12-10-11-------8--|
C#|-------------------------------------------------|-------------------------------------------------|
G#|-------------------------------------------------|-------------------------------------------------|
D#|-------------------------------------------------|-------------------------------------------------|


D#|----8-----------8-----------8-----------8--------|----10----------10----------10----------10-------|
A#|-------------------------------------------------|-------------------------------------------------|
F#|-9-----10-8--9--------8--9-----10-8--9--------10-|-11----12-10-11-------10-11----12-10-11-------8--|
C#|-------------------------------------------------|-------------------------------------------------|
G#|-------------------------------------------------|-------------------------------------------------|
D#|-------------------------------------------------|-------------------------------------------------|


D#|----8-----------8-----------8-----------8--------|----10----------10----------10----------10-------|
A#|-------------------------------------------------|-------------------------------------------------|
F#|-9-----10-8--9--------8--9-----10-8--9--------10-|-11----12-10-11-------10-11----12-10-11-------8--|
C#|-------------------------------------------------|-------------------------------------------------|
G#|-------------------------------------------------|-------------------------------------------------|
D#|-------------------------------------------------|-------------------------------------------------|


D#|----8-----------8-----------6----6----|--------|--------|--------|-------|--------|
A#|----------------------------6----6----|--------|--------|--------|-------|--------|
F#|-9-----10-8--9-----10-6--7------------|--------|--------|--------|-------|--------|
C#|--------------------------------------|--------|--------|--------|-------|--------|
G#|--------------------------------------|--------|--------|--------|-------|--------|
D#|--------------------------------------|--------|--------|--------|-------|--------|


D#|--------|-------------------------------------------|-------------------------------------------|
A#|--------|-----------------------15------------------|-----------------------15------------------|
F#|--------|-------12-12-12-----------14---14-14-12----|-------12-12-12-----------14---14-14-12----|
C#|--------|-12-14-----------14-12------------------14-|-12-14-----------14-12------------------14-|
G#|--------|-------------------------------------------|-------------------------------------------|
D#|--------|-------------------------------------------|-------------------------------------------|


D#|----------------------------|-------------|-------------------------------------------|
A#|-13---13---13---10-10-8-----|-10----------|-----------------------15------------------|
F#|-------------------------9--|-------------|-------12-12-12-----------14---14-14-12----|
C#|----------------------------|-------------|-12-14-----------14-12------------------14-|
G#|----------------------------|-------------|-------------------------------------------|
D#|----------------------------|-------------|-------------------------------------------|


D#|-------------------------------------------|-----------15----------------|--------|
A#|-----------------------15------------------|-13---13------13--13---12-13-|-12-----|
F#|-------12-12-12-----------14---14-14-12----|-----------------------------|--------|
C#|-12-14-----------14-12------------------14-|-----------------------------|--------|
G#|-------------------------------------------|-----------------------------|--------|
D#|-------------------------------------------|-----------------------------|--------|


D#|-------------------------------------------|-------------------------------------------|
A#|-----------------------15------------------|-----------------------15------------------|
F#|-------12-12-12-----------14---14-14-12----|-------12-12-12-----------14---14-14-12----|
C#|-12-14-----------14-12------------------14-|-12-14-----------14-12------------------14-|
G#|-------------------------------------------|-------------------------------------------|
D#|-------------------------------------------|-------------------------------------------|


D#|----------------------------|---------------------------------------------|--------------------------15---------------|
A#|-13---13---13---10-10-8-----|-----15-------15-------15-----15-------------|-----------------------15------------------|
F#|-------------------------9--|-14-----14-14----14-14----14-----14-14-12----|-------12-12-12----------------14-14-12----|
C#|----------------------------|------------------------------------------14-|-12-14-----------14-12------------------14-|
G#|----------------------------|---------------------------------------------|-------------------------------------------|
D#|----------------------------|---------------------------------------------|-------------------------------------------|


D#|--------------------------15---------------|----13---13---12----|-------------|
A#|-------13-13-13--------15------15-15-13----|--------------13----|-12----12----|
F#|-12-14-----------14-12------------------13-|-14-----------12----|-------------|
C#|-------------------------------------------|--------------------|-------------|
G#|-------------------------------------------|--------------------|-------------|
D#|-------------------------------------------|--------------------|-------------|


D#|--------|--------|-------------|--------|--------|--------|--------|--------|--------|
A#|-12-----|-0------|-12----12----|-12-----|-0------|--------|--------|--------|--------|
F#|--------|-0------|-------------|--------|-0------|--------|--------|--------|--------|
C#|--------|-0------|-------------|--------|-0------|--------|--------|--------|--------|
G#|--------|-0------|-------------|--------|-0------|--------|--------|--------|--------|
D#|--------|--------|-------------|--------|--------|--------|--------|--------|--------|


D#|--------|--------|--------|--------|--------------------------------|------------------------------------------|
A#|--------|--------|--------|--------|--------------------------------|-5--5--5--3--5--5--5--3--5--5--5--3--5----|
F#|--------|--------|--------|--------|------3-----------------3-------|-5--5--5--3--5--5--5--3--5--5--5--3--5----|
C#|--------|--------|--------|--------|-5-------5---5--5---3------5----|------------------------------------------|
G#|--------|--------|--------|--------|--------------------------------|------------------------------------------|
D#|--------|--------|--------|--------|--------------------------------|------------------------------------------|


D#|-------------------------|---------------------------------------------|------------------------------------|
A#|-6-----0--5--5-----5--3--|-3--3------------3-----------------3--3------|-----------15-15---15--15--15--15---|
F#|-5-----0--5--5-----5--3--|-3--3------------3-----3--2--------3--3------|-----12-----------------------------|
C#|-------------------------|-------5--3--5------5--------5--3------------|-1214-------------------------------|
G#|-------------------------|---------------------------------------------|------------------------------------|
D#|-------------------------|---------------------------------------------|------------------------------------|


D#|---------------------------------------------------------------|-------------10-15-----15----------15----15----15----15----15-------|
A#|-15--15--14--13-13-------13-15-13-15-13-111311131110-1110--1011|-10----10-13-------18-----18-15-18----18----18----18----18----18-15-|
F#|-------------------15-15---------------------------------12----|----12--------------------------------------------------------------|
C#|---------------------------------------------------------------|--------------------------------------------------------------------|
G#|---------------------------------------------------------------|--------------------------------------------------------------------|
D#|---------------------------------------------------------------|--------------------------------------------------------------------|


D#|----15----15-------15--15-------18---18------|-3--------3--------3--------3--------3--------3--------3--------3--------|
A#|-------18----18-18--------18-15--------------|----6--3-----6--3-----6--3-----6--3-----6--3-----6--3-----6--3-----6--3--|
F#|-17------------------------------------------|-------------------------------------------------------------------------|
C#|---------------------------------------------|-------------------------------------------------------------------------|
G#|---------------------------------------------|-------------------------------------------------------------------------|
D#|---------------------------------------------|-------------------------------------------------------------------------|


D#|-3--------3--------3--------3--------3--------3--------3--------3--------|-----6--5-6-5----------------------------------------------|
A#|----6--3-----6--3-----6--3-----6--3-----6--3-----6--3-----6--3-----6--3--|-6-8----------8-6-8--5-6-8-5-6-8-6-5--------3-----3--------|
F#|-------------------------------------------------------------------------|-------------------------------------7-5-5-----5-----5--5--|
C#|-------------------------------------------------------------------------|-----------------------------------------------------------|
G#|-------------------------------------------------------------------------|-----------------------------------------------------------|
D#|-------------------------------------------------------------------------|-----------------------------------------------------------|


D#|-------------------------------------------------------|---------------------------------------------|
A#|-------------------------------------------------------|---------------------------------------------|
F#|-3--5--3--------3--------------------------------------|---------------------------------------------|
C#|----------3--5-----5----3--5--3-----------3------------|---------------------------------------------|
G#|---------------------------------5--3--5-----3--1------|---------------1-----3--3--3--1--3--1--------|
D#|---------------------------------------------------3---|-1---1--3--3------3--------------------3--0--|


D#|------------------------------------------------|-------------------------------------------|
A#|-------------------------3----------------------|-3---------------------3-------------------|
F#|-------------------------3----------------3-----|-3---------------5-----3-------------3-----|
C#|-------3-----5--3------------5-3-5--5--5-----5--|-----5--5--5--5-----5-------5--5--5-----5--|
G#|-3--5-----5--------5--3-------------------------|-------------------------------------------|
D#|------------------------------------------------|-------------------------------------------|


D#|----------3-----3-----------3-------------|----3-----------------3----------|------------3------3--------3-6-3----8--8--|
A#|-------3--------3--3-----3-----5--5--5----|-3-----5--5---5----3-----5----5--|-5---5---5-----6------6---6-------6--------|
F#|-5--5--------5--------5--------5--5--5----|-------5--5---5----------5----5--|-5---5---5---------------------------------|
C#|------------------------------------------|---------------------------------|-------------------------------------------|
G#|------------------------------------------|---------------------------------|-------------------------------------------|
D#|------------------------------------------|---------------------------------|-------------------------------------------|


D#|-6-----8--6--------10-10-9--8-----8--9--10-------|----------------------------------------10-|
A#|----8--------8--6--------------10----------10-10-|-8-----10----8---10----8---10----8--10-----|
F#|-------------------------------------------------|----9-----9---------9---------9------------|
C#|-------------------------------------------------|-------------------------------------------|
G#|-------------------------------------------------|-------------------------------------------|
D#|-------------------------------------------------|-------------------------------------------|


D#|-------------------------------------------|------------------------------------------------------------|
A#|-10----8---10----8---10----8---10----8--10-|-8--10-11-1011108----10----8------101110--10-11-13-10-11-13-|
F#|----9---------9---------9---------9--------|------------------10----10----1012------12------------------|
C#|-------------------------------------------|------------------------------------------------------------|
G#|-------------------------------------------|------------------------------------------------------------|
D#|-------------------------------------------|------------------------------------------------------------|


D#|-10-12----10-12-13-15-12-13-17-131515-17----18-151715----15-------15-|-----------------------------0-18--18-------------|
A#|-------13--------------------------------18-----------18----18-18----|-18151815--151815--15----------17--17--17--14-----|
F#|---------------------------------------------------------------------|---------18------18--171715-----------------------|
C#|---------------------------------------------------------------------|---------------------------17---------------------|
G#|---------------------------------------------------------------------|--------------------------------------------------|
D#|---------------------------------------------------------------------|--------------------------------------------------|


D#|-------------------1213151312--1315----12--------------------------|-----------------------------------------------------------------|
A#|----------12-13-15-----------15----1513--151312151312--141312--1514|-1312----1210----10----------------------------------------------|
F#|-12-14-15--------------------------------------------15------14----|-----1412----1210--12109-12109---109-----9-----------------------|
C#|-------------------------------------------------------------------|-------------------------------12----1210--12109-121010--1010--10|
G#|-------------------------------------------------------------------|-------------------------------------------------------13----13--|
D#|-------------------------------------------------------------------|-----------------------------------------------------------------|


D#|-------------------------------------------------------------|----------------------------------------------15-----------|
A#|-------------------------------------------------------------|-------------------151617------15161716-17-18----18-18-----|
F#|-------------------------------------------------------------|-151617------151617------151617----------------------------|
C#|-10--0-0-10----0-0-10-0--------------------15-16-17-15-16-17-|-------151617----------------------------------------------|
G#|-----0-0-------0-0-------15-16-17-15-16-17-------------------|--------------------------------------------------------15-|
D#|-------------------------------------------------------------|-----------------------------------------------------------|


D#|---------------------------------------------------------|-------------------------------------------------------------------------|
A#|---------------------------------------------------------|-------------------------------------------------------------------------|
F#|---------------------------------------------------------|-------------------------------------------------------------------------|
C#|---------------------------------------------------------|-3--4--5--3--4--5--3--4--5--3--4--5--3--4--5--3--4--5--3--4--5--3--4--5--|
G#|---------------------------------------------------------|-------------------------------------------------------------------------|
D#|-3--1-2-3--1-2-3--1-2-3--1-2-3--1-2-3--1-2-3--1-2-3--1-2-|-------------------------------------------------------------------------|


D#|----------------------------------------|---------------------------|--------------12-------------|
A#|----------------------------------------|---------------------------|-----------15----15-12-------|
F#|----------3---------3---3----5--5-3-5---|-5-----5--3--5-----3---3---|-------14--------------14-14-|
C#|-3--4--5----5---5-----------------------|----------------5----------|-5---------------------------|
G#|----------------------------------------|---------------------------|-----------------------------|
D#|----------------------------------------|---------------------------|-----------------------------|


D#|------------------------------------------------|-------------------------------------------------|
A#|------------------------------------------------|-------12-15----------------------------13-14-15-|
F#|-12----14----12--12-12-1412---12-12-12-12-14-12-|-14-14-------14-14-12----14----12-14-14----------|
C#|----14----14---------------14-------------------|----------------------14----14-------------------|
G#|------------------------------------------------|-------------------------------------------------|
D#|------------------------------------------------|-------------------------------------------------|


D#|---------------------------------------------------|-----------------------------------------------------------------|
A#|----13-15----13-15----13-15----13-15----13-1513--13|-1513--131513--131513--131513--131513--131513--131513--131513--13|
F#|-14-------14-------14-------14-------14--------15--|-----15------15------15------15------15------15------15------15--|
C#|---------------------------------------------------|-----------------------------------------------------------------|
G#|---------------------------------------------------|-----------------------------------------------------------------|
D#|---------------------------------------------------|-----------------------------------------------------------------|


D#|-----------------------------------------------------------------|-----------------------------------------------------------|
A#|-1513--131513--131513--131513--131513--131513--131513--131513--13|-15--1315131213-121312-------12----------------------------|
F#|-----15------15------15------15------15------15------15------15--|-----------------------14-12----14-14-12----14-12----------|
C#|-----------------------------------------------------------------|-----------------------------------------14-------12-14-12-|
G#|-----------------------------------------------------------------|-----------------------------------------------------------|
D#|-----------------------------------------------------------------|-----------------------------------------------------------|


D#|--------|----------------------------------------------------------------------|
A#|--------|----------------------------------------------------------------------|
F#|--------|-5--5--3--5--3-----5--5--3-----5-----3-----3--------------------------|
C#|-12-----|----------------5-----------5-----5-----5-----5--3--------------------|
G#|--------|----------------------------------------------------5--4--3--3--3--1--|
D#|--------|----------------------------------------------------------------------|


D#|-----------------------------|--------|--------|-----------------|
A#|-----------------------------|--------|--------|-----------------|
F#|-------------------------3---|-3------|-3------|-----------------|
C#|----------1-5-5----5---------|--------|--------|-5---------------|
G#|-3--1--2---------------------|--------|--------|-5---------------|
D#|-----------------------------|--------|--------|-3---------------|









Track 4: Rythm Guitar 2
Back to top
D#|--------|--------|--------|--------|--------|--------|--------|--------|--------|
A#|--------|--------|--------|--------|--------|--------|--------|--------|--------|
F#|--------|--------|--------|--------|--------|--------|--------|--------|--------|
C#|--------|--------|--------|--------|--------|--------|--------|--------|--------|
G#|--------|--------|--------|--------|--------|--------|--------|--------|--------|
D#|--------|--------|--------|--------|--------|--------|--------|--------|--------|


D#|--------|--------|--------|--------|--------|--------|--------|--------|--------|
A#|--------|--------|--------|--------|--------|--------|--------|--------|--------|
F#|--------|--------|--------|--------|--------|--------|--------|--------|--------|
C#|--------|--------|--------|--------|--------|--------|--------|--------|--------|
G#|--------|--------|--------|--------|--------|--------|--------|--------|--------|
D#|--------|--------|--------|--------|--------|--------|--------|--------|--------|


D#|--------|--------|--------|--------|--------|--------|-3------|--------|-------------|
A#|--------|--------|--------|--------|--------|--------|-3------|-5------|-10----5-----|
F#|--------|--------|--------|--------|--------|--------|-0------|-5------|-10----5-----|
C#|--------|--------|--------|--------|--------|--------|-0------|-5------|-10----5-----|
G#|--------|--------|--------|--------|--------|--------|-0------|-3------|-8-----3-----|
D#|--------|--------|--------|--------|--------|--------|-3------|--------|-------------|


D#|-3------|-3------|--------|-------------|-3------|-----------------------------------------|
A#|-3------|-3------|-5------|-10----5-----|-3------|-----------------------------------------|
F#|-0------|-0------|-5------|-10----5-----|-0------|------------------------------------3----|
C#|-0------|-0------|-5------|-10----5-----|-0------|---------------------------------5--3----|
G#|-0------|-0------|-3------|-8-----3-----|-0------|-5---3--4--5---3--4--5--3--5--3--5-------|
D#|-3------|-3------|--------|-------------|-3------|-----------------------------------------|


D#|-----------------------------------------|-----------------------------------------|
A#|-----------------------------------------|-----------------------------------------|
F#|---------------------------------5--3----|------------------------------------3----|
C#|---------------------------------5--3----|---------------------------------5--3----|
G#|-5---3--4--5---3--4--5--3--5--3----------|-5---3--4--5---3--4--5--3--5--3--5-------|
D#|-----------------------------------------|-----------------------------------------|


D#|-------------------------------------|---------------------------------------------|
A#|-------------------------------------|---------------------------------------------|
F#|-----------------------------5--3----|--------------------------------------3---3--|
C#|---------------------5---3---5--3----|-5---3--4--5--5--3--5--------5--5--5---------|
G#|-5---3--4--5---3--4--5---3-----------|--------------------------5------------------|
D#|-------------------------------------|---------------------------------------------|


D#|---------------------------------------------|---------------------------------------------|
A#|---------------------------------------------|---------------------------------------------|
F#|-----------------------------------5--3---3--|--------------------------------------3---3--|
C#|-5---3--4--5--5--3--5--------5--5------------|-5---3--4--5--5--3--5--------5--5--5---------|
G#|--------------------------5------------------|--------------------------5------------------|
D#|---------------------------------------------|---------------------------------------------|


D#|-----------------|------------------------|-----------------------------------|
A#|-----------------|------------------------|-----------------------------------|
F#|-----------------|-5----5---5---5---5-----|-5--5--5--3--5--5--5--3------------|
C#|-5---3---5---3---|------------------------|-------------------------5----5----|
G#|-----------------|------------------------|-----------------------------------|
D#|-----------------|------------------------|-----------------------------------|


D#|-----------------------------------------|-----------------------------------------|
A#|-----------------------------------------|-----------------------------------------|
F#|------------------------------------3----|---------------------------------5--3----|
C#|---------------------------------5--3----|---------------------------------5--3----|
G#|-5---3--4--5---3--4--5--3--5--3--5-------|-5---3--4--5---3--4--5--3--5--3----------|
D#|-----------------------------------------|-----------------------------------------|


D#|-----------------------------------------|-------------------------------------|
A#|-----------------------------------------|-------------------------------------|
F#|------------------------------------3----|-----------------------------5--3----|
C#|---------------------------------5--3----|---------------------5---3---5--3----|
G#|-5---3--4--5---3--4--5--3--5--3--5-------|-5---3--4--5---3--4--5---3-----------|
D#|-----------------------------------------|-------------------------------------|


D#|---------------------------------------------|---------------------------------------------|
A#|---------------------------------------------|---------------------------------------------|
F#|--------------------------------------3---3--|-----------------------------------5--3---3--|
C#|-5---3--4--5--5--3--5--------5--5--5---------|-5---3--4--5--5--3--5--------5--5------------|
G#|--------------------------5------------------|--------------------------5------------------|
D#|---------------------------------------------|---------------------------------------------|


D#|---------------------------------------------|-----------------|------------------------|
A#|---------------------------------------------|-----------------|------------------------|
F#|--------------------------------------3---3--|-----------------|-5----5---5---5---5-----|
C#|-5---3--4--5--5--3--5--------5--5--5---------|-5---3---5---3---|------------------------|
G#|--------------------------5------------------|-----------------|------------------------|
D#|---------------------------------------------|-----------------|------------------------|


D#|-----------------------------------|-3------|--------|-------------|-3------|-3------|
A#|-----------------------------------|-3------|-5------|-10----5-----|-3------|-3------|
F#|-5--5--5--3--5--5--5--3------------|-0------|-5------|-10----5-----|-0------|-0------|
C#|-------------------------5----5----|-0------|-5------|-10----5-----|-0------|-0------|
G#|-----------------------------------|-0------|-3------|-8-----3-----|-0------|-0------|
D#|-----------------------------------|-3------|--------|-------------|-3------|-3------|


D#|--------|-------------|-3------|-----------------------------------------|-----------------------------------------|
A#|-5------|-10----5-----|-3------|-----------------------------------------|-----------------------------------------|
F#|-5------|-10----5-----|-0------|------------------------------------3----|---------------------------------5--3----|
C#|-5------|-10----5-----|-0------|---------------------------------5--3----|---------------------------------5--3----|
G#|-3------|-8-----3-----|-0------|-5---3--4--5---3--4--5--3--5--3--5-------|-5---3--4--5---3--4--5--3--5--3----------|
D#|--------|-------------|-3------|-----------------------------------------|-----------------------------------------|


D#|-----------------------------------------|-------------------------------------|
A#|-----------------------------------------|-------------------------------------|
F#|------------------------------------3----|-----------------------------5--3----|
C#|---------------------------------5--3----|---------------------5---3---5--3----|
G#|-5---3--4--5---3--4--5--3--5--3--5-------|-5---3--4--5---3--4--5---3-----------|
D#|-----------------------------------------|-------------------------------------|


D#|---------------------------------------------|---------------------------------------------|
A#|---------------------------------------------|---------------------------------------------|
F#|--------------------------------------3---3--|-----------------------------------5--3---3--|
C#|-5---3--4--5--5--3--5--------5--5--5---------|-5---3--4--5--5--3--5--------5--5------------|
G#|--------------------------5------------------|--------------------------5------------------|
D#|---------------------------------------------|---------------------------------------------|


D#|---------------------------------------------|-----------------|------------------------|
A#|---------------------------------------------|-----------------|------------------------|
F#|--------------------------------------3---3--|-----------------|-5----5---5---5---5-----|
C#|-5---3--4--5--5--3--5--------5--5--5---------|-5---3---5---3---|------------------------|
G#|--------------------------5------------------|-----------------|------------------------|
D#|---------------------------------------------|-----------------|------------------------|


D#|-----------------------------------|-3------|--------|-------------|-3------|-3------|
A#|-----------------------------------|-3------|-5------|-10----5-----|-3------|-3------|
F#|-5--5--5--3--5--5--5--3------------|-0------|-5------|-10----5-----|-0------|-0------|
C#|-------------------------5----5----|-0------|-5------|-10----5-----|-0------|-0------|
G#|-----------------------------------|-0------|-3------|-8-----3-----|-0------|-0------|
D#|-----------------------------------|-3------|--------|-------------|-3------|-3------|


D#|--------|-------------|----------------------|-----------------------------------------|
A#|-5------|-10----5-----|-12-10---10----10--10-|-----------------------------------------|
F#|-5------|-10----5-----|-12-10---10----10--10-|------------------------------------3----|
C#|-5------|-10----5-----|-12-10---10----10--10-|---------------------------------5--3----|
G#|-3------|-8-----3-----|-10-8----8-----8---8--|-5---3--4--5---3--4--5--3--5--3--5-------|
D#|--------|-------------|----------------------|-----------------------------------------|


D#|-----------------------------------------|-----------------------------------------|
A#|-----------------------------------------|-----------------------------------------|
F#|------------------------------------3----|------------------------------------3----|
C#|---------------------------------5--3----|---------------------------------5--3----|
G#|-5---3--4--5---3--4--5--3--5--3--5-------|-5---3--4--5---3--4--5--3--5--3--5-------|
D#|-----------------------------------------|-----------------------------------------|


D#|-------------------------------------|-------------------------------------------|
A#|-------------------------------------|-------------------------------------------|
F#|-----------------------------5--3----|------------------------------------5---5--|
C#|---------------------5---3---5--3----|---------------------------------7--5---5--|
G#|-5---3--4--5---3--4--5---3-----------|-7---5--6--7---5--6--7--5--7--5--7---------|
D#|-------------------------------------|-------------------------------------------|


D#|-------------------------------------------|---------------------------------------------|
A#|-------------------------------------------|---------------------------------------------|
F#|---------------------------------7--5---5--|--------------------------------------3---3--|
C#|---------------------------------7--5---5--|-5---3--4--5--5--3--5--------5--5--5---------|
G#|-7---5--6--7---5--6--7--5--7--5------------|--------------------------5------------------|
D#|-------------------------------------------|---------------------------------------------|


D#|-------------------|--------|---------------------------------------------|---------------------------------------------|
A#|-------------------|-5------|---------------------------------------------|---------------------------------------------|
F#|-------------------|-5------|-7--7--7--7--7---0--0--7--7--7--7--7---0--0--|-5--5--5--5--5---0--0--5--5--5--5--5---0--0--|
C#|-----------5---3---|-5------|-7--7--7--7--7---0--0--7--7--7--7--7---0--0--|-5--5--5--5--5---0--0--5--5--5--5--5---0--0--|
G#|-5---3--4--5---3---|-3------|-5--5--5--5--5---0--0--5--5--5--5--5---0--0--|-3--3--3--3--3---0--0--3--3--3--3--3---0--0--|
D#|-------------------|--------|---------------------------------------------|---------------------------------------------|


D#|---------------------------------------------|---------------------------------------------|
A#|---------------------------------------------|---------------------------------------------|
F#|-7--7--7--7--7---0--0--7--7--7--7--7---0--0--|-5--5--5--5--5---0--0--5--5--5--5--5---0--0--|
C#|-7--7--7--7--7---0--0--7--7--7--7--7---0--0--|-5--5--5--5--5---0--0--5--5--5--5--5---0--0--|
G#|-5--5--5--5--5---0--0--5--5--5--5--5---0--0--|-3--3--3--3--3---0--0--3--3--3--3--3---0--0--|
D#|---------------------------------------------|---------------------------------------------|


D#|---------------------------------------------|---------------------------------------------|
A#|---------------------------------------------|---------------------------------------------|
F#|-7--7--7--7--7---0--0--7--7--7--7--7---0--0--|-5--5--5--5--5---0--0--5--5--5--5--5---0--0--|
C#|-7--7--7--7--7---0--0--7--7--7--7--7---0--0--|-5--5--5--5--5---0--0--5--5--5--5--5---0--0--|
G#|-5--5--5--5--5---0--0--5--5--5--5--5---0--0--|-3--3--3--3--3---0--0--3--3--3--3--3---0--0--|
D#|---------------------------------------------|---------------------------------------------|


D#|---------------------------------------------|-------------|---------------------------------------------|
A#|---------------------------------------------|-5-----3-----|---------------------------------------------|
F#|-7--7--7--7--7---0--0--7--7--7--7--7---0--0--|-5-----3-----|--------------------------------------3---3--|
C#|-7--7--7--7--7---0--0--7--7--7--7--7---0--0--|-5-----3-----|-5---3--4--5--5--3--5--------5--5--5---------|
G#|-5--5--5--5--5---0--0--5--5--5--5--5---0--0--|-3-----1-----|--------------------------5------------------|
D#|---------------------------------------------|-------------|---------------------------------------------|


D#|---------------------------------------------|---------------------------------------------|
A#|---------------------------------------------|---------------------------------------------|
F#|-----------------------------------5--3---3--|--------------------------------------3---3--|
C#|-5---3--4--5--5--3--5--------5--5------------|-5---3--4--5--5--3--5--------5--5--5---------|
G#|--------------------------5------------------|--------------------------5------------------|
D#|---------------------------------------------|---------------------------------------------|


D#|-----------------|------------------------|-----------------------------------|
A#|-----------------|------------------------|-----------------------------------|
F#|-----------------|-5----5---5---5---5-----|-5--5--5--3--5--5--5--3------------|
C#|-5---3---5---3---|------------------------|-------------------------5----5----|
G#|-----------------|------------------------|-----------------------------------|
D#|-----------------|------------------------|-----------------------------------|


D#|-3------|--------|-------------|-3------|-3------|--------|-------------|-3------|
A#|-3------|-5------|-10----5-----|-3------|-3------|-5------|-10----5-----|-3------|
F#|-0------|-5------|-10----5-----|-0------|-0------|-5------|-10----5-----|-0------|
C#|-0------|-5------|-10----5-----|-0------|-0------|-5------|-10----5-----|-0------|
G#|-0------|-3------|-8-----3-----|-0------|-0------|-3------|-8-----3-----|-0------|
D#|-3------|--------|-------------|-3------|-3------|--------|-------------|-3------|


D#|-3------|--------|-------------|-3------|-3------|--------|-------------|-3------|
A#|-3------|-5------|-10----5-----|-3------|-3------|-5------|-10----5-----|-3------|
F#|-0------|-5------|-10----5-----|-0------|-0------|-5------|-10----5-----|-0------|
C#|-0------|-5------|-10----5-----|-0------|-0------|-5------|-10----5-----|-0------|
G#|-0------|-3------|-8-----3-----|-0------|-0------|-3------|-8-----3-----|-0------|
D#|-3------|--------|-------------|-3------|-3------|--------|-------------|-3------|


D#|-3------|-3------|-3------|-3------|-3------|-------------------------------------------|
A#|-3------|-3------|-3------|-3------|-3------|-------------------------------------------|
F#|-0------|-0------|-0------|-0------|-0------|------------------------------------3---3--|
C#|-0------|-0------|-0------|-0------|-0------|-5---3--4--5---3--4--5--3--5--3--5---------|
G#|-0------|-0------|-0------|-0------|-0------|-------------------------------------------|
D#|-3------|-3------|-3------|-3------|-3------|-------------------------------------------|


D#|-------------------------------------------|---------------------------------------------|
A#|-------------------------------------------|---------------------------------------------|
F#|-5---3--4--5---3--4--5--3--5--3--5--3---3--|--------------------5--5---3--4--5--3--5--3--|
C#|-------------------------------------------|-3---1--2--3--0--3---------------------------|
G#|-------------------------------------------|---------------------------------------------|
D#|-------------------------------------------|---------------------------------------------|


D#|-----------------------------------------------|-------------------------------------------|
A#|-----------------------------------------------|-------------------------------------------|
F#|-3--3------------3-----5--3--------3--3--------|------------------------------------3---3--|
C#|-------5--3--5------5--------5--3--------5--3--|-5---3--4--5---3--4--5--3--5--3--5---------|
G#|-----------------------------------------------|-------------------------------------------|
D#|-----------------------------------------------|-------------------------------------------|


D#|-------------------------------------------|---------------------------------------------|
A#|-------------------------------------------|---------------------------------------------|
F#|-5---3--4--5---3--4--5--3--5--3--5--3---3--|--------------------5--5---3--4--5--3--5--3--|
C#|-------------------------------------------|-3---1--2--3--0--3---------------------------|
G#|-------------------------------------------|---------------------------------------------|
D#|-------------------------------------------|---------------------------------------------|


D#|-----------------------------------------------|-------------------------------------------|
A#|-----------------------------------------------|-------------------------------------------|
F#|-3--3------------3-----5--3--------3--3--------|------------------------------------3---3--|
C#|-------5--3--5------5--------5--3--------5--3--|-5---3--4--5---3--4--5--3--5--3--5---------|
G#|-----------------------------------------------|-------------------------------------------|
D#|-----------------------------------------------|-------------------------------------------|


D#|-------------------------------------------|---------------------------------------------|
A#|-------------------------------------------|---------------------------------------------|
F#|-5---3--4--5---3--4--5--3--5--3--5--3---3--|--------------------5--5---3--4--5--3--5--3--|
C#|-------------------------------------------|-3---1--2--3--0--3---------------------------|
G#|-------------------------------------------|---------------------------------------------|
D#|-------------------------------------------|---------------------------------------------|


D#|-----------------------------------------------|-------------------------------------------|
A#|-----------------------------------------------|-------------------------------------------|
F#|-3--3------------3-----5--3--------3--3--------|------------------------------------3---3--|
C#|-------5--3--5------5--------5--3--------5--3--|-5---3--4--5---3--4--5--3--5--3--5---------|
G#|-----------------------------------------------|-------------------------------------------|
D#|-----------------------------------------------|-------------------------------------------|


D#|-------------------------------------------|---------------------------------------------|
A#|-------------------------------------------|---------------------------------------------|
F#|-5---3--4--5---3--4--5--3--5--3--5--3---3--|--------------------5--5---3--4--5--3--5--3--|
C#|-------------------------------------------|-3---1--2--3--0--3---------------------------|
G#|-------------------------------------------|---------------------------------------------|
D#|-------------------------------------------|---------------------------------------------|


D#|-----------------------------------------------|-------------------------------------------|
A#|-----------------------------------------------|-------------------------------------------|
F#|-3--3------------3-----5--3--------3--3--------|------------------------------------3---3--|
C#|-------5--3--5------5--------5--3--------5--3--|-5---3--4--5---3--4--5--3--5--3--5---------|
G#|-----------------------------------------------|-------------------------------------------|
D#|-----------------------------------------------|-------------------------------------------|


D#|-------------------------------------------|---------------------------------------------|
A#|-------------------------------------------|---------------------------------------------|
F#|-5---3--4--5---3--4--5--3--5--3--5--3---3--|--------------------5--5---3--4--5--3--5--3--|
C#|-------------------------------------------|-3---1--2--3--0--3---------------------------|
G#|-------------------------------------------|---------------------------------------------|
D#|-------------------------------------------|---------------------------------------------|


D#|-----------------------------------------------|-------------------------------------------|
A#|-----------------------------------------------|-------------------------------------------|
F#|-3--3------------3-----5--3--------3--3--------|------------------------------------3---3--|
C#|-------5--3--5------5--------5--3--------5--3--|-5---3--4--5---3--4--5--3--5--3--5---------|
G#|-----------------------------------------------|-------------------------------------------|
D#|-----------------------------------------------|-------------------------------------------|


D#|-------------------------------------------|---------------------------------------------|
A#|-------------------------------------------|---------------------------------------------|
F#|-5---3--4--5---3--4--5--3--5--3--5--3---3--|--------------------5--5---3--4--5--3--5--3--|
C#|-------------------------------------------|-3---1--2--3--0--3---------------------------|
G#|-------------------------------------------|---------------------------------------------|
D#|-------------------------------------------|---------------------------------------------|


D#|-----------------------------------------------|-------------------------------------------|
A#|-----------------------------------------------|-------------------------------------------|
F#|-3--3------------3-----5--3--------3--3--------|------------------------------------3---3--|
C#|-------5--3--5------5--------5--3--------5--3--|-5---3--4--5---3--4--5--3--5--3--5---------|
G#|-----------------------------------------------|-------------------------------------------|
D#|-----------------------------------------------|-------------------------------------------|


D#|-------------------------------------------|---------------------------------------------|
A#|-------------------------------------------|---------------------------------------------|
F#|-5---3--4--5---3--4--5--3--5--3--5--3---3--|--------------------5--5---3--4--5--3--5--3--|
C#|-------------------------------------------|-3---1--2--3--0--3---------------------------|
G#|-------------------------------------------|---------------------------------------------|
D#|-------------------------------------------|---------------------------------------------|


D#|-----------------------------------------------|-------------------------------------------|
A#|-----------------------------------------------|-------------------------------------------|
F#|-3--3------------3-----5--3--------3--3--------|------------------------------------3---3--|
C#|-------5--3--5------5--------5--3--------5--3--|-5---3--4--5---3--4--5--3--5--3--5---------|
G#|-----------------------------------------------|-------------------------------------------|
D#|-----------------------------------------------|-------------------------------------------|


D#|-------------------------------------------|---------------------------------------------|
A#|-------------------------------------------|---------------------------------------------|
F#|-5---3--4--5---3--4--5--3--5--3--5--3---3--|--------------------5--5---3--4--5--3--5--3--|
C#|-------------------------------------------|-3---1--2--3--0--3---------------------------|
G#|-------------------------------------------|---------------------------------------------|
D#|-------------------------------------------|---------------------------------------------|


D#|-----------------------------------------------|-------------------------------------------|
A#|-----------------------------------------------|-------------------------------------------|
F#|-3--3------------3-----5--3--------3--3--------|------------------------------------3---3--|
C#|-------5--3--5------5--------5--3--------5--3--|-5---3--4--5---3--4--5--3--5--3--5---------|
G#|-----------------------------------------------|-------------------------------------------|
D#|-----------------------------------------------|-------------------------------------------|


D#|-------------------------------------------|---------------------------------------------|
A#|-------------------------------------------|---------------------------------------------|
F#|-5---3--4--5---3--4--5--3--5--3--5--3---3--|--------------------5--5---3--4--5--3--5--3--|
C#|-------------------------------------------|-3---1--2--3--0--3---------------------------|
G#|-------------------------------------------|---------------------------------------------|
D#|-------------------------------------------|---------------------------------------------|


D#|-----------------------------------------------|-------------------------------------------|
A#|-----------------------------------------------|-------------------------------------------|
F#|-3--3------------3-----5--3--------3--3--------|------------------------------------3---3--|
C#|-------5--3--5------5--------5--3--------5--3--|-5---3--4--5---3--4--5--3--5--3--5---------|
G#|-----------------------------------------------|-------------------------------------------|
D#|-----------------------------------------------|-------------------------------------------|


D#|-------------------------------------------|---------------------------------------------|
A#|-------------------------------------------|---------------------------------------------|
F#|-5---3--4--5---3--4--5--3--5--3--5--3---3--|--------------------5--5---3--4--5--3--5--3--|
C#|-------------------------------------------|-3---1--2--3--0--3---------------------------|
G#|-------------------------------------------|---------------------------------------------|
D#|-------------------------------------------|---------------------------------------------|


D#|-----------------------------------------------|-------------------------------------------|
A#|-----------------------------------------------|-------------------------------------------|
F#|-3--3------------3-----5--3--------3--3--------|------------------------------------3---3--|
C#|-------5--3--5------5--------5--3--------5--3--|-5---3--4--5---3--4--5--3--5--3--5---------|
G#|-----------------------------------------------|-------------------------------------------|
D#|-----------------------------------------------|-------------------------------------------|


D#|-------------------------------------------|---------------------------------------------|
A#|-------------------------------------------|---------------------------------------------|
F#|-5---3--4--5---3--4--5--3--5--3--5--3---3--|--------------------5--5---3--4--5--3--5--3--|
C#|-------------------------------------------|-3---1--2--3--0--3---------------------------|
G#|-------------------------------------------|---------------------------------------------|
D#|-------------------------------------------|---------------------------------------------|


D#|-----------------------------------------------|-------------------------------------------|
A#|-----------------------------------------------|-------------------------------------------|
F#|-3--3------------3-----5--3--------3--3--------|------------------------------------3---3--|
C#|-------5--3--5------5--------5--3--------5--3--|-5---3--4--5---3--4--5--3--5--3--5---------|
G#|-----------------------------------------------|-------------------------------------------|
D#|-----------------------------------------------|-------------------------------------------|


D#|-------------------------------------------|-------------|-3------|-3------|-3------|
A#|-------------------------------------------|-10----5-----|-3------|-3------|-3------|
F#|-5---3--4--5---3--4--5--3--5--3--5--3---3--|-10----5-----|-0------|-0------|-0------|
C#|-------------------------------------------|-10----5-----|-0------|-0------|-0------|
G#|-------------------------------------------|-8-----3-----|-0------|-0------|-0------|
D#|-------------------------------------------|-------------|-3------|-3------|-3------|


D#|-3------|-3------|-----------------|
A#|-3------|-3------|-----------------|
F#|-0------|-0------|-----------------|
C#|-0------|-0------|-5---------------|
G#|-0------|-0------|-5---------------|
D#|-3------|-3------|-3---------------|









Track 5: Overdubs+Octave Fx
Back to top
D#|--------|--------|--------|--------|--------|--------|--------|--------|--------|
A#|--------|--------|--------|--------|--------|--------|--------|--------|--------|
F#|--------|--------|--------|--------|--------|--------|--------|--------|--------|
C#|--------|--------|--------|--------|--------|--------|--------|--------|--------|
G#|--------|--------|--------|--------|--------|--------|--------|--------|--------|
D#|--------|--------|--------|--------|--------|--------|--------|--------|--------|


D#|--------|--------|--------|--------|--------|--------|--------|--------|--------|
A#|--------|--------|--------|--------|--------|--------|--------|--------|--------|
F#|--------|--------|--------|--------|--------|--------|--------|--------|--------|
C#|--------|--------|--------|--------|--------|--------|--------|--------|--------|
G#|--------|--------|--------|--------|--------|--------|--------|--------|--------|
D#|--------|--------|--------|--------|--------|--------|--------|--------|--------|


D#|--------|--------|--------|--------|--------|--------|--------|--------|--------|
A#|--------|--------|--------|--------|--------|--------|--------|--------|--------|
F#|--------|--------|--------|--------|--------|--------|--------|--------|--------|
C#|--------|--------|--------|--------|--------|--------|--------|--------|--------|
G#|--------|--------|--------|--------|--------|--------|--------|--------|--------|
D#|--------|--------|--------|--------|--------|--------|--------|--------|--------|


D#|--------|--------|--------|--------|--------|--------|--------|--------|--------|
A#|--------|--------|--------|--------|--------|--------|--------|--------|--------|
F#|--------|--------|--------|--------|--------|--------|--------|--------|--------|
C#|--------|--------|--------|--------|--------|--------|--------|--------|--------|
G#|--------|--------|--------|--------|--------|--------|--------|--------|--------|
D#|--------|--------|--------|--------|--------|--------|--------|--------|--------|


D#|--------|--------|--------|-------|--------|--------|--------|--------|--------|
A#|--------|--------|--------|-------|--------|--------|--------|--------|--------|
F#|--------|--------|--------|-------|--------|--------|--------|--------|--------|
C#|--------|--------|--------|-------|--------|--------|--------|--------|--------|
G#|--------|--------|--------|-------|--------|--------|--------|--------|--------|
D#|--------|--------|--------|-------|--------|--------|--------|--------|--------|


D#|--------|--------|--------|--------|-------|--------|--------|--------|--------|
A#|--------|--------|--------|--------|-------|--------|--------|--------|--------|
F#|--------|--------|--------|--------|-------|--------|--------|--------|--------|
C#|--------|--------|--------|--------|-------|--------|--------|--------|--------|
G#|--------|--------|--------|--------|-------|--------|--------|--------|--------|
D#|--------|--------|--------|--------|-------|--------|--------|--------|--------|


D#|--------|--------|--------|--------|--------|--------|--------|--------|--------|
A#|--------|--------|--------|--------|--------|--------|--------|--------|--------|
F#|--------|--------|--------|--------|--------|--------|--------|--------|--------|
C#|--------|--------|--------|--------|--------|--------|--------|--------|--------|
G#|--------|--------|--------|--------|--------|--------|--------|--------|--------|
D#|--------|--------|--------|--------|--------|--------|--------|--------|--------|


D#|--------|--------|--------|--------|-------|--------|--------|--------|--------|
A#|--------|--------|--------|--------|-------|--------|--------|--------|--------|
F#|--------|--------|--------|--------|-------|--------|--------|--------|--------|
C#|--------|--------|--------|--------|-------|--------|--------|--------|--------|
G#|--------|--------|--------|--------|-------|--------|--------|--------|--------|
D#|--------|--------|--------|--------|-------|--------|--------|--------|--------|


D#|--------|--------|--------|--------|--------|--------|-------------------------------|
A#|--------|--------|--------|--------|--------|--------|-------------------------------|
F#|--------|--------|--------|--------|--------|--------|-------------------------------|
C#|--------|--------|--------|--------|--------|--------|-------------------------------|
G#|--------|--------|--------|--------|--------|--------|-------------------1--------5--|
D#|--------|--------|--------|--------|--------|--------|-1---1----1---3-------3--1-----|


D#|--------------------------------|--------------------------------------|-------------------------------|
A#|--------------------------------|--------------------------------------|-------------------------------|
F#|--------------------------------|------------------------------3-------|------------2------------------|
C#|--------------------------------|----------0---3-----------------------|---------------5--5----5---5---|
G#|-3----3--1----1-------3--3--1---|-3----3-----------3--8--8--8------3---|-3----1--2---------------------|
D#|-----------------3--------------|--------------------------------------|-------------------------------|


D#|--------|--------|-----------------------------------------|-------------------|
A#|--------|--------|------------------------------------3----|-------------------|
F#|--------|--------|-4---2--3--4---2--3--4--2--4--2--4-------|-4---2--3--4---2---|
C#|--------|--------|-----------------------------------------|-------------------|
G#|--------|--------|-----------------------------------------|-------------------|
D#|--------|--------|-----------------------------------------|-------------------|


D#|----------------0----|--------|--------|--------|--------|--------|--------|--------|
A#|-----------1---------|--------|--------|--------|--------|--------|--------|--------|
F#|------0--------------|--------|--------|--------|--------|--------|--------|--------|
C#|-2-------------------|--------|--------|--------|--------|--------|--------|--------|
G#|---------------------|--------|--------|--------|--------|--------|--------|--------|
D#|---------------------|--------|--------|--------|--------|--------|--------|--------|


D#|--------|-----------------------------------------|-----------------------------------------|
A#|--------|------------------------------------3----|---------------------------------3--3----|
F#|--------|-4---2--3--4---2--3--4--2--4--2--4-------|-4---2--3--4---2--3--4--2--4--2----------|
C#|--------|-----------------------------------------|-----------------------------------------|
G#|--------|-----------------------------------------|-----------------------------------------|
D#|--------|-----------------------------------------|-----------------------------------------|


D#|-----------------------------------------|-------------------|----------------0----|
A#|------------------------------------3----|-------------------|-----------1---------|
F#|-4---2--3--4---2--3--4--2--4--2--4-------|-4---2--3--4---2---|------0--------------|
C#|-----------------------------------------|-------------------|-2-------------------|
G#|-----------------------------------------|-------------------|---------------------|
D#|-----------------------------------------|-------------------|---------------------|


D#|-----------------------------------|--------|--------|--------|--------|--------|
A#|-5--5--5--3--5--3------------------|--------|--------|--------|--------|--------|
F#|-------------------3--4--4---------|--------|--------|--------|--------|--------|
C#|-----------------------------------|--------|--------|--------|--------|--------|
G#|-----------------------------------|--------|--------|--------|--------|--------|
D#|-----------------------------------|--------|--------|--------|--------|--------|


D#|--------|--------|--------|--------|--------|--------|--------|--------|--------|
A#|--------|--------|--------|--------|--------|--------|--------|--------|--------|
F#|--------|--------|--------|--------|--------|--------|--------|--------|--------|
C#|--------|--------|--------|--------|--------|--------|--------|--------|--------|
G#|--------|--------|--------|--------|--------|--------|--------|--------|--------|
D#|--------|--------|--------|--------|--------|--------|--------|--------|--------|


D#|--------|--------|--------|--------|--------|--------|--------|--------|--------|
A#|--------|--------|--------|--------|--------|--------|--------|--------|--------|
F#|--------|--------|--------|--------|--------|--------|--------|--------|--------|
C#|--------|--------|--------|--------|--------|--------|--------|--------|--------|
G#|--------|--------|--------|--------|--------|--------|--------|--------|--------|
D#|--------|--------|--------|--------|--------|--------|--------|--------|--------|


D#|--------|--------|--------|--------|--------|--------|--------|--------|--------|
A#|--------|--------|--------|--------|--------|--------|--------|--------|--------|
F#|--------|--------|--------|--------|--------|--------|--------|--------|--------|
C#|--------|--------|--------|--------|--------|--------|--------|--------|--------|
G#|--------|--------|--------|--------|--------|--------|--------|--------|--------|
D#|--------|--------|--------|--------|--------|--------|--------|--------|--------|


D#|--------|--------|--------|--------|--------|--------|--------|--------|--------|
A#|--------|--------|--------|--------|--------|--------|--------|--------|--------|
F#|--------|--------|--------|--------|--------|--------|--------|--------|--------|
C#|--------|--------|--------|--------|--------|--------|--------|--------|--------|
G#|--------|--------|--------|--------|--------|--------|--------|--------|--------|
D#|--------|--------|--------|--------|--------|--------|--------|--------|--------|


D#|--------|--------|--------|--------|--------|--------|--------|--------|--------|
A#|--------|--------|--------|--------|--------|--------|--------|--------|--------|
F#|--------|--------|--------|--------|--------|--------|--------|--------|--------|
C#|--------|--------|--------|--------|--------|--------|--------|--------|--------|
G#|--------|--------|--------|--------|--------|--------|--------|--------|--------|
D#|--------|--------|--------|--------|--------|--------|--------|--------|--------|


D#|--------|--------|--------|--------|--------|--------|--------|--------|--------|
A#|--------|--------|--------|--------|--------|--------|--------|--------|--------|
F#|--------|--------|--------|--------|--------|--------|--------|--------|--------|
C#|--------|--------|--------|--------|--------|--------|--------|--------|--------|
G#|--------|--------|--------|--------|--------|--------|--------|--------|--------|
D#|--------|--------|--------|--------|--------|--------|--------|--------|--------|


D#|--------|--------|--------|--------|--------|--------|--------|--------|--------|
A#|--------|--------|--------|--------|--------|--------|--------|--------|--------|
F#|--------|--------|--------|--------|--------|--------|--------|--------|--------|
C#|--------|--------|--------|--------|--------|--------|--------|--------|--------|
G#|--------|--------|--------|--------|--------|--------|--------|--------|--------|
D#|--------|--------|--------|--------|--------|--------|--------|--------|--------|


D#|--------|--------|--------|--------|--------|--------|
A#|--------|--------|--------|--------|--------|--------|
F#|--------|--------|--------|--------|--------|--------|
C#|--------|--------|--------|--------|--------|--------|
G#|--------|--------|--------|--------|--------|--------|
D#|--------|--------|--------|--------|--------|--------|









Track 6: Synth
Back to top
D#|--------|--------|--------|--------|--------|--------|--------|--------|--------|
A#|--------|--------|--------|--------|--------|--------|--------|--------|--------|
F#|--------|--------|--------|--------|--------|--------|--------|--------|--------|
C#|--------|--------|--------|--------|--------|--------|--------|--------|--------|
G#|--------|--------|--------|--------|--------|--------|--------|--------|--------|
D#|--------|--------|--------|--------|--------|--------|--------|--------|--------|


D#|--------|--------|--------|--------|--------|--------|--------|-15-----|--------|
A#|--------|--------|--------|--------|--------|--------|--------|--------|-13-----|
F#|--------|--------|--------|--------|--------|--------|--------|--------|--------|
C#|--------|--------|--------|--------|--------|--------|--------|--------|--------|
G#|--------|--------|--------|--------|--------|--------|--------|--------|--------|
D#|--------|--------|--------|--------|--------|--------|--------|--------|--------|


D#|-13----17----|-15-----|-15-----|--------|-13----12----|-10-----|--------|--------|
A#|-------------|--------|--------|-13-----|-------------|--------|--------|--------|
F#|-------------|--------|--------|--------|-------------|--------|--------|--------|
C#|-------------|--------|--------|--------|-------------|--------|--------|--------|
G#|-------------|--------|--------|--------|-------------|--------|--------|--------|
D#|-------------|--------|--------|--------|-------------|--------|--------|--------|


D#|--------|--------|--------|--------|--------|--------|--------|--------|--------|
A#|--------|--------|--------|--------|--------|--------|--------|--------|--------|
F#|--------|--------|--------|--------|--------|--------|--------|--------|--------|
C#|--------|--------|--------|--------|--------|--------|--------|--------|--------|
G#|--------|--------|--------|--------|--------|--------|--------|--------|--------|
D#|--------|--------|--------|--------|--------|--------|--------|--------|--------|


D#|--------|--------|--------|--------|-------|--------|--------|--------|--------|
A#|--------|--------|--------|--------|-------|--------|--------|--------|--------|
F#|--------|--------|--------|--------|-------|--------|--------|--------|--------|
C#|--------|--------|--------|--------|-------|--------|--------|--------|--------|
G#|--------|--------|--------|--------|-------|--------|--------|--------|--------|
D#|--------|--------|--------|--------|-------|--------|--------|--------|--------|


D#|--------|--------|--------|--------|--------|-------|--------|--------|-15-----|
A#|--------|--------|--------|--------|--------|-------|--------|--------|--------|
F#|--------|--------|--------|--------|--------|-------|--------|--------|--------|
C#|--------|--------|--------|--------|--------|-------|--------|--------|--------|
G#|--------|--------|--------|--------|--------|-------|--------|--------|--------|
D#|--------|--------|--------|--------|--------|-------|--------|--------|--------|


D#|--------|-13----12----|-15-----|-15-----|--------|-13----12----|-10-----|--------|
A#|-13-----|-------------|--------|--------|-13-----|-------------|--------|--------|
F#|--------|-------------|--------|--------|--------|-------------|--------|--------|
C#|--------|-------------|--------|--------|--------|-------------|--------|--------|
G#|--------|-------------|--------|--------|--------|-------------|--------|--------|
D#|--------|-------------|--------|--------|--------|-------------|--------|--------|


D#|--------|--------|--------|--------|--------|--------|-------|--------|--------|
A#|--------|--------|--------|--------|--------|--------|-------|--------|--------|
F#|--------|--------|--------|--------|--------|--------|-------|--------|--------|
C#|--------|--------|--------|--------|--------|--------|-------|--------|--------|
G#|--------|--------|--------|--------|--------|--------|-------|--------|--------|
D#|--------|--------|--------|--------|--------|--------|-------|--------|--------|


D#|-15-----|--------|-13----12----|-15-----|-15-----|--------|-13----12----|-10-----|
A#|--------|-13-----|-------------|--------|--------|-13-----|-------------|--------|
F#|--------|--------|-------------|--------|--------|--------|-------------|--------|
C#|--------|--------|-------------|--------|--------|--------|-------------|--------|
G#|--------|--------|-------------|--------|--------|--------|-------------|--------|
D#|--------|--------|-------------|--------|--------|--------|-------------|--------|


D#|--------|--------|--------|--------|--------|--------|--------|-------|--------|
A#|--------|--------|--------|--------|--------|--------|--------|-------|--------|
F#|--------|--------|--------|--------|--------|--------|--------|-------|--------|
C#|--------|--------|--------|--------|--------|--------|--------|-------|--------|
G#|--------|--------|--------|--------|--------|--------|--------|-------|--------|
D#|--------|--------|--------|--------|--------|--------|--------|-------|--------|


D#|--------|--------|--------|--------|--------|--------|--------|--------|--------|
A#|--------|--------|--------|--------|--------|--------|--------|--------|--------|
F#|--------|--------|--------|--------|--------|--------|--------|--------|--------|
C#|--------|--------|--------|--------|--------|--------|--------|--------|--------|
G#|--------|--------|--------|--------|--------|--------|--------|--------|--------|
D#|--------|--------|--------|--------|--------|--------|--------|--------|--------|


D#|--------|--------|-------|--------|--------|-15-----|--------|-13----17----|-15-----|
A#|--------|--------|-------|--------|--------|--------|-13-----|-------------|--------|
F#|--------|--------|-------|--------|--------|--------|--------|-------------|--------|
C#|--------|--------|-------|--------|--------|--------|--------|-------------|--------|
G#|--------|--------|-------|--------|--------|--------|--------|-------------|--------|
D#|--------|--------|-------|--------|--------|--------|--------|-------------|--------|


D#|-15-----|--------|-13----12----|-10-----|-15-----|--------|-13----17----|-15-----|
A#|--------|-13-----|-------------|--------|--------|-13-----|-------------|--------|
F#|--------|--------|-------------|--------|--------|--------|-------------|--------|
C#|--------|--------|-------------|--------|--------|--------|-------------|--------|
G#|--------|--------|-------------|--------|--------|--------|-------------|--------|
D#|--------|--------|-------------|--------|--------|--------|-------------|--------|


D#|-15-----|--------|-13----12----|-10-----|--------|--------|--------|--------|--------|
A#|--------|-13-----|-------------|--------|--------|--------|--------|--------|--------|
F#|--------|--------|-------------|--------|--------|--------|--------|--------|--------|
C#|--------|--------|-------------|--------|--------|--------|--------|--------|--------|
G#|--------|--------|-------------|--------|--------|--------|--------|--------|--------|
D#|--------|--------|-------------|--------|--------|--------|--------|--------|--------|


D#|--------|--------|--------|--------|--------|--------|--------|--------|--------|
A#|--------|--------|--------|--------|--------|--------|--------|--------|--------|
F#|--------|--------|--------|--------|--------|--------|--------|--------|--------|
C#|--------|--------|--------|--------|--------|--------|--------|--------|--------|
G#|--------|--------|--------|--------|--------|--------|--------|--------|--------|
D#|--------|--------|--------|--------|--------|--------|--------|--------|--------|


D#|--------|--------|--------|--------|--------|--------|--------|--------|--------|
A#|--------|--------|--------|--------|--------|--------|--------|--------|--------|
F#|--------|--------|--------|--------|--------|--------|--------|--------|--------|
C#|--------|--------|--------|--------|--------|--------|--------|--------|--------|
G#|--------|--------|--------|--------|--------|--------|--------|--------|--------|
D#|--------|--------|--------|--------|--------|--------|--------|--------|--------|


D#|--------|--------|--------|--------|--------|--------|--------|--------|--------|
A#|--------|--------|--------|--------|--------|--------|--------|--------|--------|
F#|--------|--------|--------|--------|--------|--------|--------|--------|--------|
C#|--------|--------|--------|--------|--------|--------|--------|--------|--------|
G#|--------|--------|--------|--------|--------|--------|--------|--------|--------|
D#|--------|--------|--------|--------|--------|--------|--------|--------|--------|


D#|--------|--------|--------|--------|--------|--------|--------|--------|--------|
A#|--------|--------|--------|--------|--------|--------|--------|--------|--------|
F#|--------|--------|--------|--------|--------|--------|--------|--------|--------|
C#|--------|--------|--------|--------|--------|--------|--------|--------|--------|
G#|--------|--------|--------|--------|--------|--------|--------|--------|--------|
D#|--------|--------|--------|--------|--------|--------|--------|--------|--------|


D#|--------|--------|--------|--------|--------|--------|--------|--------|--------|
A#|--------|--------|--------|--------|--------|--------|--------|--------|--------|
F#|--------|--------|--------|--------|--------|--------|--------|--------|--------|
C#|--------|--------|--------|--------|--------|--------|--------|--------|--------|
G#|--------|--------|--------|--------|--------|--------|--------|--------|--------|
D#|--------|--------|--------|--------|--------|--------|--------|--------|--------|


D#|--------|--------|--------|--------|--------|--------|--------|--------|
A#|--------|--------|--------|--------|--------|--------|--------|--------|
F#|--------|--------|--------|--------|--------|--------|--------|--------|
C#|--------|--------|--------|--------|--------|--------|--------|--------|
G#|--------|--------|--------|--------|--------|--------|--------|--------|
D#|--------|--------|--------|--------|--------|--------|--------|--------|









Track 7: Bass
Back to top
F#|--------|--------|--------|--------|--------|--------|--------|--------|--------|
C#|--------|--------|--------|--------|--------|--------|--------|--------|--------|
G#|--------|--------|--------|--------|--------|--------|--------|--------|--------|
D#|--------|--------|--------|--------|--------|--------|--------|--------|--------|


F#|--------|--------|--------|--------|--------|--------|--------|--------|--------|
C#|--------|--------|--------|--------|--------|--------|--------|--------|--------|
G#|--------|--------|--------|--------|--------|--------|--------|--------|-3------|
D#|--------|--------|--------|--------|--------|--------|--------|-3------|--------|


F#|-------------|--------|--------|--------|-------------|--------|--------|--------|
C#|-3-----------|--------|--------|--------|-3-----------|--------|--------|--------|
G#|-------3-----|--------|--------|-3------|-------3-----|--------|--------|-3------|
D#|-------------|-3------|-3------|--------|-------------|-3------|-3------|--------|


F#|-------------|--------|--------|--------|-------------|--------|-----------------------------------------|
C#|-3-----------|--------|--------|--------|-3-----------|--------|-----------------------------------------|
G#|-------3-----|--------|--------|-3------|-------3-----|--------|------------------------------------1----|
D#|-------------|-3------|-3------|--------|-------------|-3------|-3---1--2--3---1--2--3--1--3--1--3-------|


F#|-----------------------------------------|-----------------------------------------|
C#|-----------------------------------------|-----------------------------------------|
G#|---------------------------------3--1----|------------------------------------1----|
D#|-3---1--2--3---1--2--3--1--3--1----------|-3---1--2--3---1--2--3--1--3--1--3-------|


F#|---------------------------------------|-----------------------------------------|
C#|---------------------------------------|-----------------------------------------|
G#|----------------------------------1----|------------------------------------1----|
D#|-3---1--2--3---1--3---1--3--1--3-------|-3---1--2--3---1--2--3--1--3--1--3-------|


F#|-----------------------------------------|-----------------------------------------|
C#|-----------------------------------------|-----------------------------------------|
G#|---------------------------------3--1----|------------------------------------1----|
D#|-3---1--2--3---1--2--3--1--3--1----------|-3---1--2--3---1--2--3--1--3--1--3-------|


F#|---------------------|----------------|-----------------------------|-----------------------------------------|
C#|---------------------|----------------|-----------------------------|-----------------------------------------|
G#|---------------------|-3------3-------|-3---3--1--3--1--------------|------------------------------------1----|
D#|-3---1--2--3---1--3--|----------------|-----------------1--3--------|-3---1--2--3---1--2--3--1--3--1--3-------|


F#|-----------------------------------------|-----------------------------------------|
C#|-----------------------------------------|-----------------------------------------|
G#|---------------------------------3--1----|------------------------------------1----|
D#|-3---1--2--3---1--2--3--1--3--1----------|-3---1--2--3---1--2--3--1--3--1--3-------|


F#|---------------------------------------|-----------------------------------------|
C#|---------------------------------------|-----------------------------------------|
G#|----------------------------------1----|------------------------------------1----|
D#|-3---1--2--3---1--3---1--3--1--3-------|-3---1--2--3---1--2--3--1--3--1--3-------|


F#|-----------------------------------------|-----------------------------------------|
C#|-----------------------------------------|-----------------------------------------|
G#|---------------------------------3--1----|------------------------------------1----|
D#|-3---1--2--3---1--2--3--1--3--1----------|-3---1--2--3---1--2--3--1--3--1--3-------|


F#|---------------------|----------------|-----------------------------|----------------------------|
C#|---------------------|----------------|-----------------------------|----------------------------|
G#|---------------------|-3------3-------|-3---3--1--3--1--------------|----------------------1-----|
D#|-3---1--2--3---1--3--|----------------|-----------------1--3--------|-3-----3--3---3--3-------3--|


F#|-------------------------------|------------------------------|----------------------------------|
C#|-------------------------0-----|-3-----3--3----------------0--|----------------------------------|
G#|-3--------3------3----------3--|-------------3-----3----3-----|----------------------------------|
D#|-------3------3----------------|------------------------------|-3----3---1--3---1--3---3---1--1--|


F#|----------------------------|-------------------------------|------------------------------|
C#|----------------------------|-------------------------0-----|-3-----3--3----------------0--|
G#|----------------------1-----|-3--------3------3----------3--|-------------3-----3----3-----|
D#|-3-----3--3---3--3-------3--|-------3------3----------------|------------------------------|


F#|----------------|-----------------------------------------|-----------------------------------------|
C#|----------------|-----------------------------------------|-----------------------------------------|
G#|----------------|------------------------------------1----|---------------------------------3--1----|
D#|-3------3-------|-3---1--2--3---1--2--3--1--3--1--3-------|-3---1--2--3---1--2--3--1--3--1----------|


F#|-----------------------------------------|---------------------------------------|
C#|-----------------------------------------|---------------------------------------|
G#|------------------------------------1----|----------------------------------1----|
D#|-3---1--2--3---1--2--3--1--3--1--3-------|-3---1--2--3---1--3---1--3--1--3-------|


F#|-----------------------------------------|-----------------------------------------|
C#|-----------------------------------------|-----------------------------------------|
G#|------------------------------------1----|---------------------------------3--1----|
D#|-3---1--2--3---1--2--3--1--3--1--3-------|-3---1--2--3---1--2--3--1--3--1----------|


F#|-----------------------------------------|---------------------|----------------|
C#|-----------------------------------------|---------------------|----------------|
G#|------------------------------------1----|---------------------|-3------3-------|
D#|-3---1--2--3---1--2--3--1--3--1--3-------|-3---1--2--3---1--3--|----------------|


F#|-----------------------------|----------------------------|-------------------------------|
C#|-----------------------------|----------------------------|-------------------------0-----|
G#|-3---3--1--3--1--------------|----------------------1-----|-3--------3------3----------3--|
D#|-----------------1--3--------|-3-----3--3---3--3-------3--|-------3------3----------------|


F#|------------------------------|----------------------------------|----------------------------|
C#|-3-----3--3----------------0--|----------------------------------|----------------------------|
G#|-------------3-----3----3-----|----------------------------------|----------------------1-----|
D#|------------------------------|-3----3---1--3---1--3---3---1--1--|-3-----3--3---3--3-------3--|


F#|-------------------------------|------------------------------|-0--------------|
C#|-------------------------0-----|-3-----3--3----------------0--|----3------3----|
G#|-3--------3------3----------3--|-------------3-----3----3-----|----------------|
D#|-------3------3----------------|------------------------------|----------------|


F#|-----------------------------------------|-----------------------------------------|
C#|-----------------------------------------|-----------------------------------------|
G#|------------------------------------1----|---------------------------------3--1----|
D#|-3---1--2--3---1--2--3--1--3--1--3-------|-3---1--2--3---1--2--3--1--3--1----------|


F#|-----------------------------------------|---------------------------------------|
C#|-----------------------------------------|---------------------------------------|
G#|------------------------------------1----|----------------------------------1----|
D#|-3---1--2--3---1--2--3--1--3--1--3-------|-3---1--2--3---1--3---1--3--1--3-------|


F#|-----------------------------------------|-----------------------------------------|
C#|-----------------------------------------|---------------------------------0-------|
G#|-0---------0---------0-----0-----0--3----|-0---------0---------0-----0--------3----|
D#|-----3--4------3--4-----3-----3----------|-----3--4------3--4-----3-----3----------|


F#|-----------------------------------------|-------------------|--------|-----------------------------------------|
C#|-----------------------------------------|-------------------|--------|-0--0--0--0--0----0--0--0--0--0--0-------|
G#|------------------------------------1----|-------------------|-3------|-----------------------------------------|
D#|-3---1--2--3---1--2--3--1--3--1--3-------|-3---1--2--3---1---|--------|-------------------------------------3---|


F#|-----------------------------------------|-----------------------------------------|
C#|-----------------------------------------|-0--0--0--0--0----0--0--0--0--0--0-------|
G#|-3--3--3--3--3----3--3--3--3--3--3-------|-----------------------------------------|
D#|-------------------------------------3---|-------------------------------------3---|


F#|-----------------------------------------|-----------------------------------------|
C#|-----------------------------------------|-0--0--0--0--0----0--0--0--0--0--0-------|
G#|-3--3--3--3--3----3--3--3--3--3--3---0---|-----------------------------------------|
D#|-----------------------------------------|-------------------------------------3---|


F#|-----------------------------------------|-----------------------------------------|
C#|-----------------------------------------|-0--0--0--0--0----0--0--0--0--0--0-------|
G#|-3--3--3--3--3----3--3--3--3--3--3-------|-----------------------------------------|
D#|-------------------------------------3---|-------------------------------------3---|


F#|-------------|-----------------------------------------|-----------------------------------------|
C#|-------------|-----------------------------------------|-----------------------------------------|
G#|-3-----1-----|------------------------------------1----|---------------------------------3--1----|
D#|-------------|-3---1--2--3---1--2--3--1--3--1--3-------|-3---1--2--3---1--2--3--1--3--1----------|


F#|-----------------------------------------|---------------------|----------------|
C#|-----------------------------------------|---------------------|----------------|
G#|------------------------------------1----|---------------------|-3------3-------|
D#|-3---1--2--3---1--2--3--1--3--1--3-------|-3---1--2--3---1--3--|----------------|


F#|-----------------------------|----------------------------|-------------------------------|
C#|-----------------------------|----------------------------|-------------------------0-----|
G#|-3---3--1--3--1--------------|----------------------1-----|-3--------3------3----------3--|
D#|-----------------1--3--------|-3-----3--3---3--3-------3--|-------3------3----------------|


F#|------------------------------|----------------------------------|----------------------------|
C#|-3-----3--3----------------0--|----------------------------------|----------------------------|
G#|-------------3-----3----3-----|----------------------------------|----------------------1-----|
D#|------------------------------|-3----3---1--3---1--3---3---1--1--|-3-----3--3---3--3-------3--|


F#|-------------------------------|------------------------------|----------------------------------|
C#|-------------------------0-----|-3-----3--3----------------0--|----------------------------------|
G#|-3--------3------3----------3--|-------------3-----3----3-----|----------------------------------|
D#|-------3------3----------------|------------------------------|-3----3---1--3---1--3---3---1--1--|


F#|----------------------------|-------------------------------|------------------------------|
C#|----------------------------|-------------------------0-----|-3-----3--3----------------0--|
G#|----------------------1-----|-3--------3------3----------3--|-------------3-----3----3-----|
D#|-3-----3--3---3--3-------3--|-------3------3----------------|------------------------------|


F#|----------------------------------|----------------------------|-------------------------------|
C#|----------------------------------|----------------------------|-------------------------0-----|
G#|----------------------------------|----------------------1-----|-3--------3------3----------3--|
D#|-3----3---1--3---1--3---3---1--1--|-3-----3--3---3--3-------3--|-------3------3----------------|


F#|------------------------------|--------|----------------|--------|--------|----------------|
C#|-3-----3--3----------------0--|--------|----------------|--------|--------|----------------|
G#|-------------3-----3----3-----|--------|----------------|--------|--------|----------------|
D#|------------------------------|-3------|-3------3-------|--------|-3------|-3------3-------|


F#|------------------------|-----------------------------------------|-------------------------------------|
C#|------------------------|-----------------------------------------|-------------------------------------|
G#|------------------------|-------------------------------------1---|-3---1---3-----1--3---3--1---3---1---|
D#|---------------0--1--2--|-3---1--2--3---1--3---1--3--1--3--1------|-------------------------------------|


F#|---------------------------------------|---------------------------------------------|
C#|-3---2-----3---2-----------------------|---------------------------------------------|
G#|------------------3---3--0-----3---0---|---------------------------------------------|
D#|---------------------------------------|-3-----1-----3---1--3---3--0--0--1--1--2--2--|


F#|-----------------------------------------|-------------------------------------|
C#|-----------------------------------------|-------------------------------------|
G#|-------------------------------------1---|-3---1---3-----1--3---3--1---3---1---|
D#|-3---1--2--3---1--3---1--3--1--3--1------|-------------------------------------|


F#|---------------------------------------|----0--4--4--5--5--6--6--7--7--------------------|
C#|-3---2-----3---2-----------------------|-------------------------------------------------|
G#|------------------3---3--0-----3---0---|-------------------------------7--7--8--8--9--9--|
D#|---------------------------------------|-3-----------------------------------------------|


F#|-----------------------------------------|-------------------------------------|
C#|-----------------------------------------|-------------------------------------|
G#|-------------------------------------1---|-3---1---3-----1--3---3--1---3---1---|
D#|-3---1--2--3---1--3---1--3--1--3--1------|-------------------------------------|


F#|---------------------------------------|---------------------------------------------|
C#|-3---2-----3---2-----------------------|---------------------------------------------|
G#|------------------3---3--0-----3---0---|---------------------------------------------|
D#|---------------------------------------|-3-----1-----3---1--3---3--0--0--1--1--2--2--|


F#|-----------------------------------------|-------------------------------------|
C#|-----------------------------------------|-------------------------------------|
G#|-------------------------------------1---|-3---1---3-----1--3---3--1---3---1---|
D#|-3---1--2--3---1--3---1--3--1--3--1------|-------------------------------------|


F#|---------------------------------------|----0--0--0--0--0--0--0--12-12-12-12-12-12-12-12-|
C#|-3---2-----3---2-----------------------|-------------------------------------------------|
G#|------------------3---3--0-----3---0---|-------------------------------------------------|
D#|---------------------------------------|-3-----------------------------------------------|


F#|-----------------------------------------|-------------------------------------|
C#|-----------------------------------------|-------------------------------------|
G#|-------------------------------------1---|-3---1---3-----1--3---3--1---3---1---|
D#|-3---1--2--3---1--3---1--3--1--3--1------|-------------------------------------|


F#|---------------------------------------|---------------------------------------------|
C#|-3---2-----3---2-----------------------|---------------------------------------------|
G#|------------------3---3--0-----3---0---|---------------------------------------------|
D#|---------------------------------------|-3-----1-----3---1--3---3--0--0--1--1--2--2--|


F#|-----------------------------------------|-------------------------------------|
C#|-----------------------------------------|-------------------------------------|
G#|-------------------------------------1---|-3---1---3-----1--3---3--1---3---1---|
D#|-3---1--2--3---1--3---1--3--1--3--1------|-------------------------------------|


F#|---------------------------------------|----0--0--0--0--0--0--0--12-12-12-12-12-12-12-12-|
C#|-3---2-----3---2-----------------------|-------------------------------------------------|
G#|------------------3---3--0-----3---0---|-------------------------------------------------|
D#|---------------------------------------|-3-----------------------------------------------|


F#|-----------------------------------------|-------------------------------------|
C#|-----------------------------------------|-------------------------------------|
G#|-------------------------------------1---|-3---1---3-----1--3---3--1---3---1---|
D#|-3---1--2--3---1--3---1--3--1--3--1------|-------------------------------------|


F#|---------------------------------------|---------------------------------------------|
C#|-3---2-----3---2-----------------------|---------------------------------------------|
G#|------------------3---3--0-----3---0---|---------------------------------------------|
D#|---------------------------------------|-3-----1-----3---1--3---3--0--0--1--1--2--2--|


F#|-----------------------------------------|-------------------------------------|
C#|-----------------------------------------|-------------------------------------|
G#|-------------------------------------1---|-3---1---3-----1--3---3--1---3---1---|
D#|-3---1--2--3---1--3---1--3--1--3--1------|-------------------------------------|


F#|---------------------------------------|----0--4--4--5--5--6--6--7--7--------------------|
C#|-3---2-----3---2-----------------------|-------------------------------------------------|
G#|------------------3---3--0-----3---0---|-------------------------------7--7--8--8--9--9--|
D#|---------------------------------------|-3-----------------------------------------------|


F#|-----------------------------------------|-------------------------------------|
C#|-----------------------------------------|-------------------------------------|
G#|-------------------------------------1---|-3---1---3-----1--3---3--1---3---1---|
D#|-3---1--2--3---1--3---1--3--1--3--1------|-------------------------------------|


F#|---------------------------------------|---------------------------------------------|
C#|-3---2-----3---2-----------------------|---------------------------------------------|
G#|------------------3---3--0-----3---0---|---------------------------------------------|
D#|---------------------------------------|-3-----1-----3---1--3---3--0--0--1--1--2--2--|


F#|-----------------------------------------|-------------------------------------|
C#|-----------------------------------------|-------------------------------------|
G#|-------------------------------------1---|-3---1---3-----1--3---3--1---3---1---|
D#|-3---1--2--3---1--3---1--3--1--3--1------|-------------------------------------|


F#|---------------------------------------|----0--0--0--0--0--0--0--12-12-12-12-12-12-12-12-|
C#|-3---2-----3---2-----------------------|-------------------------------------------------|
G#|------------------3---3--0-----3---0---|-------------------------------------------------|
D#|---------------------------------------|-3-----------------------------------------------|


F#|-----------------------------------------|-------------------------------------|
C#|-----------------------------------------|-------------------------------------|
G#|-------------------------------------1---|-3---1---3-----1--3---3--1---3---1---|
D#|-3---1--2--3---1--3---1--3--1--3--1------|-------------------------------------|


F#|---------------------------------------|---------------------------------------------|
C#|-3---2-----3---2-----------------------|---------------------------------------------|
G#|------------------3---3--0-----3---0---|---------------------------------------------|
D#|---------------------------------------|-3-----1-----3---1--3---3--0--0--1--1--2--2--|


F#|-----------------------------------------|-------------------------------------|
C#|-----------------------------------------|-------------------------------------|
G#|-------------------------------------1---|-3---1---3-----1--3---3--1---3---1---|
D#|-3---1--2--3---1--3---1--3--1--3--1------|-------------------------------------|


F#|-------------------------|---------------------------|-----------------------------------|
C#|-3-----3-----------------|---------------------------|-----------------------------------|
G#|-------------3-----3-----|---------------------------|-----------------------------------|
D#|-------------------------|-3-----3--3---3--3---3--3--|-3---3--3--3---3--3---3---3----3---|


F#|----------------|--------|--------|--------|
C#|----------------|--------|--------|--------|
G#|----------------|--------|--------|--------|
D#|-3--3------3----|-3------|-3------|--------|









Track 8: Percussions
Back to top
C|-51---------42--------------42---------|------42--------------42---------|------42--------------42---------|
C|---------------------------------------|---------------------------------|---------------------------------|
C|---------------------------------------|---------------------------------|---------------------------------|
C|---------------------------------------|---------------------------------|---------------------------------|
C|---------------------------------------|---------------------------------|---------------------------------|
C|---------------------------------------|---------------------------------|---------------------------------|


C|------42--------------42---------|-36---------3838----------36-----3838---------|
C|---------------------------------|----------------------------------------------|
C|---------------------------------|----------------------------------------------|
C|---------------------------------|----------------------------------------------|
C|---------------------------------|----------------------------------------------|
C|---------------------------------|----------------------------------------------|


C|-36---------3838----------36-----3838---------|-36---------3838----------36-----3838---------|
C|----------------------------------------------|----------------------------------------------|
C|----------------------------------------------|----------------------------------------------|
C|----------------------------------------------|----------------------------------------------|
C|----------------------------------------------|----------------------------------------------|
C|----------------------------------------------|----------------------------------------------|


C|-36---------3838----------36-----3838---------|-36---------3838----------36-----3838---------|
C|----------------------------------------------|----------------------------------------------|
C|----------------------------------------------|----------------------------------------------|
C|----------------------------------------------|----------------------------------------------|
C|----------------------------------------------|----------------------------------------------|
C|----------------------------------------------|----------------------------------------------|


C|-36---------3838----------36-----3838---------|-36---------3838----------36-----3838---------|
C|----------------------------------------------|----------------------------------------------|
C|----------------------------------------------|----------------------------------------------|
C|----------------------------------------------|----------------------------------------------|
C|----------------------------------------------|----------------------------------------------|
C|----------------------------------------------|----------------------------------------------|


C|-36---------3838----------36-----3838---------|-36---------3838----------36-----3838---------|
C|----------------------------------------------|----------------------------------------------|
C|----------------------------------------------|----------------------------------------------|
C|----------------------------------------------|----------------------------------------------|
C|----------------------------------------------|----------------------------------------------|
C|----------------------------------------------|----------------------------------------------|


C|-36---------3838----------36-----3838---------|-36---------3838----------36-----3838---------|
C|----------------------------------------------|----------------------------------------------|
C|----------------------------------------------|----------------------------------------------|
C|----------------------------------------------|----------------------------------------------|
C|----------------------------------------------|----------------------------------------------|
C|----------------------------------------------|----------------------------------------------|


C|-36---------3838----------36-----3838---------|-36---------3838----------36-----3838---------|
C|----------------------------------------------|-49-------------------------------------------|
C|----------------------------------------------|----------------------------------------------|
C|----------------------------------------------|----------------------------------------------|
C|----------------------------------------------|----------------------------------------------|
C|----------------------------------------------|----------------------------------------------|


C|-36---------3838----------36-----3838---------|-36---------38---------36-----36-----38---------|
C|-49-------------------------------------------|-49--------------------49-----------------------|
C|----------------------------------------------|------------------------------------------------|
C|----------------------------------------------|------------------------------------------------|
C|----------------------------------------------|------------------------------------------------|
C|----------------------------------------------|------------------------------------------------|


C|-36---------38----------36-----38---------|-36---------38----------36-----38---------|
C|-49---------------------------------------|-49---------------------------------------|
C|------------------------------------------|------------------------------------------|
C|------------------------------------------|------------------------------------------|
C|------------------------------------------|------------------------------------------|
C|------------------------------------------|------------------------------------------|


C|-36---------38----------36-----38---------|-36---------38---------36-----36-----38---------|
C|-49---------------------------------------|-49--------------------49-----------------------|
C|------------------------------------------|------------------------------------------------|
C|------------------------------------------|------------------------------------------------|
C|------------------------------------------|------------------------------------------------|
C|------------------------------------------|------------------------------------------------|


C|-36---------38------36-----36-----36--38-----36-----|-36---------38----------36-----38---------|
C|-49-------------------------------------------------|-49---------------------------------------|
C|----------------------------------------------------|------------------------------------------|
C|----------------------------------------------------|------------------------------------------|
C|----------------------------------------------------|------------------------------------------|
C|----------------------------------------------------|------------------------------------------|


C|-36---------38----------36-----38---------|-36---------38---------36-----36-----38---------|
C|-49---------------------------------------|-49--------------------49-----------------------|
C|------------------------------------------|------------------------------------------------|
C|------------------------------------------|------------------------------------------------|
C|------------------------------------------|------------------------------------------------|
C|------------------------------------------|------------------------------------------------|


C|-36---------38----------36-----38---------|-36---------38----------36-----38---------|
C|-49---------------------------------------|-49---------------------------------------|
C|------------------------------------------|------------------------------------------|
C|------------------------------------------|------------------------------------------|
C|------------------------------------------|------------------------------------------|
C|------------------------------------------|------------------------------------------|


C|-36---------38----------36-----38---------|-36---------38---------36-----36-----38---------|
C|-49---------------------------------------|-49--------------------49-----------------------|
C|------------------------------------------|------------------------------------------------|
C|------------------------------------------|------------------------------------------------|
C|------------------------------------------|------------------------------------------------|
C|------------------------------------------|------------------------------------------------|


C|-36---------38------36--72--36--72--36--38-----38-----|-49-----46-----46-----46--36--36-----36-----46--36------|
C|-49-------------------------------------72-----72-----|-36-----36-----38-------------46-----46-----38--49------|
C|------------------------------------------------------|--------------------------------------------------------|
C|------------------------------------------------------|--------------------------------------------------------|
C|------------------------------------------------------|--------------------------------------------------------|
C|------------------------------------------------------|--------------------------------------------------------|


C|-46-----36-----46-----46--36--36-----36-----38--36------|-49-----36-----38-----46--36--36-----46-----38--49------|
C|-36-----46-----38-------------46-----46---------49------|-36-----46-----46-------------46-----36---------36------|
C|--------------------------------------------------------|--------------------------------------------------------|
C|--------------------------------------------------------|--------------------------------------------------------|
C|--------------------------------------------------------|--------------------------------------------------------|
C|--------------------------------------------------------|--------------------------------------------------------|


C|-36-----36-----38-----46--36--46-----36-----38--36------|-49-----46-----46-----46--36--36-----36-----46--36------|
C|-46------------46-------------36-----46---------49------|-36-----36-----38-------------46-----46-----38--49------|
C|--------------------------------------------------------|--------------------------------------------------------|
C|--------------------------------------------------------|--------------------------------------------------------|
C|--------------------------------------------------------|--------------------------------------------------------|
C|--------------------------------------------------------|--------------------------------------------------------|


C|-46-----36-----46-----46--36--36-----36-----38--36------|-49-----36-----38-----46--36--36-----46-----38--49------|
C|-36-----46-----38-------------46-----46---------49------|-36-----46-----46-------------46-----36---------36------|
C|--------------------------------------------------------|--------------------------------------------------------|
C|--------------------------------------------------------|--------------------------------------------------------|
C|--------------------------------------------------------|--------------------------------------------------------|
C|--------------------------------------------------------|--------------------------------------------------------|


C|-36-----36-----38-----46--36--|-36---------38----------36-----38---------|-38-----38--38--38--38--38--38---------36--38-----38-----|
C|-46------------46-------------|------------------------------------------|---------------------------------------------------------|
C|------------------------------|------------------------------------------|---------------------------------------------------------|
C|------------------------------|------------------------------------------|---------------------------------------------------------|
C|------------------------------|------------------------------------------|---------------------------------------------------------|
C|------------------------------|------------------------------------------|---------------------------------------------------------|


C|-49-----46-----46-----46--36--36-----36-----46--36------|-46-----36-----46-----46--36--36-----36-----38--36------|
C|-36-----36-----38-------------46-----46-----38--49------|-36-----46-----38-------------46-----46---------49------|
C|--------------------------------------------------------|--------------------------------------------------------|
C|--------------------------------------------------------|--------------------------------------------------------|
C|--------------------------------------------------------|--------------------------------------------------------|
C|--------------------------------------------------------|--------------------------------------------------------|


C|-49-----36-----38-----46--36--36-----46-----38--49------|-36-----36-----38-----46--36--46-----36-----38--36------|
C|-36-----46-----46-------------46-----36---------36------|-46------------46-------------36-----46---------49------|
C|--------------------------------------------------------|--------------------------------------------------------|
C|--------------------------------------------------------|--------------------------------------------------------|
C|--------------------------------------------------------|--------------------------------------------------------|
C|--------------------------------------------------------|--------------------------------------------------------|


C|-49-----46-----46-----46--36--36-----36-----46--36------|-46-----36-----46-----46--36--36-----36-----38--36------|
C|-36-----36-----38-------------46-----46-----38--49------|-36-----46-----38-------------46-----46---------49------|
C|--------------------------------------------------------|--------------------------------------------------------|
C|--------------------------------------------------------|--------------------------------------------------------|
C|--------------------------------------------------------|--------------------------------------------------------|
C|--------------------------------------------------------|--------------------------------------------------------|


C|-49-----36-----38-----46--36--36-----46-----38--49------|-36-----36-----38-----46--36--|
C|-36-----46-----46-------------46-----36---------36------|-46------------46-------------|
C|--------------------------------------------------------|------------------------------|
C|--------------------------------------------------------|------------------------------|
C|--------------------------------------------------------|------------------------------|
C|--------------------------------------------------------|------------------------------|


C|-36---------38----------36-----38---------|-38-----38--38--38--38--38--38---------36--38-----38-----|
C|------------------------------------------|---------------------------------------------------------|
C|------------------------------------------|---------------------------------------------------------|
C|------------------------------------------|---------------------------------------------------------|
C|------------------------------------------|---------------------------------------------------------|
C|------------------------------------------|---------------------------------------------------------|


C|-49-----36-----51-----51--36--36--51--51-----38--49--51--36--|-36-----36-----38--51--51--36--51-----36--51--40--36--51--36--|
C|-36-----51-----38-------------51------36-----51--36----------|-51-----51-----51--------------36-----51------38--49----------|
C|-------------------------------------------------------------|--------------------------------------------------------------|
C|-------------------------------------------------------------|--------------------------------------------------------------|
C|-------------------------------------------------------------|--------------------------------------------------------------|
C|-------------------------------------------------------------|--------------------------------------------------------------|


C|-36-----36-----52-----51--36--36-----51-----38-----51--36--|-51-----36-----38-----51--38--38--38--38--38--38--36-----36--|
C|-51-----51-----38-------------51-----36-----49-------------|-36-----51-----52--------------------------------------------|
C|-----------------------------------------------------------|-------------------------------------------------------------|
C|-----------------------------------------------------------|-------------------------------------------------------------|
C|-----------------------------------------------------------|-------------------------------------------------------------|
C|-----------------------------------------------------------|-------------------------------------------------------------|


C|-49-----36-----51-----51--36--36--51--51-----38--49--51--36--|-36-----36-----38--51--51--36--51-----36--51--40--36--51--36--|
C|-36-----51-----38-------------51------36-----51--36----------|-51-----51-----51--------------36-----51------38--49----------|
C|-------------------------------------------------------------|--------------------------------------------------------------|
C|-------------------------------------------------------------|--------------------------------------------------------------|
C|-------------------------------------------------------------|--------------------------------------------------------------|
C|-------------------------------------------------------------|--------------------------------------------------------------|


C|-36-----36-----52-----51--36--36-----51-----38-----51--36--|-49------------36--38--36------|
C|-51-----51-----38-------------51-----36-----49-------------|-36----------------------------|
C|-----------------------------------------------------------|-------------------------------|
C|-----------------------------------------------------------|-------------------------------|
C|-----------------------------------------------------------|-------------------------------|
C|-----------------------------------------------------------|-------------------------------|


C|-49-----46-----46-----46--36--36-----36-----46--36------|-46-----36-----46-----46--36--36-----36-----38--36------|
C|-36-----36-----38-------------46-----46-----38--49------|-36-----46-----38-------------46-----46---------49------|
C|--------------------------------------------------------|--------------------------------------------------------|
C|--------------------------------------------------------|--------------------------------------------------------|
C|--------------------------------------------------------|--------------------------------------------------------|
C|--------------------------------------------------------|--------------------------------------------------------|


C|-49-----36-----38-----46--36--36-----46-----38--49------|-36-----36-----38-----46--36--46-----36-----38--36------|
C|-36-----46-----46-------------46-----36---------36------|-46------------46-------------36-----46---------49------|
C|--------------------------------------------------------|--------------------------------------------------------|
C|--------------------------------------------------------|--------------------------------------------------------|
C|--------------------------------------------------------|--------------------------------------------------------|
C|--------------------------------------------------------|--------------------------------------------------------|


C|-49-----46-----46-----46--36--36-----36-----46--36------|-46-----36-----46-----46--36--36-----36-----38--36------|
C|-36-----36-----38-------------46-----46-----38--49------|-36-----46-----38-------------46-----46---------49------|
C|--------------------------------------------------------|--------------------------------------------------------|
C|--------------------------------------------------------|--------------------------------------------------------|
C|--------------------------------------------------------|--------------------------------------------------------|
C|--------------------------------------------------------|--------------------------------------------------------|


C|-49-----36-----38-----46--36--36-----46-----38--49------|-36-----36-----38-----46--36--|
C|-36-----46-----46-------------46-----36---------36------|-46------------46-------------|
C|--------------------------------------------------------|------------------------------|
C|--------------------------------------------------------|------------------------------|
C|--------------------------------------------------------|------------------------------|
C|--------------------------------------------------------|------------------------------|


C|-36---------38----------36-----38---------|-38-----38--38--38--38--38--38---------36--38-----38-----|
C|------------------------------------------|---------------------------------------------------------|
C|------------------------------------------|---------------------------------------------------------|
C|------------------------------------------|---------------------------------------------------------|
C|------------------------------------------|---------------------------------------------------------|
C|------------------------------------------|---------------------------------------------------------|


C|-49-----36-----51-----51--36--36--51--51-----38--49--51--36--|-36-----36-----38--51--51--36--51-----36--51--40--36--51--36--|
C|-36-----51-----38-------------51------36-----51--36----------|-51-----51-----51--------------36-----51------38--49----------|
C|-------------------------------------------------------------|--------------------------------------------------------------|
C|-------------------------------------------------------------|--------------------------------------------------------------|
C|-------------------------------------------------------------|--------------------------------------------------------------|
C|-------------------------------------------------------------|--------------------------------------------------------------|


C|-36-----36-----52-----51--36--36-----51-----38-----51--36--|-51-----36-----38-----51--38--38--38--38--38--38--36-----36--|
C|-51-----51-----38-------------51-----36-----49-------------|-36-----51-----52--------------------------------------------|
C|-----------------------------------------------------------|-------------------------------------------------------------|
C|-----------------------------------------------------------|-------------------------------------------------------------|
C|-----------------------------------------------------------|-------------------------------------------------------------|
C|-----------------------------------------------------------|-------------------------------------------------------------|


C|-49-----36-----51-----51--36--36--51--51-----38--49--51--36--|-36-----36-----38--51--51--36--51-----36--51--40--36--51--36--|
C|-36-----51-----38-------------51------36-----51--36----------|-51-----51-----51--------------36-----51------38--49----------|
C|-------------------------------------------------------------|--------------------------------------------------------------|
C|-------------------------------------------------------------|--------------------------------------------------------------|
C|-------------------------------------------------------------|--------------------------------------------------------------|
C|-------------------------------------------------------------|--------------------------------------------------------------|


C|-36-----36-----52-----51--36--36-----51-----38-----51--36--|-46--49------------38--36------|
C|-51-----51-----38-------------51-----36-----49-------------|-36--36------------------------|
C|-----------------------------------------------------------|-------------------------------|
C|-----------------------------------------------------------|-------------------------------|
C|-----------------------------------------------------------|-------------------------------|
C|-----------------------------------------------------------|-------------------------------|


C|-49-----46-----46-----46--36--36-----36-----46--36------|-46-----36-----46-----46--36--36-----36-----38--36------|
C|-36-----36-----38-------------46-----46-----38--49------|-36-----46-----38-------------46-----46---------49------|
C|--------------------------------------------------------|--------------------------------------------------------|
C|--------------------------------------------------------|--------------------------------------------------------|
C|--------------------------------------------------------|--------------------------------------------------------|
C|--------------------------------------------------------|--------------------------------------------------------|


C|-49-----36-----38-----46--36--36-----46-----38--49------|-36-----36-----38-----46--36--46-----36-----38--36------|
C|-36-----46-----46-------------46-----36---------36------|-46------------46-------------36-----46---------49------|
C|--------------------------------------------------------|--------------------------------------------------------|
C|--------------------------------------------------------|--------------------------------------------------------|
C|--------------------------------------------------------|--------------------------------------------------------|
C|--------------------------------------------------------|--------------------------------------------------------|


C|-49-----46-----46-----46--36--36-----36-----46--36------|-46-----36-----46-----46--36--36-----36-----38--36------|
C|-36-----36-----38-------------46-----46-----38--49------|-36-----46-----38-------------46-----46---------49------|
C|--------------------------------------------------------|--------------------------------------------------------|
C|--------------------------------------------------------|--------------------------------------------------------|
C|--------------------------------------------------------|--------------------------------------------------------|
C|--------------------------------------------------------|--------------------------------------------------------|


C|-49-----36-----38-----46--36--36-----46-----38--49------|-36-----36-----38-----46--36--|
C|-36-----46-----46-------------46-----36---------36------|-46------------46-------------|
C|--------------------------------------------------------|------------------------------|
C|--------------------------------------------------------|------------------------------|
C|--------------------------------------------------------|------------------------------|
C|--------------------------------------------------------|------------------------------|


C|-49---------51-----51--36--36-----36-----51--36--51--36--|-51-----51-----49-----51-----51-----51-----49-----51--36--|
C|-36---------38-------------51-----51-----38--------------|-36-----36-----38------------36-----36-----38-------------|
C|---------------------------------------------------------|----------------------------------------------------------|
C|---------------------------------------------------------|----------------------------------------------------------|
C|---------------------------------------------------------|----------------------------------------------------------|
C|---------------------------------------------------------|----------------------------------------------------------|


C|-36-----51-----38-----51-----51-----36-----38-----51-----|-36-----51-----49-----51-----36-----51-----49-----51--36--|
C|-51-----36-----49------------36-----51-----49------------|-51-----36-----38------------51-----36-----38-------------|
C|---------------------------------------------------------|----------------------------------------------------------|
C|---------------------------------------------------------|----------------------------------------------------------|
C|---------------------------------------------------------|----------------------------------------------------------|
C|---------------------------------------------------------|----------------------------------------------------------|


C|-36-----51-----49-----51-----51-----36-----38-----51--36--|-51-----51-----49-----51-----51-----51-----49-----51--36--|
C|-51-----36-----38------------36-----51-----49-------------|-36-----36-----38------------36-----36-----38-------------|
C|----------------------------------------------------------|----------------------------------------------------------|
C|----------------------------------------------------------|----------------------------------------------------------|
C|----------------------------------------------------------|----------------------------------------------------------|
C|----------------------------------------------------------|----------------------------------------------------------|


C|-36-----51-----38-----51-----51-----36-----38-----51-----|-36-----51-----49-----51-----36-----51-----49-----51--36--|
C|-51-----36-----49------------36-----51-----49------------|-51-----36-----38------------51-----36-----38-------------|
C|---------------------------------------------------------|----------------------------------------------------------|
C|---------------------------------------------------------|----------------------------------------------------------|
C|---------------------------------------------------------|----------------------------------------------------------|
C|---------------------------------------------------------|----------------------------------------------------------|


C|-36---------49---------36---------49-----38-----|-49-----46-----46-----46--36--36-----36-----46--36------|
C|-51---------38---------51---------38------------|-36-----36-----38-------------46-----46-----38--49------|
C|------------------------------------------------|--------------------------------------------------------|
C|------------------------------------------------|--------------------------------------------------------|
C|------------------------------------------------|--------------------------------------------------------|
C|------------------------------------------------|--------------------------------------------------------|


C|-46-----36-----46-----46--36--36-----36-----38--36------|-49-----36-----38-----46--36--36-----46-----38--49------|
C|-36-----46-----38-------------46-----46---------49------|-36-----46-----46-------------46-----36---------36------|
C|--------------------------------------------------------|--------------------------------------------------------|
C|--------------------------------------------------------|--------------------------------------------------------|
C|--------------------------------------------------------|--------------------------------------------------------|
C|--------------------------------------------------------|--------------------------------------------------------|


C|-36-----36-----38-----46--36--|-36---------38----------36-----38---------|-38-----38--38--38--38--38--38---------36--38-----38-----|
C|-46------------46-------------|------------------------------------------|---------------------------------------------------------|
C|------------------------------|------------------------------------------|---------------------------------------------------------|
C|------------------------------|------------------------------------------|---------------------------------------------------------|
C|------------------------------|------------------------------------------|---------------------------------------------------------|
C|------------------------------|------------------------------------------|---------------------------------------------------------|


C|-49-----36-----51-----51--36--36--51--51-----38--49--51--36--|-36-----36-----38--51--51--36--51-----36--51--40--36--51--36--|
C|-36-----51-----38-------------51------36-----51--36----------|-51-----51-----51--------------36-----51------38--49----------|
C|-------------------------------------------------------------|--------------------------------------------------------------|
C|-------------------------------------------------------------|--------------------------------------------------------------|
C|-------------------------------------------------------------|--------------------------------------------------------------|
C|-------------------------------------------------------------|--------------------------------------------------------------|


C|-36-----36-----52-----51--36--36-----51-----38-----51--36--|-51-----36-----38-----51--38--38--38--38--38--38--36-----36--|
C|-51-----51-----38-------------51-----36-----49-------------|-36-----51-----52--------------------------------------------|
C|-----------------------------------------------------------|-------------------------------------------------------------|
C|-----------------------------------------------------------|-------------------------------------------------------------|
C|-----------------------------------------------------------|-------------------------------------------------------------|
C|-----------------------------------------------------------|-------------------------------------------------------------|


C|-49-----36-----51-----51--36--36--51--51-----38--49--51--36--|-36-----36-----38--51--51--36--51-----36--51--40--36--51--36--|
C|-36-----51-----38-------------51------36-----51--36----------|-51-----51-----51--------------36-----51------38--49----------|
C|-------------------------------------------------------------|--------------------------------------------------------------|
C|-------------------------------------------------------------|--------------------------------------------------------------|
C|-------------------------------------------------------------|--------------------------------------------------------------|
C|-------------------------------------------------------------|--------------------------------------------------------------|


C|-36-----36-----52-----51--36--36-----51-----38-----51--36--|-51-----36-----38-----51--38--38--38--38--38--38--36-----36--|
C|-51-----51-----38-------------51-----36-----49-------------|-36-----51-----52--------------------------------------------|
C|-----------------------------------------------------------|-------------------------------------------------------------|
C|-----------------------------------------------------------|-------------------------------------------------------------|
C|-----------------------------------------------------------|-------------------------------------------------------------|
C|-----------------------------------------------------------|-------------------------------------------------------------|


C|-49-----36-----51-----51--36--36--51--51-----38--49--51--36--|-36-----36-----38--51--51--36--51-----36--51--40--36--51--36--|
C|-36-----51-----38-------------51------36-----51--36----------|-51-----51-----51--------------36-----51------38--49----------|
C|-------------------------------------------------------------|--------------------------------------------------------------|
C|-------------------------------------------------------------|--------------------------------------------------------------|
C|-------------------------------------------------------------|--------------------------------------------------------------|
C|-------------------------------------------------------------|--------------------------------------------------------------|


C|-36-----36-----52-----51--36--36-----51-----38-----51--36--|-51-----36-----38-----51--38--38--38--38--38--38--36-----36--|
C|-51-----51-----38-------------51-----36-----49-------------|-36-----51-----52--------------------------------------------|
C|-----------------------------------------------------------|-------------------------------------------------------------|
C|-----------------------------------------------------------|-------------------------------------------------------------|
C|-----------------------------------------------------------|-------------------------------------------------------------|
C|-----------------------------------------------------------|-------------------------------------------------------------|


C|-49-----36-----51-----51--36--36--51--51-----38--49--51--36--|-36-----36-----38--51--51--36--51-----36--51--40--36--51--36--|
C|-36-----51-----38-------------51------36-----51--36----------|-51-----51-----51--------------36-----51------38--49----------|
C|-------------------------------------------------------------|--------------------------------------------------------------|
C|-------------------------------------------------------------|--------------------------------------------------------------|
C|-------------------------------------------------------------|--------------------------------------------------------------|
C|-------------------------------------------------------------|--------------------------------------------------------------|


C|-36-----36-----52-----51--36--36-----51-----38-----51--36--|-49--------------------|
C|-51-----51-----38-------------51-----36-----49-------------|-36--------------------|
C|-----------------------------------------------------------|-----------------------|
C|-----------------------------------------------------------|-----------------------|
C|-----------------------------------------------------------|-----------------------|
C|-----------------------------------------------------------|-----------------------|


C|-3845--413645--413645--413845--413648--453648--453845--413645--41|-3645--413848--454148--453645--4138--36--48--36--38--36-----36--|
C|-----------------------------------------------------------------|----------------------------------------------------------------|
C|-----------------------------------------------------------------|----------------------------------------------------------------|
C|-----------------------------------------------------------------|----------------------------------------------------------------|
C|-----------------------------------------------------------------|----------------------------------------------------------------|
C|-----------------------------------------------------------------|----------------------------------------------------------------|


C|-49--------------------|-3845--413645--413645--413845--413648--453648--453845--413645--41|
C|-36--------------------|-----------------------------------------------------------------|
C|-----------------------|-----------------------------------------------------------------|
C|-----------------------|-----------------------------------------------------------------|
C|-----------------------|-----------------------------------------------------------------|
C|-----------------------|-----------------------------------------------------------------|


C|-38--36-----36--38--36-----36--38--36--38--38--38--38--38--38--|-49-----38-----36--36--46-----36--36--46-----36--36--38-----|
C|-46--------------------------------46--46--46--46--46--46--46--|-36-----46-----46------38-----46------38-----46--49--46-----|
C|---------------------------------------------------------------|------------------------------------------------------------|
C|---------------------------------------------------------------|------------------------------------------------------------|
C|---------------------------------------------------------------|------------------------------------------------------------|
C|---------------------------------------------------------------|------------------------------------------------------------|


C|-46-----46-----46--36--38-----36--36--38-----36--49--38-----|-49-----38-----46-----46-----46--36--38-----46--36--46-----|
C|-36-----38-----36------46-----46------46-----46--36--46-----|-36-----46-----36-----38-----36------46-----36--49--38-----|
C|------------------------------------------------------------|-----------------------------------------------------------|
C|------------------------------------------------------------|-----------------------------------------------------------|
C|------------------------------------------------------------|-----------------------------------------------------------|
C|------------------------------------------------------------|-----------------------------------------------------------|


C|-49-----46-----36-----46-----49-----46-----36--36--38-----|-49-----38--36--36--36--46--36--36--36--46--36--36--36--38--36--|
C|-36-----38-----46-----38-----36-----38-----49-------------|-36-----46------46------38------46------38------46--49--46------|
C|----------------------------------------------------------|----------------------------------------------------------------|
C|----------------------------------------------------------|----------------------------------------------------------------|
C|----------------------------------------------------------|----------------------------------------------------------------|
C|----------------------------------------------------------|----------------------------------------------------------------|


C|-46-----46--36--46--36--38--36--36--36--38--36--36--49--38--36--|-49-----38--36--46-----46--36--46--36--38--36--46--36--46--36--|
C|-36-----38------36------46------46------46------46--36--46------|-36-----46------36-----38------36------46------36--49--38------|
C|----------------------------------------------------------------|---------------------------------------------------------------|
C|----------------------------------------------------------------|---------------------------------------------------------------|
C|----------------------------------------------------------------|---------------------------------------------------------------|
C|----------------------------------------------------------------|---------------------------------------------------------------|


C|-49-----46--36--36-----46--36--49-----46--36--36--36--38--36--|-49-----38-----36--36--46-----36--36--46-----36--36--38-----|
C|-36-----38------46-----38------36-----38------49--------------|-36-----46-----46------38-----46------38-----46--49--46-----|
C|--------------------------------------------------------------|------------------------------------------------------------|
C|--------------------------------------------------------------|------------------------------------------------------------|
C|--------------------------------------------------------------|------------------------------------------------------------|
C|--------------------------------------------------------------|------------------------------------------------------------|


C|-46-----46-----46--36--38-----36--36--38-----36--49--38-----|-49-----38-----46-----46-----46--36--38-----46--36--46-----|
C|-36-----38-----36------46-----46------46-----46--36--46-----|-36-----46-----36-----38-----36------46-----36--49--38-----|
C|------------------------------------------------------------|-----------------------------------------------------------|
C|------------------------------------------------------------|-----------------------------------------------------------|
C|------------------------------------------------------------|-----------------------------------------------------------|
C|------------------------------------------------------------|-----------------------------------------------------------|


C|-49-----46-----36-----46-----49-----46-----36--36--38-----|-49-----38--36--36--36--46--36--36--36--46--36--36--36--38--36--|
C|-36-----38-----46-----38-----36-----38-----49-------------|-36-----46------46------38------46------38------46--49--46------|
C|----------------------------------------------------------|----------------------------------------------------------------|
C|----------------------------------------------------------|----------------------------------------------------------------|
C|----------------------------------------------------------|----------------------------------------------------------------|
C|----------------------------------------------------------|----------------------------------------------------------------|


C|-46-----46--36--46--36--38--36--36--36--38--36--36--49--38--36--|-49-----38--36--46-----46--36--46--36--38--36--46--36--46--36--|
C|-36-----38------36------46------46------46------46--36--46------|-36-----46------36-----38------36------46------36--49--38------|
C|----------------------------------------------------------------|---------------------------------------------------------------|
C|----------------------------------------------------------------|---------------------------------------------------------------|
C|----------------------------------------------------------------|---------------------------------------------------------------|
C|----------------------------------------------------------------|---------------------------------------------------------------|


C|-49--36--52-----36--38-----36--38-----36--38-----38--38--38--|-49-----38-----36--36--46-----36--36--46-----36--36--38-----|
C|-36------38---------49---------52---------49-------------36--|-36-----46-----46------38-----46------38-----46--49--46-----|
C|-------------------------------------------------------------|------------------------------------------------------------|
C|-------------------------------------------------------------|------------------------------------------------------------|
C|-------------------------------------------------------------|------------------------------------------------------------|
C|-------------------------------------------------------------|------------------------------------------------------------|


C|-46-----46-----46--36--38-----36--36--38-----36--49--38-----|-49-----38-----46-----46-----46--36--38-----46--36--46-----|
C|-36-----38-----36------46-----46------46-----46--36--46-----|-36-----46-----36-----38-----36------46-----36--49--38-----|
C|------------------------------------------------------------|-----------------------------------------------------------|
C|------------------------------------------------------------|-----------------------------------------------------------|
C|------------------------------------------------------------|-----------------------------------------------------------|
C|------------------------------------------------------------|-----------------------------------------------------------|


C|-49-----46-----36-----46-----49-----46-----36--36--38-----|-49-----38--36--36--36--46--36--36--36--46--36--36--36--38--36--|
C|-36-----38-----46-----38-----36-----38-----49-------------|-36-----46------46------38------46------38------46--49--46------|
C|----------------------------------------------------------|----------------------------------------------------------------|
C|----------------------------------------------------------|----------------------------------------------------------------|
C|----------------------------------------------------------|----------------------------------------------------------------|
C|----------------------------------------------------------|----------------------------------------------------------------|


C|-46-----46--36--46--36--38--36--36--36--38--36--36--49--38--36--|-49-----38--36--46-----46--36--46--36--38--36--46--36--46--36--|
C|-36-----38------36------46------46------46------46--36--46------|-36-----46------36-----38------36------46------36--49--38------|
C|----------------------------------------------------------------|---------------------------------------------------------------|
C|----------------------------------------------------------------|---------------------------------------------------------------|
C|----------------------------------------------------------------|---------------------------------------------------------------|
C|----------------------------------------------------------------|---------------------------------------------------------------|


C|-49--36--52-----36--38-----36--38-----36--38-----38--38--38--|-49-----38-----36--36--46-----36--36--46-----36--36--38-----|
C|-36------38---------49---------52---------49-------------36--|-36-----46-----46------38-----46------38-----46--49--46-----|
C|-------------------------------------------------------------|------------------------------------------------------------|
C|-------------------------------------------------------------|------------------------------------------------------------|
C|-------------------------------------------------------------|------------------------------------------------------------|
C|-------------------------------------------------------------|------------------------------------------------------------|


C|-46-----46-----46--36--38-----36--36--38-----36--49--38-----|-49-----38-----46-----46-----46--36--38-----46--36--46-----|
C|-36-----38-----36------46-----46------46-----46--36--46-----|-36-----46-----36-----38-----36------46-----36--49--38-----|
C|------------------------------------------------------------|-----------------------------------------------------------|
C|------------------------------------------------------------|-----------------------------------------------------------|
C|------------------------------------------------------------|-----------------------------------------------------------|
C|------------------------------------------------------------|-----------------------------------------------------------|


C|-49-----46-----36-----46-----49-----46-----36--36--38-----|-49-----38--36--36--36--46--36--36--36--46--36--36--36--38--36--|
C|-36-----38-----46-----38-----36-----38-----49-------------|-36-----46------46------38------46------38------46--49--46------|
C|----------------------------------------------------------|----------------------------------------------------------------|
C|----------------------------------------------------------|----------------------------------------------------------------|
C|----------------------------------------------------------|----------------------------------------------------------------|
C|----------------------------------------------------------|----------------------------------------------------------------|


C|-46-----46--36--46--36--38--36--36--36--38--36--36--49--38--36--|-49-----38--36--46-----46--36--46--36--38--36--46--36--46--36--|
C|-36-----38------36------46------46------46------46--36--46------|-36-----46------36-----38------36------46------36--49--38------|
C|----------------------------------------------------------------|---------------------------------------------------------------|
C|----------------------------------------------------------------|---------------------------------------------------------------|
C|----------------------------------------------------------------|---------------------------------------------------------------|
C|----------------------------------------------------------------|---------------------------------------------------------------|


C|-49-----46--36--36-----46--36--49-----46--36--36--36--38--36--|-49-----38-----36--36--46-----36--36--46-----36--36--38-----|
C|-36-----38------46-----38------36-----38------49--------------|-36-----46-----46------38-----46------38-----46--49--46-----|
C|--------------------------------------------------------------|------------------------------------------------------------|
C|--------------------------------------------------------------|------------------------------------------------------------|
C|--------------------------------------------------------------|------------------------------------------------------------|
C|--------------------------------------------------------------|------------------------------------------------------------|


C|-46-----46-----46--36--38-----36--36--38-----36--49--38-----|-49-----38-----46-----46-----46--36--38-----46--36--46-----|
C|-36-----38-----36------46-----46------46-----46--36--46-----|-36-----46-----36-----38-----36------46-----36--49--38-----|
C|------------------------------------------------------------|-----------------------------------------------------------|
C|------------------------------------------------------------|-----------------------------------------------------------|
C|------------------------------------------------------------|-----------------------------------------------------------|
C|------------------------------------------------------------|-----------------------------------------------------------|


C|-49-----46-----36-----46-----49-----46-----36--36--38-----|-49-----38--36--36--36--46--36--36--36--46--36--36--36--38--36--|
C|-36-----38-----46-----38-----36-----38-----49-------------|-36-----46------46------38------46------38------46--49--46------|
C|----------------------------------------------------------|----------------------------------------------------------------|
C|----------------------------------------------------------|----------------------------------------------------------------|
C|----------------------------------------------------------|----------------------------------------------------------------|
C|----------------------------------------------------------|----------------------------------------------------------------|


C|-46-----46--36--46--36--38--36--36--36--38--36--36--49--38--36--|-49-----38--36--46-----46--36--46--36--38--36--46--36--46--36--|
C|-36-----38------36------46------46------46------46--36--46------|-36-----46------36-----38------36------46------36--49--38------|
C|----------------------------------------------------------------|---------------------------------------------------------------|
C|----------------------------------------------------------------|---------------------------------------------------------------|
C|----------------------------------------------------------------|---------------------------------------------------------------|
C|----------------------------------------------------------------|---------------------------------------------------------------|


C|-49--36--52-----36--38-----36--38-----36--38-----38--38--38--|-49-----38-----36--36--46-----36--36--46-----36--36--38-----|
C|-36------38---------49---------52---------49-------------36--|-36-----46-----46------38-----46------38-----46--49--46-----|
C|-------------------------------------------------------------|------------------------------------------------------------|
C|-------------------------------------------------------------|------------------------------------------------------------|
C|-------------------------------------------------------------|------------------------------------------------------------|
C|-------------------------------------------------------------|------------------------------------------------------------|


C|-46-----46-----46--36--38-----36--36--38-----36--49--38-----|-49-----38-----46-----46-----46--36--38-----46--36--46-----|
C|-36-----38-----36------46-----46------46-----46--36--46-----|-36-----46-----36-----38-----36------46-----36--49--38-----|
C|------------------------------------------------------------|-----------------------------------------------------------|
C|------------------------------------------------------------|-----------------------------------------------------------|
C|------------------------------------------------------------|-----------------------------------------------------------|
C|------------------------------------------------------------|-----------------------------------------------------------|


C|-49-----46-----36-----46-----49-----46-----36--36--38-----|-49-----38--36--36--36--46--36--36--36--46--36--36--36--38--36--|
C|-36-----38-----46-----38-----36-----38-----49-------------|-36-----46------46------38------46------38------46--49--46------|
C|----------------------------------------------------------|----------------------------------------------------------------|
C|----------------------------------------------------------|----------------------------------------------------------------|
C|----------------------------------------------------------|----------------------------------------------------------------|
C|----------------------------------------------------------|----------------------------------------------------------------|


C|-46-----46--36--46--36--38--36--36--36--38--36--36--49--38--36--|-49---------38--36------49---------38--36------|
C|-36-----38------36------46------46------46------46--36--46------|-36---------------------36---------------------|
C|----------------------------------------------------------------|-----------------------------------------------|
C|----------------------------------------------------------------|-----------------------------------------------|
C|----------------------------------------------------------------|-----------------------------------------------|
C|----------------------------------------------------------------|-----------------------------------------------|


C|-36--------36-----36---52---36--3652|---36--3652--36--36---49-----36-----49-----36----46-----|
C|-49--------52-----49---36---49------|---49--------49--52---36-----52-----36-----46----36-----|
C|------------------------------------|--------------------------------------------------------|
C|------------------------------------|--------------------------------------------------------|
C|------------------------------------|--------------------------------------------------------|
C|------------------------------------|--------------------------------------------------------|


C|----49---------------38--36-----|------36-----|-36-----|-49-----|
C|----36--------------------------|-------------|--------|-36-----|
C|--------------------------------|-------------|--------|--------|
C|--------------------------------|-------------|--------|--------|
C|--------------------------------|-------------|--------|--------|
C|--------------------------------|-------------|--------|--------|



← Back to top