Dude Looks Like A Lady

by Aerosmith

Guitar Pro Tab  |  v3.00  |  Posted on March 29, 2007, 10:57 a.m. ← Back

Guitar Pro Tab Summary

Album

unknown

Song Author

unknown

Tabbed by

Ace Frehley

Instruments

1st → Guitar I
2nd → Bassha 1
3rd → Guitar II
4th → Drumsss´┐Żo

File Size

43 KB

Views

7,471

Notice

the-ace-frehley@bol.com.br






Tablature Sheet

Title: Dude Looks Like A Lady
Artist: Aerosmith
Album: 
Author: 






Track 1: Guitar I
Back to top
E|--------|-------------------------------------|-------------------------------------|
B|--------|-5--5---5--5-------5--5---5--5-------|-5--5---5--5-------5--5---5--5-------|
G|--------|----2---2--2----------2---2--2-------|----2---2--2----------2---2--2-------|
D|--------|-------------------------------------|-------------------------------------|
A|--------|-------------------------------------|-------------------------------------|
E|--------|-------------------------------------|-------------------------------------|


E|-5---5---5---3---3---5---5-------|-2--------3-------2--------|-5---5---5---3---3---5---5-------|
B|-5---5---5---3---3---5---5-------|-3--------3-------3--------|-5---5---5---3---3---5---5-------|
G|-2---2---2---0---0---2---2-------|----------0-------2--------|-2---2---2---0---0---2---2-------|
D|-0---0---0---0---0---7---7-------|------0-------0------------|-0---7---7---0---0---7---7-------|
A|-0---0---0-----------0---0-------|---------------------------|-0---0---0-----------0---0-------|
E|---------------------------------|---------------------------|---------------------------------|


E|-----2-----------3-------2----|-5---5---5---3---3---5---5-------|-----2-----------3-------2----|
B|-----3-----------3-------3----|-5---5---5---3---3---5---5-------|-----3-----------3-------3----|
G|-----2-------------------2----|-2---2---2---0---0---2---2-------|-----2-------------------2----|
D|-0-------0---0-------0--------|-0---7---7---0---0---------------|-0-------0---0-------0--------|
A|------------------------------|-0---0---0-----------------------|------------------------------|
E|------------------------------|---------------------------------|------------------------------|


E|-5---5---5---3---3---5---5-------|-2-----------3---3-------2----|-5-----5-----5-----3-----3-----5-----5----|
B|-5---5---5---3---3---5---5-------|-3-----------3---3-------3----|-5-----5-----5-----3-----3-----5-----5----|
G|-2---2---2---0---0---2---2-------|-2-----------------------2----|-2-----2-----2-----0-----0-----2-----2----|
D|-0---7---7---0---0-----------0---|-----0---0-----------0--------|------------------------------------------|
A|-0---0---0-----------------------|------------------------------|------------------------------------------|
E|---------------------------------|------------------------------|------------------------------------------|


E|-------2-----------------3-------2----|-5-----5-----5-----3-----3-----5-----5----|
B|-------3-----------------3-------3----|-5-----5-----5-----3-----3-----5-----5----|
G|-------2-----------------2-------2----|-2-----2-----2-----0-----0-----2-----2----|
D|-0-----------0-----0---------0--------|------------------------------------------|
A|--------------------------------------|------------------------------------------|
E|--------------------------------------|------------------------------------------|


E|------2------------3-------2---|-5-----5-----5-----3-----3-----5-----5----|-------2-----------------3-------2----|
B|------3------------3-------3---|-5-----5-----5-----3-----3-----5-----5----|-------3-----------------3-------3----|
G|------2------------2-------2---|-2-----2-----2-----0-----0-----2-----2----|-------2-----------------2-------2----|
D|-0---------0---0-------0-------|------------------------------------------|-0-----------0-----0---------0--------|
A|-------------------------------|------------------------------------------|--------------------------------------|
E|-------------------------------|------------------------------------------|--------------------------------------|


E|-5-----5-----5-----3-----3-----5-----5----|-------2-----------------3------------|
B|-5-----5-----5-----3-----3-----5-----5----|-------3-----------------3------------|
G|-2-----2-----2-----0-----0-----2-----2----|-------2-----------------2------------|
D|-------------------------------------7----|-0-----------0-----0---------0--------|
A|------------------------------------------|---------------------------------2----|
E|------------------------------------------|--------------------------------------|


E|-5-----5-----5-----------3-----5-----5-----2-----|-2-----2-----3-----3-----------2----------|
B|-5-----5-----5-----------3-----5-----5-----3-----|-3-----3-----3-----3-----3-----3----------|
G|-2-----2-----2-----0-----0-----2-----2-----2-----|-2-----2-----2-----2-----2-----2----------|
D|-7-----7-----7-----0-----------7-----7-----0-----|-0-----0-----0-----0-----0-----0-----0----|
A|-0-----0-----0-----------------0-----0-----------|------------------------------------------|
E|-------------------------------------------------|------------------------------------------|


E|-5---5---5---3---3---5---5----|-----2---2---3---3---2---2---0---|-5---5---5---3---3---5---5----|
B|-5---5---5---3---3---5---5----|-----3---3---3---3---3---3---3---|-5---5---5---3---3---5---5----|
G|-2---2---2---0---0---2---2----|-----2---2---0---0---2---2---2---|-0---0---2---0---0---2---2----|
D|-7---7---7---0---0---2---2----|-----0---0---0---0---0-------0---|-0---0-------0---0---7---7----|
A|-0---0---0-----------0---0----|---------------------------------|-0---0---------------0---0----|
E|------------------------------|---------------------------------|------------------------------|


E|-2---2---3---3---2---2---0----|-5---5---5---3---3---5---5----|-----2---2---3---3---2---2---0---|
B|-3---3---3---3---3---3---3----|-5---5---5---3---3---5---5----|-----3---3---3---3---3---3---3---|
G|-2---2---2---2---0---2---2----|-2---2---2---0---0---2---2----|-----2---2---2---2---2---2---2---|
D|-0---0---0---0---0---0--------|-0---7---0---0---0---7---7----|-----0---0---0---0---0---0---0---|
A|------------------------------|-0---0---0-----------0---0----|---------------------------------|
E|------------------------------|------------------------------|---------------------------------|


E|-5---5---5---3---3---5---5----|-----2-----------3-------2----|-5---5---5---3---3---5---5-------|
B|-5---5---5---3---3---5---5----|-----3-----------3-------3----|-5---5---5---3---3---5---5-------|
G|-2---2---2---0---0---2---2----|-----2-------------------2----|-2---2---2---0---0---2---2-------|
D|-7---7---7---0---0---7--------|-0-------0---0-------0--------|-0---7---7---0---0---7-------0---|
A|-0---0---0-----------0--------|------------------------------|-0---0---0-----------0-----------|
E|------------------------------|------------------------------|---------------------------------|


E|-2-----------3---3-------2----|-5-----5-----5-----------3-----5-----5-----2-----|
B|-3-----------3---3-------3----|-5-----5-----5-----------3-----5-----5-----3-----|
G|-2-----------------------2----|-2-----2-----2-----0-----0-----2-----2-----2-----|
D|-----0---0-----------0--------|-7-----7-----7-----0-----------7-----7-----0-----|
A|------------------------------|-0-----0-----0-----------------0-----0-----------|
E|------------------------------|-------------------------------------------------|


E|-2-----2-----3-----3-----------2----------|-5---5---5---3---3---5---5----|-----2---2---3---3---2---2---0---|
B|-3-----3-----3-----3-----3-----3----------|-5---5---5---3---3---5---5----|-----3---3---3---3---3---3---3---|
G|-2-----2-----2-----2-----2-----2----------|-2---2---2---0---0---2---2----|-----2---2---0---0---2---2---2---|
D|-0-----0-----0-----0-----0-----0-----0----|-7---7---7---0---0---2---2----|-----0---0---0---0---0-------0---|
A|------------------------------------------|-0---0---0-----------0---0----|---------------------------------|
E|------------------------------------------|------------------------------|---------------------------------|


E|-5---5---5---3---3---5---5----|-2---2---3---3---2---2---0----|-5---5---5---3---3---5---5----|
B|-5---5---5---3---3---5---5----|-3---3---3---3---3---3---3----|-5---5---5---3---3---5---5----|
G|-0---0---2---0---0---2---2----|-2---2---2---2---0---2---2----|-2---2---2---0---0---2---2----|
D|-0---0-------0---0---7---7----|-0---0---0---0---0---0--------|-0---7---0---0---0---7---7----|
A|-0---0---------------0---0----|------------------------------|-0---0---0-----------0---0----|
E|------------------------------|------------------------------|------------------------------|


E|-----2---2---3---3---2---2---0---|-5---5---5---3---3---5---5----|-----2-----------3-------2----|
B|-----3---3---3---3---3---3---3---|-5---5---5---3---3---5---5----|-----3-----------3-------3----|
G|-----2---2---2---2---2---2---2---|-2---2---2---0---0---2---2----|-----2-------------------2----|
D|-----0---0---0---0---0---0---0---|-7---7---7---0---0---7---7----|-0-------0---0-------0--------|
A|---------------------------------|-0---0---0-----------0---0----|------------------------------|
E|---------------------------------|------------------------------|------------------------------|


E|-5---5---5---3---3---5---5-------|-2-----------3---3-------2----|-5---5---5---3---3---5---5----|
B|-5---5---5---3---3---5---5-------|-3-----------3---3-------3----|-5---5---5---3---3---5---5----|
G|-2---2---2---0---0---2---2-------|-2-----------------------2----|-2---2---2---0---0---2---2----|
D|-0---7---7---0---0---7---7---0---|-----0---0-----------0--------|-0---7---7---0---0---7---7----|
A|-0---0---0-----------0---0-------|------------------------------|-0---0---0-----------0---0----|
E|---------------------------------|------------------------------|------------------------------|


E|-----2-----------3-------2-------|-5-----5-----5-----------3-----5-----5-----2-----|
B|-----3-----------3-------3---3---|-5-----5-----5-----------3-----5-----5-----3-----|
G|-----2-----------2-------2---2---|-2-----2-----2-----0-----0-----2-----2-----2-----|
D|-0-------0---0-------0-----------|-7-----7-----7-----0-----------7-----7-----0-----|
A|---------------------------------|-0-----0-----0-----------------0-----0-----------|
E|---------------------------------|-------------------------------------------------|


E|-2-----2-----3-----3-----------2----------|-5---5---5---3---3---5---5----|-----2---2---3---3---2---2---0---|
B|-3-----3-----3-----3-----3-----3----------|-5---5---5---3---3---5---5----|-----3---3---3---3---3---3---3---|
G|-2-----2-----2-----2-----2-----2----------|-2---2---2---0---0---2---2----|-----2---2---0---0---2---2---2---|
D|-0-----0-----0-----0-----0-----0-----0----|-7---7---7---0---0---2---2----|-----0---0---0---0---0-------0---|
A|------------------------------------------|-0---0---0-----------0---0----|---------------------------------|
E|------------------------------------------|------------------------------|---------------------------------|


E|-5---5---5---3---3---5---5----|-2---2---3---3---2---2---0----|-5---5---5---3---3---5---5----|
B|-5---5---5---3---3---5---5----|-3---3---3---3---3---3---3----|-5---5---5---3---3---5---5----|
G|-0---0---2---0---0---2---2----|-2---2---2---2---0---2---2----|-2---2---2---0---0---2---2----|
D|-0---0-------0---0---7---7----|-0---0---0---0---0---0--------|-0---7---0---0---0---7---7----|
A|-0---0---------------0---0----|------------------------------|-0---0---0-----------0---0----|
E|------------------------------|------------------------------|------------------------------|


E|-----2---2---3---3---2---2---0---|-5---5---5---3---3---5---5----|-----2-----------3-------2----|
B|-----3---3---3---3---3---3---3---|-5---5---5---3---3---5---5----|-----3-----------3-------3----|
G|-----2---2---2---2---2---2---2---|-2---2---2---0---0---2---2----|-----2-------------------2----|
D|-----0---0---0---0---0---0---0---|-7---7---7---0---0---7---7----|-0-------0---0-------0--------|
A|---------------------------------|-0---0---0-----------0---0----|------------------------------|
E|---------------------------------|------------------------------|------------------------------|


E|-5---5---5---3---3---5---5-------|-2-----------3---3-------2----|-5---5---5---3---3---5---5----|
B|-5---5---5---3---3---5---5-------|-3-----------3---3-------3----|-5---5---5---3---3---5---5----|
G|-2---2---2---0---0---2---2-------|-2-----------------------2----|-2---2---2---0---0---2---2----|
D|-0---7---7---0---0---7---7---0---|-----0---0-----------0--------|-0---7---7---0---0---7---7----|
A|-0---0---0-----------0---0-------|------------------------------|-0---0---0-----------0---0----|
E|---------------------------------|------------------------------|------------------------------|


E|-----2-----------3-------2-------|-5---5---5---3---3---5---5----|-1-----------|-5---5---5---3---3-------5----|
B|-----3-----------3-------3---3---|-5---5---5---3---3---5---5----|-1-----------|-5---5---5---3---3-------5----|
G|-----2-----------2-------2---2---|-2---2---2---0---0---2---2----|-2-----------|-2---2---2---0---0-------2----|
D|-0-------0---0-------0-----------|-0---7---7---0---0---7---7----|-3-----------|-0---7---7---0----------------|
A|---------------------------------|-0---0---------------0---0----|-3-----------|-0---0---0-----------0--------|
E|---------------------------------|------------------------------|-1-----------|------------------------------|


E|-1-----------|-5---5---5---3---3---5---5----|-1-----------|------------------------------|
B|-1-----------|-5---5---5---3---3---5---5----|-1-----------|------------------------------|
G|-2-----------|-2---2---2---0---0---2---2----|-2-----------|-7---7---7---5---5---5---7----|
D|-3-----------|---------------------7---7----|-3-----------|-7---7---7---5---5-------7----|
A|-3-----------|---------------------0---0----|-3-----------|-5---5---5---3---3-------5----|
E|-1-----------|------------------------------|-1-----------|------------------------------|


E|-0--------------|-3------|--------------------------------|---------------------------------------------|
B|-0--------------|-3------|--------------------------------|---------------------------------------------|
G|-1------1---4---|-4------|------------------2--0-----0----|-4--2--0-----0---4--0--------------------2---|
D|-2------2---5---|-5------|--------------------------------|----------4----------------------------------|
A|-2------2---5---|-5------|-0---0---2----0-----------------|-----------------------3--0--3--0--3--0------|
E|-0--------------|-3------|--------------------------------|---------------------------------------------|


E|------------------------------|-------------------------------------|-------------------------------------8--8--|
B|------------------------------|-------------------------------------|-5--5--5--5--7--5-----7--7---5---7---7--7--|
G|------------------2-----------|-------------------2--0-----0--------|-5--5--5--5--7--5-----7--7---5---7---7--7--|
D|------------------------------|---------------------------------5---|-------------------7-----------------------|
A|-0---0---2----0---------------|-------2---2---0---------0-----------|---------------------------------0---------|
E|----------------------0---3---|-3--0--------------------------------|-------------------------------------------|


E|-8---------------------------------|-----------------------------------------|---------------------------------|
B|-7---7---7---7---5---5---7--5------|-5---------5--5---0--------5--5--5-------|-----------------7---5---7---5---|
G|-7---7---7---7---5---5---7--5------|-5---------5--5---0--------5--5--5-------|-7---7---5---7---7---5---7---5---|
D|-------------------------------7---|-----------------------------------------|-7---7---5---7-------------------|
A|-----------------------------------|-----5--7------------5--7------------5---|---------------------------------|
E|-----------------------------------|-----------------------------------------|---------------------------------|


E|-----8--8--8-------8--8--8---8--10---|---------------------5--5--5-------|-------------------------------8--8----|
B|-----8--8--8-------8--8--8---8--10---|-5---7---7---5---7---5--5--5---7---|-5---7--5-----7--5-----5-------8--8----|
G|-7-------------7---------------------|-5---7---7---5---7-------------7---|-5---7--5-----7--5-----5---7-----------|
D|-------------------------------------|-----------------------------------|-----------7--------7------------------|
A|-------------------------------------|-----------------------------------|---------------------------------------|
E|-------------------------------------|-----------------------------------|---------------------------------------|


E|-----8--8----------8-----------------|-17----17----------17------------17-------17-|
B|-----8--8------8---8--8----7---------|----17----17----17-17--20-17--------17-20----|
G|-7---------7---7-----------7--5--20--|-------------20--------------20--------------|
D|-------------------------------------|---------------------------------------------|
A|-------------------------------------|---------------------------------------------|
E|-------------------------------------|---------------------------------------------|


E|-----17--17-17-----17----------------|-17----------------17-------17-----------|
B|-----------------------17--20-17-----|-----17--20-17--------17-20-17-20-17-20--|
G|-20------------20----------------20--|---------------20------------------------|
D|-------------------------------------|-----------------------------------------|
A|-------------------------------------|-----------------------------------------|
E|-------------------------------------|-----------------------------------------|


E|-----17-------17-----17-----17---------|------------------------------|------------------------------|
B|-20-----20-20----20-----20-----20--20--|-9---9---9---7---7---9---9----|-0---0--------0---0---0---0---|
G|---------------------------------------|-9---9---9---7---7---9---9----|-0---0--------0---0---0-------|
D|---------------------------------------|-9---9---9---7---7---9---9----|------------------------------|
A|---------------------------------------|-7---7---7---5---5---7---7----|------------------------------|
E|---------------------------------------|------------------------------|------------------------------|


E|------------------------------|-----------------------------0---|---------------------------------|
B|-9---9---9---7---7---9---9----|-----------------------------0---|-9---9---9---7---7---9---9-------|
G|-9---9---9---7---7---9---9----|-----------------------------0---|-9---9---9---7---7---9---9-------|
D|-9---9---9---7---7---9---9----|---------------------------------|-9---9---9---7---7---9---9-------|
A|-7---7---7---5---5---7---7----|-0---0---0---0---0---0---0-------|-7---7---7---5---5---7---7-------|
E|------------------------------|-7---7---7---7---7---7-----------|---------------------------------|


E|--------------------------|---------------------------------|------3------|-3------|
B|--------------------------|-9---9---9---7---7---9---9-------|------3------|-3------|
G|--------------------------|-9---9---9---7---7---9---9-------|------4------|-4------|
D|--------------------------|-9---9---9---7---7---9---9-------|------5------|-5------|
A|--------------------------|-7---7---7---5---5---7---7-------|------5------|-5------|
E|-----2-----2--0--0--------|---------------------------------|------3------|-3------|


E|-5---5---5---3---3---5---5----|-----2-----------3----0----|-5---5---5-------3---3---5---5---|
B|-5---5---5---3---3---5---5----|-----3-----------3----0----|-5---5---5-------3---3---5---5---|
G|-2---2---2---0---0---2---2----|-----0-----------0---------|-2---2---2---0---0---0---2---2---|
D|-7---7-----------0---7---7----|-0-------0---0-------------|-7---7---7-----------0-----------|
A|-0---0---------------0---0----|---------------------------|-0---0---0-----------------------|
E|------------------------------|---------------------------|---------------------------------|


E|-----2-----------3----0----|-5---5---5-----3---3---5---5----|-----2-----------5---------|
B|-----3-----------3----0----|-5---5---5-----3---3---5---5----|-----3-----------3----0----|
G|-----2-----------0----0----|-2---2---2--0--0---0---2---2----|-----2-----------0----0----|
D|-0-------0---0-------------|-7---7---7---------0------------|-0-------0---0-------------|
A|---------------------------|-0---0---0----------------------|---------------------------|
E|---------------------------|--------------------------------|---------------------------|


E|-5---5---5-------3---3---5---5---|-----2-----------3----2-------|-5---5---5---3---3---5---5----|
B|-5---5---5-------3---3---5---5---|-----3-----------3----3-------|-5---5---5---3---3---5---5----|
G|-2---2---2---0---0---0---2---2---|-----2-----------0----2---0---|-2---2---2---0---0---2---2----|
D|-----------------0---0---2---2---|-0-------0---0----------------|-7---7------------------------|
A|---------------------------------|------------------------------|-0---0------------------------|
E|---------------------------------|------------------------------|------------------------------|


E|-----2-----------3-------2----|-5---5---5---3---3---5---5----|-----2-----------3-------2----|
B|-----3-----------3-------3----|-5---5---5---3---3---5---5----|-----3-----------3-------3----|
G|-----2-----------2-------2----|-2---2---2---0---0---2---2----|-----2-----------2-------2----|
D|-0-------0---0-------0--------|-0---7------------------------|-0-------0---0-------0--------|
A|------------------------------|-0---0------------------------|------------------------------|
E|------------------------------|------------------------------|------------------------------|


E|-5---5---5---3---3---5---5----|-----2-----------3-------2----|-5---5---5---3---3---5---5----|
B|-5---5---5---3---3---5---5----|-----3-----------3-------3----|-5---5---5---3---3---5---5----|
G|-2---2---2---0---0---2---2----|-----2-----------2-------2----|-2---2---2---0---0---2---2----|
D|-7---7------------------------|-0-------0---0-------0--------|-0---7------------------------|
A|-0---0------------------------|------------------------------|-0---0------------------------|
E|------------------------------|------------------------------|------------------------------|


E|-----2-----------3-------2----|-5---5---5---3---3---5---5----|------2-----------3-------3---|
B|-----3-----------3-------3----|-5---5---5---3---3---5---5----|------3-----------3-------3---|
G|-----2-----------2-------2----|-2---2---2---0---0---2---2----|------2-----------2-------2---|
D|-0-------0---0-------0--------|-0---7------------------------|-0--------0---0-------0-------|
A|------------------------------|-0---0------------------------|------------------------------|
E|------------------------------|------------------------------|------------------------------|


E|-5---5---5---3---3---5---5-------|-----2-----------3-------2----|-5---5---5---3---3---5---5-------|
B|-5---5---5---3---3---5---5-------|-----3-----------3-------3----|-5---5---5---3---3---5---5-------|
G|-2---2---2---0---0---2---2-------|-----2-----------2-------2----|-2---2---2---0---0---2---2-------|
D|-----------------------------0---|-0-------0---0-------0--------|-----------------------------0---|
A|---------------------------------|------------------------------|---------------------------------|
E|---------------------------------|------------------------------|---------------------------------|


E|-----2-----------3-------2----|-5---5---5---3---3---5---5----|-----2-----------3-------2----|
B|-----3-----------3-------3----|-5---5---5---3---3---5---5----|-----3-----------3-------3----|
G|-----2-----------2-------2----|-2---2---2---0---0---2---2----|-----2-----------2-------2----|
D|-0-------0---0-------0--------|------------------------------|-0-------0---0-------0--------|
A|------------------------------|------------------------------|------------------------------|
E|------------------------------|------------------------------|------------------------------|


E|-5---5---5---3---3---5---5----|-----2-----------3-------2----|------15--14------------------|
B|-5---5---5---3---3---5---5----|-----3-----------3-------3----|--------------17--------------|
G|-2---2---2---0---0---2---2----|-----2-----------2-------2----|------------------0-------14--|
D|------------------------------|-0-------0---0-------0--------|------------------------------|
A|------------------------------|------------------------------|-0----------------------------|
E|------------------------------|------------------------------|------------------------------|


E|-15-----------0---0-----------|------------------------------|------------------------------|
B|-15--0---17---------------15--|-14--14--14--12--12---5---7---|-7----5---5---3---3---3---1---|
G|----------------------14------|-14--14--14--12--12-----------|------------------------------|
D|----------------------12------|-14--14--14--12--12---5---7---|-7----5---5---4---4---4---2---|
A|------------------------------|------------------------------|------------------------------|
E|------------------------------|------------------------------|------------------------------|


E|---------------------------|---------------------------------|------------------------|
B|-2----3----2---2---3---5---|-7---------------7---7---7---8---|-8----10------12--12----|
G|-2----0--------------------|-----0---0-----------------------|----------0-------------|
D|-2----4----4---2---4---5---|-7-----------7---7-------7---9---|-9----11------12--12----|
A|-0-------------------------|---------------------------------|------------------------|
E|---------------------------|---------------------------------|------------------------|


E|----------------------------------|-----------------------------|---------------------------------|
B|-----14--14--------15--------17---|-17--------19---17-----------|---------14--12--12--13--13--14--|
G|----------------------------------|----------------0------------|---------------------------------|
D|-14----------14-16-----16-17------|-----17-19-----------17-16---|-16-14---14--12--12--13--13--14--|
A|----------------------------------|-----------------------------|---------------------------------|
E|----------------------------------|-----------------------------|---------------------------------|


E|------------------------------|------------------------------|------------------------|
B|-14--14--14--12--12--14--14---|------------------------------|-2-----0----2-----------|
G|------------------------------|-----2---4------------4---0---|-0----------0-----------|
D|-14--14--14--12--12--14--14---|-----0---0---0---0--------0---|-2----------2---2---2---|
A|------------------------------|------------------------------|------------------------|
E|------------------------------|------------------------------|------------------------|


E|------------------------------|
B|-----3---3-------5------------|
G|----------------------0---0---|
D|-4-----------5----------------|
A|------------------------------|
E|------------------------------|









Track 2: Guitar II
Back to top
E|--------|--------|--------|--------|--------|--------|--------|--------|--------|
B|--------|--------|--------|--------|--------|--------|--------|--------|--------|
G|--------|--------|--------|--------|--------|--------|--------|--------|--------|
D|--------|--------|--------|--------|--------|--------|--------|--------|--------|
A|--------|--------|--------|--------|--------|--------|--------|--------|--------|
E|--------|--------|--------|--------|--------|--------|--------|--------|--------|


E|--------|--------|--------|--------|--------|--------|--------|--------|--------|
B|--------|--------|--------|--------|--------|--------|--------|--------|--------|
G|--------|--------|--------|--------|--------|--------|--------|--------|--------|
D|--------|--------|--------|--------|--------|--------|--------|--------|--------|
A|--------|--------|--------|--------|--------|--------|--------|--------|--------|
E|--------|--------|--------|--------|--------|--------|--------|--------|--------|


E|--------|--------|--------|--------|--------|--------|--------|--------|--------|
B|--------|--------|--------|--------|--------|--------|--------|--------|--------|
G|--------|--------|--------|--------|--------|--------|--------|--------|--------|
D|--------|--------|--------|--------|--------|--------|--------|--------|--------|
A|--------|--------|--------|--------|--------|--------|--------|--------|--------|
E|--------|--------|--------|--------|--------|--------|--------|--------|--------|


E|--------|--------|--------|--------|--------|--------|--------|--------|--------|
B|--------|--------|--------|--------|--------|--------|--------|--------|--------|
G|--------|--------|--------|--------|--------|--------|--------|--------|--------|
D|--------|--------|--------|--------|--------|--------|--------|--------|--------|
A|--------|--------|--------|--------|--------|--------|--------|--------|--------|
E|--------|--------|--------|--------|--------|--------|--------|--------|--------|


E|--------|--------|--------|--------|--------|--------|--------|--------|--------|
B|--------|--------|--------|--------|--------|--------|--------|--------|--------|
G|--------|--------|--------|--------|--------|--------|--------|--------|--------|
D|--------|--------|--------|--------|--------|--------|--------|--------|--------|
A|--------|--------|--------|--------|--------|--------|--------|--------|--------|
E|--------|--------|--------|--------|--------|--------|--------|--------|--------|


E|--------|--------|--------|--------|--------|--------|--------|--------|--------|
B|--------|--------|--------|--------|--------|--------|--------|--------|--------|
G|--------|--------|--------|--------|--------|--------|--------|--------|--------|
D|--------|--------|--------|--------|--------|--------|--------|--------|--------|
A|--------|--------|--------|--------|--------|--------|--------|--------|--------|
E|--------|--------|--------|--------|--------|--------|--------|--------|--------|


E|--------|--------|--------|--------|--------|--------|--------|--------|--------|
B|--------|--------|--------|--------|--------|--------|--------|--------|--------|
G|--------|--------|--------|--------|--------|--------|--------|--------|--------|
D|--------|--------|--------|--------|--------|--------|--------|--------|--------|
A|--------|--------|--------|--------|--------|--------|--------|--------|--------|
E|--------|--------|--------|--------|--------|--------|--------|--------|--------|


E|--------|--------|--------|--------|--------|-5---5---5---3---3---5---5----|-----2---2---3---3---2---2---0---|
B|--------|--------|--------|--------|--------|-5---5---5---3---3---5---5----|-----3---3---3---3---3---3---3---|
G|--------|--------|--------|--------|--------|-2---2---2---0---0---2---2----|-----2---2---2---2---2---2---2---|
D|--------|--------|--------|--------|--------|-7---7---0---0---0---7---7----|-----0---0---0---0---0---0---0---|
A|--------|--------|--------|--------|--------|-0---0---0-----------0---0----|---------------------------------|
E|--------|--------|--------|--------|--------|------------------------------|---------------------------------|


E|-5---5---5---3---3---5---5----|-----2-----------3-------2----|-5---5---5---3---3---5---5----|
B|-5---5---5---3---3---5---5----|-----3-----------3-------3----|-5---5---5---3---3---5---5----|
G|-2---2---2---0---0---2---2----|-----2-------------------2----|-2---2---2---0---0---2---2----|
D|-7---7---7---0---0---7--------|-0-------0---0-------0--------|-0---7---0---0---0---7---7----|
A|-0---0---0-----------0--------|------------------------------|-0---0---0-----------0---0----|
E|------------------------------|------------------------------|------------------------------|


E|-----2---2---3---3---2---2---0---|-5---5---5---3---3---5---5----|-----2-----------3-------2----|
B|-----3---3---3---3---3---3---3---|-5---5---5---3---3---5---5----|-----3-----------3-------3----|
G|-----2---2---2---2---2---2---2---|-2---2---2---0---0---2---2----|-----2-------------------2----|
D|-----0---0---0---0---0---0---0---|-7---7---7---0---0---7--------|-0-------0---0-------0--------|
A|---------------------------------|-0---0---0-----------0--------|------------------------------|
E|---------------------------------|------------------------------|------------------------------|


E|-5---5---5---3---3---5---5----|-----2---2---3---3---2---2---0---|-5---5---5---3---3---5---5----|
B|-5---5---5---3---3---5---5----|-----3---3---3---3---3---3---3---|-5---5---5---3---3---5---5----|
G|-2---2---2---0---0---2---2----|-----2---2---2---2---2---2---2---|-2---2---2---0---0---2---2----|
D|-0---7---0---0---0---7---7----|-----0---0---0---0---0---0---0---|-7---7---7---0---0---7--------|
A|-0---0---0-----------0---0----|---------------------------------|-0---0---0-----------0--------|
E|------------------------------|---------------------------------|------------------------------|


E|-----2-----------3-------2----|-5---5---5---3---3---5---5----|-----2---2---3---3---2---2---0---|
B|-----3-----------3-------3----|-5---5---5---3---3---5---5----|-----3---3---3---3---3---3---3---|
G|-----2-------------------2----|-2---2---2---0---0---2---2----|-----2---2---2---2---2---2---2---|
D|-0-------0---0-------0--------|-0---7---0---0---0---7---7----|-----0---0---0---0---0---0---0---|
A|------------------------------|-0---0---0-----------0---0----|---------------------------------|
E|------------------------------|------------------------------|---------------------------------|


E|-5---5---5---3---3---5---5----|-----2-----------3-------2----|--------|--------|
B|-5---5---5---3---3---5---5----|-----3-----------3-------3----|--------|--------|
G|-2---2---2---0---0---2---2----|-----2-------------------2----|--------|--------|
D|-7---7---7---0---0---7--------|-0-------0---0-------0--------|--------|--------|
A|-0---0---0-----------0--------|------------------------------|--------|--------|
E|------------------------------|------------------------------|--------|--------|


E|--------|--------|--------|--------|--------|--------|--------|--------|--------|
B|--------|--------|--------|--------|--------|--------|--------|--------|--------|
G|--------|--------|--------|--------|--------|--------|--------|--------|--------|
D|--------|--------|--------|--------|--------|--------|--------|--------|--------|
A|--------|--------|--------|--------|--------|--------|--------|--------|--------|
E|--------|--------|--------|--------|--------|--------|--------|--------|--------|


E|--------|--------|--------|--------|--------|--------|--------|--------|--------|
B|--------|--------|--------|--------|--------|--------|--------|--------|--------|
G|--------|--------|--------|--------|--------|--------|--------|--------|--------|
D|--------|--------|--------|--------|--------|--------|--------|--------|--------|
A|--------|--------|--------|--------|--------|--------|--------|--------|--------|
E|--------|--------|--------|--------|--------|--------|--------|--------|--------|


E|--------|--------|--------|--------|--------|--------|--------|--------|--------|
B|--------|--------|--------|--------|--------|--------|--------|--------|--------|
G|--------|--------|--------|--------|--------|--------|--------|--------|--------|
D|--------|--------|--------|--------|--------|--------|--------|--------|--------|
A|--------|--------|--------|--------|--------|--------|--------|--------|--------|
E|--------|--------|--------|--------|--------|--------|--------|--------|--------|


E|--------|--------|--------|--------|--------|--------|----------------|----------------|
B|--------|--------|--------|--------|--------|--------|----------------|--------14--12--|
G|--------|--------|--------|--------|--------|--------|----------------|----------------|
D|--------|--------|--------|--------|--------|--------|----------------|--------14--12--|
A|--------|--------|--------|--------|--------|--------|-0------12--12--|----------------|
E|--------|--------|--------|--------|--------|--------|----------------|----------------|


E|---------------------------|------------------------------|----------------|------------------------|
B|-14--14--14--12--12--------|------------------------------|----------------|------------------------|
G|---------------------------|------0-----------------------|----------------|------------------------|
D|-14--14--14--12--12--------|----------9-------------------|----------------|-9----------------------|
A|----------------------2----|-9------------9---9---9---7---|-0------7---9---|-----------7----0---0---|
E|---------------------------|------------------------------|----------------|------------------------|


E|--------|---------------------|--------|--------|--------|--------|--------|--------|
B|--------|---------------------|--------|--------|--------|--------|--------|--------|
G|--------|---------------------|--------|--------|--------|--------|--------|--------|
D|--------|-------9---9----7----|--------|--------|--------|--------|--------|--------|
A|-0------|---------------------|--------|--------|--------|--------|--------|--------|
E|--------|---------------------|--------|--------|--------|--------|--------|--------|









Track 3: Bass
Back to top
G|--------|--------|--------|-----------------------|--------|--------------------|
D|--------|--------|--------|-----------------------|--------|--------------------|
A|--------|--------|--------|-----------------------|--------|--------------------|
E|--------|--------|--------|-4--5----5-----5-------|--------|-3--5----5-----5----|


G|--------|-----------------------|--------|--------------------|-------------|------------------------|
D|--------|-----------------------|--------|-5--7----7----------|-------------|------------------------|
A|--------|-----------------------|--------|--------------------|-------------|------------------------|
E|--------|-4--5----5-----5-------|--------|---------------17---|--------17---|-5-----3---3---5---5----|


G|------------------------------|------------------------|------------------------------|
D|------------------------------|------------------------|------------------------------|
A|-----5---5-------7------------|------------------------|-----5---5-------7------------|
E|-------------0--------3---4---|-5-----3---3---5---5----|-------------0--------3---4---|


G|------------------------|------------------------------|------------------------|
D|------------------------|------------------------------|------------------------|
A|------------------------|-----5---5-------7------------|------------------------|
E|-5-----3---3---5---5----|-------------0--------3---4---|-5-----3---3---5---5----|


G|------------------------------|------------------------|------------------------------|
D|------------------------------|------------------------|------------------------------|
A|-----5---5-------7------------|------------------------|-----5---5-------7------------|
E|-------------0--------3---4---|-5-----3---3---5---5----|-------------0--------3---4---|


G|------------------------|------------------------------|------------------------|
D|------------------------|------------------------------|------------------------|
A|------------------------|-----5---5-------7------------|------------------------|
E|-5-----3---3---5---5----|-------------0--------3---4---|-5-----3---3---5---5----|


G|------------------------------|------------------------|------------------------------|
D|------------------------------|------------------------|------------------------------|
A|-----5---5-------7------------|------------------------|-----5---5-------7------------|
E|-------------0--------3---4---|-5-----3---3---5---5----|-------------0--------3---4---|


G|------------------------|------------------------------|---------------------------|
D|------------------------|------------------------------|---------------------------|
A|------------------------|-----5---5-------7------------|---------------------------|
E|-5-----3---3---5---5----|-------------0--------3---3---|-5-----3---3---5---5-------|


G|------------------------------|---------------------------|------------------------------|
D|------------------------------|---------------------------|------------------------------|
A|-----5---5-------7------------|---------------------------|-----5---5-------7------------|
E|-------------0--------3---3---|-5-----3---3---5---5-------|-------------0--------3---4---|


G|------------------------|------------------------------|---------------------------|
D|------------------------|------------------------------|---------------------------|
A|------------------------|-----5---5-------7------------|---------------------------|
E|-5-----3---3---5---5----|-------------0--------3---4---|-5-----3---3---5---5-------|


G|------------------------------|---------------------------|---------------------------------|
D|------------------------------|---------------------------|---------------------------------|
A|-----5---5-------7------------|---------------------------|-0---0---0---0---0-------0-------|
E|-------------0--------3---4---|-5-----3---3---5---5-------|---------------------------------|


G|---------------------------|------------------------------|---------------------------|
D|---------------------------|------------------------------|---------------------------|
A|---------------------------|-----5---5-------7------------|---------------------------|
E|-5-----3---3---5---5-------|-------------0--------3---4---|-5-----3---3---5---5-------|


G|------------------------------|---------------------------|------------------------------|
D|------------------------------|---------------------------|------------------------------|
A|-----5---5-------7------------|---------------------------|-----5---5-------7------------|
E|-------------0--------3---4---|-5-----3---3---5---5-------|-------------0--------3---4---|


G|---------------------------|------------------------------|------------------------|
D|---------------------------|------------------------------|------------------------|
A|---------------------------|-----5---5-------7------------|------------------------|
E|-5-----3---3---5---5-------|-------------0--------3---3---|-5-----3---3---5---5----|


G|------------------------------|------------------------|------------------------------|
D|------------------------------|------------------------|------------------------------|
A|-----5---5-------7------------|------------------------|-----5---5-------7------------|
E|-------------0--------3---4---|-5-----3---3---5---5----|-------------0--------3---4---|


G|------------------------|------------------------------|------------------------|
D|------------------------|------------------------------|------------------------|
A|------------------------|-----5---5-------7------------|------------------------|
E|-5-----3---3---5---5----|-------------0--------3---4---|-5-----3---3---5---5----|


G|------------------------------|------------------------|------------------------------|
D|------------------------------|------------------------|------------------------------|
A|-----5---5-------7------------|------------------------|-----5---5-------7------------|
E|-------------0--------3---4---|-5-----3---3---5---5----|-------------0--------3---4---|


G|------------------------|------------------------------|------------------------|
D|------------------------|------------------------------|------------------------|
A|------------------------|-----5---5-------7------------|------------------------|
E|-5-----3---3---5---5----|-------------0--------3---4---|-5-----3---3---5---5----|


G|--------|---------------------|--------|---------------------|--------|---------------------|
D|--------|---------------------|--------|---------------------|--------|---------------------|
A|--------|-0-------------0-----|--------|-0-------------0-----|--------|-5-----3---3---5-----|
E|-1------|-------3---3---------|-1------|-------3---3---------|-1------|---------------------|


G|--------|--------|---------------------|------------------------------|---------------------|
D|--------|--------|---------------------|------------------------------|---------------------|
A|--------|--------|-0-------------0-----|-----5---5-------7------------|-0-------------0-----|
E|-0------|-3------|-------3---3---------|-------------0--------3---4---|-------3---3---------|


G|------------------------------|---------------------|------------------------------|
D|------------------------------|---------------------|------------------------------|
A|-----5---5-------7------------|-0-------------0-----|-----5---5-------7------------|
E|-------------0--------3---4---|-------3---3---------|-------------0--------3---4---|


G|---------------------|------------------------------|---------------------|------------------------------|
D|---------------------|------------------------------|---------------------|------------------------------|
A|-0-------------0-----|-----5---5-------7------------|-0-------------0-----|-----5---5-------7------------|
E|-------3---3---------|-------------0--------3---4---|-------3---3---------|-------------0--------3---4---|


G|---------------------|------------------------------|---------------------|------------------------------|
D|---------------------|------------------------------|---------------------|------------------------------|
A|-0-------------0-----|-----5---5-------7------------|-0-------------0-----|-----5---5-------7------------|
E|-------3---3---------|-------------0--------3---4---|-------3---3---------|-------------0--------3---4---|


G|---------------------|------------------------------|---------------------------------|
D|---------------------|------------------------------|---------------------------------|
A|-0-------------0-----|-----5---5-------7------------|---------------------------------|
E|-------3---3---------|-------------0--------3---4---|-0---0---0---0-------0---0-------|


G|--------|---------------------------------|--------|---------------------------------|
D|--------|---------------------------------|--------|---------------------------------|
A|--------|---------------------------------|--------|---------------------------------|
E|--------|-0---0---0---0-------0---0-------|--------|-0---0---0-----------0---0-------|


G|--------|---------------------------------|-------------|--------|--------|-------------|
D|--------|---------------------------------|-------------|--------|--------|-------------|
A|--------|---------------------------------|-------------|--------|--------|-------------|
E|--------|-0---0---0-----------0---0-------|------3------|-3------|--------|--------14---|


G|-------------|--------|--------------------|--------|--------------------|-------------|
D|-------------|--------|-5--7----7-----7----|--------|-5--7----7-----7----|--------7----|
A|-12----------|--------|--------------------|--------|--------------------|-------------|
E|--------17---|--------|--------------------|--------|--------------------|-------------|


G|---------------------|------------------------------|---------------------|------------------------------|
D|---------------------|------------------------------|---------------------|------------------------------|
A|-0-------------0-----|-----5---5-------7------------|-0-------------0-----|-----5---5-------7------------|
E|-------3---3---------|-------------0--------3---4---|-------3---3---------|-------------0--------3---4---|


G|---------------------|-----2---2---2---0---2---2----|---------------------|------------------------------|
D|---------------------|------------------------------|---------------------|------------------------------|
A|-0-------------0-----|-0----------------------------|-0-------------0-----|-----5---5-------7------------|
E|-------3---3---------|------------------------------|-------3---3---------|-------------0--------3---4---|


G|------------------------|-----2---2--2--2---0---2---2----|---------------------------|
D|------------------------|--------------------------------|---------------------------|
A|-0-------------0---0----|-0------------------------------|-0----0-----------0--------|
E|-------3---3------------|--------------------------------|----------3---3------------|


G|---------------------|---------------------|---------------------------|---------------------|
D|---------------------|---------------------|---------------------------|---------------------|
A|---------------------|-0-------------0-----|---------------------------|-0-------------0-----|
E|-------0-----3---3---|-------3---3---------|----------0---0----3---4---|-------3---3---------|


G|------------------------------|---------------------|------------------------------|
D|------------------------------|---------------------|------------------------------|
A|-----5---5-------7------------|-0-------------0-----|-----5---5-------7------------|
E|-------------0--------3---4---|-------3---3---------|-------------0--------3---4---|


G|---------------------|------------------------------|---------------------|-2---2--2--2--2--2--2--0---2--0--2----|
D|---------------------|------------------------------|---------------------|--------------------------------------|
A|-0-------------0-----|-----5---5-------7------------|-0-------------0-----|--------------------------------------|
E|-------3---3---------|-------------0--------3---4---|-------3---3---------|--------------------------------------|


G|---------------------|------------------------------|---------------------|------------------------------|
D|---------------------|------------------------------|---------------------|------------------------------|
A|-0-------------0-----|-----5---5-------7------------|-0-------------0-----|-----5---5-------7------------|
E|-------3---3---------|-------------0--------3---4---|-------3---3---------|-------------0--------3---4---|


G|---------------------|------------------------------|---------------------|------------------------------|
D|---------------------|------------------------------|---------------------|------------------------------|
A|-0-------------0-----|-----5---5-------7------------|-0-------------0-----|-----5---5-------7------------|
E|-------3---3---------|-------------0--------3---4---|-------3---3---------|-------------0--------3---4---|


G|---------------------|------------------------------|
D|---------------------|------------------------------|
A|-0-------------0-----|-----5---5-------7------------|
E|-------3---3---------|-------------0--------3---4---|









Track 4: Drums
Back to top
C|-37---37---37---37---|--------|--------|-42--42--42--42--42--42--42--42--|-42--42--42--42--42--42--42--42--|
C|---------------------|--------|--------|---------------------------------|---------------------------------|
C|---------------------|--------|--------|---------------------------------|---------------------------------|
C|---------------------|--------|--------|---------------------------------|---------------------------------|
C|---------------------|--------|--------|---------------------------------|---------------------------------|
C|---------------------|--------|--------|---------------------------------|---------------------------------|


C|-42--42--42--42--42--42--42--42--|-42--42--42--42--42--42--42--42-35-38-|-35--42--42--42--42--42--42--42--|
C|---------------------------------|--------------------------------------|-42------38--------------38------|
C|---------------------------------|--------------------------------------|-38------------------------------|
C|---------------------------------|--------------------------------------|---------------------------------|
C|---------------------------------|--------------------------------------|---------------------------------|
C|---------------------------------|--------------------------------------|---------------------------------|


C|-42--42--42--42--42--42--38--42--|-42--42--42--42--42--42--42--42--|-38-42-42-35-42-42-424242-424242-424242-424242-4242-42424242-|
C|---------38--------------42------|---------38--------------38------|-42-------42-------38-----35-----38--------------------------|
C|---------------------------------|---------------------------------|-------------------------------------------------------------|
C|---------------------------------|---------------------------------|-------------------------------------------------------------|
C|---------------------------------|---------------------------------|-------------------------------------------------------------|
C|---------------------------------|---------------------------------|-------------------------------------------------------------|


C|-35--42-42-42--42-42-35--35-42-42-42-42-42-|-35--42-42-42--42-42-35--35-42-42-42-42-42-|
C|-42--42----42--42----42--42----38----42----|-42--42----42--42----42--42----38----42----|
C|-49--------38--------42--42----42----------|-42--------38--------42--42----42----------|
C|-------------------------------------------|-------------------------------------------|
C|-------------------------------------------|-------------------------------------------|
C|-------------------------------------------|-------------------------------------------|


C|-35--42-42-42--42-42-35--35-42-42-42-42-42-|-35--42-42-38--42-42-35--42-42-42-42-42-42-|
C|-42--42----42--42----42--42----42----42----|-42--42----42--42----42--35----42----42----|
C|-42--------38--------42--42----38----------|-42--------42--------42--42----38----------|
C|-------------------------------------------|-------------------------------------------|
C|-------------------------------------------|-------------------------------------------|
C|-------------------------------------------|-------------------------------------------|


C|-35--42-42-42--42-42-35--35-42-42-42-42-42-|-35--42-42-42--42-42-42--35-42-42-42-42-42-|
C|-42--42----38--42----42--42----42----42----|-42--42----42--42----35--42----42----42----|
C|-42--------42--------42--42----38----------|-42--------38--------42--42----38----------|
C|-------------------------------------------|-------------------------------------------|
C|-------------------------------------------|-------------------------------------------|
C|-------------------------------------------|-------------------------------------------|


C|-35--42-42-42--42-42-35--35-42-42-42-42-42-|-35--42-42-42--42-42-42--42-42-42-42-42-42-|
C|-42--42----42--42----42--42----42----42----|-42--42----42--42----38--38-38-38-38-38----|
C|-42--------38--------42--42----38----------|-42--------38------------------------------|
C|-------------------------------------------|-------------------------------------------|
C|-------------------------------------------|-------------------------------------------|
C|-------------------------------------------|-------------------------------------------|


C|-42--42--42--42--35--35--42--42--|-35--42--42--42--35--35--38--42--|-42--42--42--42--35--35--42--42--|
C|-35--42--42------42--42--38------|-42--42--42--42--42--42--42--42--|-35--42--42------42--42--38------|
C|-42------38------42--42----------|-42------38------42--42--42------|-42------38------42--42----------|
C|---------------------------------|---------------------------------|---------------------------------|
C|---------------------------------|---------------------------------|---------------------------------|
C|---------------------------------|---------------------------------|---------------------------------|


C|-35--42--42--42--35--35--38--42--|-35--42--42--42--42--35--42--42--|-42--42--42--42--35--42--42--42--|
C|-42--42--42--42--42--42--42--42--|-42--42--42------35--42--38------|-35--42--42--42--42--35--42--42--|
C|-42------38------42--42--42------|-42------38------42--42----------|-42------38------42--42--38------|
C|---------------------------------|---------------------------------|---------------------------------|
C|---------------------------------|---------------------------------|---------------------------------|
C|---------------------------------|---------------------------------|---------------------------------|


C|-35--42--42--42--35--35--42--42--|-35--42--42--42--42-38-42-38-42--42--|-35--42-42-42--42-42-35--35-42-38-42-42-42-|
C|-42--42--42------42--42--38------|-42--42--38--42--38----38----38--38--|-42--42----42--42----42--42----42----42----|
C|-42------38------42--42----------|-42------42--------------------------|-42--------38--------42--42----42----------|
C|---------------------------------|-------------------------------------|-------------------------------------------|
C|---------------------------------|-------------------------------------|-------------------------------------------|
C|---------------------------------|-------------------------------------|-------------------------------------------|


C|-35--42-42-42--42-42-35--35-42-42-42-42-42-|-35--42-42-38--42-42-35--35-42-42-42-42-42-|
C|-42--42----42--42----42--42----42----42----|-42--42----42--42----42--42----42----42----|
C|-42--------38--------42--42----38----------|-42--------42--------42--42----38----------|
C|-------------------------------------------|-------------------------------------------|
C|-------------------------------------------|-------------------------------------------|
C|-------------------------------------------|-------------------------------------------|


C|-35--42-42-42--35-42-42--42-42-35-42-42-42-|-35--42--42--42--35--35--42--42--|-35--42--42--42--35--35--38--42--|
C|-42--42----42--42----42--42----42----42----|-42--42--38------42--42--38------|-42--42--42--42--42--42--42--42--|
C|-42--------38--42--------38----42----------|-42------42------42--42----------|-42------38------42--42--42------|
C|-------------------------------38----------|---------------------------------|---------------------------------|
C|-------------------------------------------|---------------------------------|---------------------------------|
C|-------------------------------------------|---------------------------------|---------------------------------|


C|-42--42--42--42--42--35--42--42--|-35--42--42--42--35--35--42--42--|-35--42--42--42--42--35--42--42--|
C|-35--42--42------35--42--38------|-42--42--38--42--42--42--42--42--|-42--42--42------35--42--38------|
C|-42------38------42--42----------|-42------42------42--42--38------|-42------38------42--42----------|
C|---------------------------------|---------------------------------|---------------------------------|
C|---------------------------------|---------------------------------|---------------------------------|
C|---------------------------------|---------------------------------|---------------------------------|


C|-35--42--42--42--35--35--42--42--|-42--42--42--42--35--42--38--42--|-35--35--35--35--42--35-35-42--42--|
C|-42--42--42--42--42--42--38--42--|-35--42--42------42--35--42------|-38--42--38--42------42----38------|
C|-42------38------42--42--42------|-42------38------42--42----------|-42--38--42--38--------------------|
C|---------------------------------|---------------------------------|-----------------------------------|
C|---------------------------------|---------------------------------|-----------------------------------|
C|---------------------------------|---------------------------------|-----------------------------------|


C|-35--42--38--42--35--35--42--42--|-42--42--42--42--42--35--42--42--|-35--42--42--42--35--35--42--42--|
C|-49------42------42--42--38------|-35------38------35--42--38------|-42------38------42--42--38------|
C|---------------------------------|---------------------------------|---------------------------------|
C|---------------------------------|---------------------------------|---------------------------------|
C|---------------------------------|---------------------------------|---------------------------------|
C|---------------------------------|---------------------------------|---------------------------------|


C|-35--42--42--42--35--35-35-42--42--|-35--42--42--42--35--35--38--42--|-35--42--42--42--35--35--38--42--|
C|-42------38------42--42----38------|-42------38------42--42--42------|-42------38------42--42--42------|
C|-----------------------------------|---------------------------------|---------------------------------|
C|-----------------------------------|---------------------------------|---------------------------------|
C|-----------------------------------|---------------------------------|---------------------------------|
C|-----------------------------------|---------------------------------|---------------------------------|


C|-35--42--42--42--42--42--38--42--|-42--46--35--35--46--35--46-42-----|-35--42--42--42--35--35--42--42--|
C|-42------38------35--35--42------|-35--38--42--42--38--42--38--------|-42--42--42------42--42--38------|
C|---------------------------------|-----------------------------------|-42------38------42--42----------|
C|---------------------------------|-----------------------------------|---------------------------------|
C|---------------------------------|-----------------------------------|---------------------------------|
C|---------------------------------|-----------------------------------|---------------------------------|


C|-35--42--42--42--42--35--42--42--|-35--42--42--42--35--42--42--42--|-35--42--42--42--35--35--42--42--|
C|-42--42--42--42--42--42--38--42--|-42--42--42------42--35--38------|-42--42--38--42--42--42--42--42--|
C|-42------38------35--42--42------|-42------38------42--42----------|-42------42------42--42--38------|
C|---------------------------------|---------------------------------|---------------------------------|
C|---------------------------------|---------------------------------|---------------------------------|
C|---------------------------------|---------------------------------|---------------------------------|


C|-35--42--42--42--35--42--38--42--|-35--42--42--42--35--35--42--42--|-35--42--42--42--35--35--42--42--|
C|-42--42--42------42--35--42------|-42--42--42--42--42--42--42--42--|-42--42--42------42--42--38------|
C|-42------38------42--42----------|-42------38------42--42--38------|-42------38------42--42----------|
C|---------------------------------|---------------------------------|---------------------------------|
C|---------------------------------|---------------------------------|---------------------------------|
C|---------------------------------|---------------------------------|---------------------------------|


C|-35-38-42-38-42-38-42-38-38-38-42-38-42-38-42-38-|-35--42--42--42--35--35--42--42--|
C|-42----38----38----38----42----38----38----38----|-42------38------42--42--38------|
C|-38----------------------------------------------|---------------------------------|
C|-------------------------------------------------|---------------------------------|
C|-------------------------------------------------|---------------------------------|
C|-------------------------------------------------|---------------------------------|


C|-35--42--38--42--35--42--38--42--|-42--42--42--42--35--35--38--42--|-35--35--42--35--35--35--42--42--|
C|-42------42------42--35--42------|-35------38------42--42--42------|-42--42--38--42--42--42--38------|
C|---------------------------------|---------------------------------|---------------------------------|
C|---------------------------------|---------------------------------|---------------------------------|
C|---------------------------------|---------------------------------|---------------------------------|
C|---------------------------------|---------------------------------|---------------------------------|


C|-35--35--38--42--35--35--42--42--|-35--35--42--42--35--35--42--42--|-35--35--42--42--35--35--38--42--|
C|-42--42--42------42--42--38------|-42--42--38------42--42--38------|-42--42--38------42--42--42------|
C|---------------------------------|---------------------------------|---------------------------------|
C|---------------------------------|---------------------------------|---------------------------------|
C|---------------------------------|---------------------------------|---------------------------------|
C|---------------------------------|---------------------------------|---------------------------------|


C|-35--35--42--42--35--35--42--42--|-35--42--42--35--35--42--42--42--|-35----------35--35---38---|
C|-42--42--38------42--42--38------|-49------38--42--42------38------|-42------------------------|
C|---------------------------------|---------------------------------|---------------------------|
C|---------------------------------|---------------------------------|---------------------------|
C|---------------------------------|---------------------------------|---------------------------|
C|---------------------------------|---------------------------------|---------------------------|


C|-35--42--38--35--42--42--42--42--|-35----------35--35---38---|-35--42--42--42--38-38-38-38-38-38-38-38-|
C|-42------42--42--35------38------|-42------------------------|-42------38------------------------------|
C|---------------------------------|---------------------------|-----------------------------------------|
C|---------------------------------|---------------------------|-----------------------------------------|
C|---------------------------------|---------------------------|-----------------------------------------|
C|---------------------------------|---------------------------|-----------------------------------------|


C|-35-42-42-42-42-42-42-42-42-42-35-42-38-42-42-42-|-35-42-42-42-42-42-42-42-35-42-35-42-42-42-42-42-|
C|-42----42----42----42----35----42----42----42----|-42----42----38----42----42----42----42----42----|
C|-49----------38----------42----42----42----------|-42----------42----------42----42----38----------|
C|-------------------------------------------------|-------------------------------------------------|
C|-------------------------------------------------|-------------------------------------------------|
C|-------------------------------------------------|-------------------------------------------------|


C|-35-42-42-42-42-42-42-42-42-42-35-42-38-42-42-42-|-35-42-42-42-42-42-42-42-35-42-35-42-42-42-42-42-|
C|-42----42----42----42----35----42----42----42----|-42----42----42----42----42----42----38----42----|
C|-42----------38----------42----42----42----------|-42----------38----------42----42----42----------|
C|-------------------------------------------------|-------------------------------------------------|
C|-------------------------------------------------|-------------------------------------------------|
C|-------------------------------------------------|-------------------------------------------------|


C|-35-42-42-42-42-42-42-42-35-42-35-42-38-42-42-42-|-35-42-42-42-42-42-42-42-35-42-42-42-38-42-42-42-|
C|-42----42----38----42----42----42----42----42----|-42----42----38----42----42----35----42----42----|
C|-42----------42----------42----42----42----------|-42----------42----------42----42----42----------|
C|-------------------------------------------------|-------------------------------------------------|
C|-------------------------------------------------|-------------------------------------------------|
C|-------------------------------------------------|-------------------------------------------------|


C|-35-42-42-42-42-42-42-42-35-42-35-42-42-42-42-42-|-35-42-42-42-42-42-42-42-35-42-42-42-42-42-42-42-|
C|-42----42----38----42----42----42----42----42----|-42----42----42----42----42----35----42----42----|
C|-42----------42----------42----42----38----------|-42----------38----------42----42----38----------|
C|-------------------------------------------------|-------------------------------------------------|
C|-------------------------------------------------|-------------------------------------------------|
C|-------------------------------------------------|-------------------------------------------------|


C|-35-42-42-42-42-42-42-42-35-42-35-42-42-42-42-42-|-35-42-42-42-42-42-42-42-35-42-35-42-42-42-42-42-|
C|-42----42----38----42----42----42----42----42----|-42----42----42----42----42----42----42----42----|
C|-49----------42----------42----42----38----------|-42----------38----------42----42----38----------|
C|-------------------------------------------------|-------------------------------------------------|
C|-------------------------------------------------|-------------------------------------------------|
C|-------------------------------------------------|-------------------------------------------------|


C|-35-42-42-42-42-42-42-42-35-42-35-42-42-42-42-42-|-42-42-42-42-42-42-42-42-42-42-35-42-42-42-42-42-|
C|-42----42----38----42----42----42----42----42----|-35----42----42----42----42----42----42----42----|
C|-42----------42----------42----42----38----------|-42----------38----------35----42----38----------|
C|-------------------------------------------------|-------------------------------------------------|
C|-------------------------------------------------|-------------------------------------------------|
C|-------------------------------------------------|-------------------------------------------------|


C|-35-42-42-42-42-42-42-42-35-42-35-42-42-42-42-42-|-35-42-42-42-42-42-42-42-35-42-35-42-38-42-42-42-|
C|-42----42----42----42----42----42----38----42----|-42----42----42----42----42----42----42----42----|
C|-42----------38----------42----42----42----------|-42----------38----------42----42----42----------|
C|-------------------------------------------------|-------------------------------------------------|
C|-------------------------------------------------|-------------------------------------------------|
C|-------------------------------------------------|-------------------------------------------------|


C|-42-42-42-42-42-42-42-42-35-42-35-42-42-42-42-42-|-35-42-42-42-42-42-42-42-42-42-35-42-42-42-42-42-|
C|-42----42----42----42----42----42----38----42----|-42----38----35----35----38----42----38----------|
C|-35----------38----------42----42----42----------|-42----------------------------------------------|
C|-------------------------------------------------|-------------------------------------------------|
C|-------------------------------------------------|-------------------------------------------------|
C|-------------------------------------------------|-------------------------------------------------|


C|-35--41--42--35--35--41--42--42--|-35--42--42--35--42--41--42--41--|-42--41--42--35--42--41--42--35--|
C|-42--42--42--42--41--42--42--35--|-41--42--42--41--35--42--48--35--|-35--42--48--41--35--42--42--41--|
C|-41--42--48--42--42--42--48--42--|-42--41--48--42--41--42--42--42--|-42--42--42--42--42--42--48--42--|
C|-42----------41--42----------41--|-42----------42--42----------42--|-41----------42--41----------42--|
C|---------------------------------|---------------------------------|---------------------------------|
C|---------------------------------|---------------------------------|---------------------------------|


C|-35--42--48--35--35--42--42--35--|-35--41--42--42--35--41--48--35--|-35--42--48--35--35--41--48--35--|
C|-42--41--42--42--41--41--48--41--|-42--42--48--35--41--42--42--42--|-41--42--42--41--42--42--42--41--|
C|-42--42--42--42--42--42--42--42--|-42--42--42--42--42--42--42--42--|-42--41--42--42--41--42--42--42--|
C|-41----------41--42----------42--|-41----------41--42----------41--|-42----------42--42----------42--|
C|---------------------------------|---------------------------------|---------------------------------|
C|---------------------------------|---------------------------------|---------------------------------|


C|-35--41--42--42--35--42--42--35-48-48-|-41--42--35--42--42-42-42-42-42-42-42-42-42-42-42-42-|
C|-42--42--42--35--42--42--48--42-------|-35------42---------------------38-------------------|
C|-42--42--48--41--42--41--42--48-------|-42------49------------------------------------------|
C|-41----------42--41----------42-------|-42------38------------------------------------------|
C|--------------------------------------|-----------------------------------------------------|
C|--------------------------------------|-----------------------------------------------------|


C|-4242-42424242-424242-424242-424242-424238-424242-424242-|-35--42-42-42--42-42-42--42-42-42-42-42-42-|
C|---------------38------------48-----38--42-38-----38-----|-----------38------------------38----------|
C|---------------------------------------------------------|-42----------------------------------------|
C|---------------------------------------------------------|-------------------------------------------|
C|---------------------------------------------------------|-------------------------------------------|
C|---------------------------------------------------------|-------------------------------------------|


C|-42--42-42-38--42-42-42--42-42-42-42-42-42-|-35--35-42-42--42-42-42--42-42-42-42-42-42-|
C|-----------42------------------38----------|-42--42----38------------------38----------|
C|-------------------------------------------|-------------------------------------------|
C|-------------------------------------------|-------------------------------------------|
C|-------------------------------------------|-------------------------------------------|
C|-------------------------------------------|-------------------------------------------|


C|-42--42-42-42--42-42-42--42-42-38-42-42-42-|-35--42-42-38--42-42-42--42-42-38-42-42-42-|
C|-----------38------------------42----35----|-42--------42------------------42----------|
C|-------------------------------------------|-------------------------------------------|
C|-------------------------------------------|-------------------------------------------|
C|-------------------------------------------|-------------------------------------------|
C|-------------------------------------------|-------------------------------------------|


C|-42--42-42-38--42-42-42--42-42-42-42-42-42-|-35--42-42-42--35-42-38--35-42-42-42-42-42-|
C|-----------42------------------38----------|-42--38----38--42----42--42----38----38----|
C|-------------------------------------------|-------------------------------------------|
C|-------------------------------------------|-------------------------------------------|
C|-------------------------------------------|-------------------------------------------|
C|-------------------------------------------|-------------------------------------------|


C|-38--38-42-38--42-42-45--45-42-41-42-42-42-|-35--42-42-38--42-42-35--35-42-42-42-42-42-|
C|-42--42----42--48----42--42----42----38----|-49--42----42--42----42--42----42----42----|
C|-----------48--38----38--------38----41----|-42--------42--------42--------38----------|
C|-------------------------38----------------|-------------------------------------------|
C|-------------------------------------------|-------------------------------------------|
C|-------------------------------------------|-------------------------------------------|


C|-35--35-42-42--42-42-35--35-42-42-42-42-42-|-35--35-42-42--42-42-35--35-42-42-42-42-42-|
C|-42--42----38--42----42--------38----42----|-42--42----38--42----42--42----42----42----|
C|-42--42----42--------42--42----42----------|-42--42----42--------42--42----38----------|
C|-------------------------42----------------|-------------------------------------------|
C|-------------------------------------------|-------------------------------------------|
C|-------------------------------------------|-------------------------------------------|


C|-35--35-42-38--42-42-42--35-42-42-42-42-42-|-35--42-42-42--42-42-35--35-42-42-42-42-42-|
C|-42--42----42--42----42--42----42----42----|-42--42----38--42----42--42----42----42----|
C|-42--42----42--------35--42----38----------|-42--35----42--------42--------38----------|
C|-------------------------------------------|-------------------------------------------|
C|-------------------------------------------|-------------------------------------------|
C|-------------------------------------------|-------------------------------------------|


C|-35--42-42-35--35-42-42--35-42-42-42-42-42-|-35--42-42-42--42-42-35--35-42-42-42-42-42-|
C|-42--42----42--42----42--42----42----42----|-42--42----42--42----42--42----42----42----|
C|-42--38----42--42----38--42----38----------|-42--------38--------42--42----38----------|
C|-------------------------------------------|-------------------------------------------|
C|-------------------------------------------|-------------------------------------------|
C|-------------------------------------------|-------------------------------------------|


C|-35--42-42-42--42-42-35--35-42-42-42-42-42-|-35--42-42-42--42-42-35--42-42-42-42-42-42-|
C|-42--42----42--42----42--42----42----42----|-42--42----42--42----42--35----42----42----|
C|-42--------38--------42--42----38----------|-42--------38--------42--42----38----------|
C|-------------------------------------------|-------------------------------------------|
C|-------------------------------------------|-------------------------------------------|
C|-------------------------------------------|-------------------------------------------|


C|-35--35-42-42--42-42-35--35-42-42-42-42-42-|-35--42-42-35--49-42-35--42-42-35-42-35-42-|
C|-42--42----42--42----42--42----42----42----|-----49----42--42----42--49----42----49----|
C|-42--42----38--------42--42----38----------|-42--38--------38--------38----------42----|
C|-------------------------------------------|-------------------------------------------|
C|-------------------------------------------|-------------------------------------------|
C|-------------------------------------------|-------------------------------------------|


C|-42--42-42-42--42-42-35--35-42-42-42-42-42-|-35--49-42-35--49-42-35--49-42-35-42-35-42-|
C|-----42----38--42----42--42----42----42----|-42--42----42--38----42--42----42----49----|
C|-----------42--------42--42----38----------|-----38--------42--------------------42----|
C|-------------------------------------------|-------------------------38----------------|
C|-------------------------------------------|-------------------------------------------|
C|-------------------------------------------|-------------------------------------------|


C|-42--42-42-42--42-42-35--35-42-42-42-42-42-|-35--42-42-35--42-42-35--38-42-42-42-42-42-|
C|-----42----42--42----42--42----42----42----|-42--42----42--42----42--42----35----42----|
C|-----------38--------42--42----38----------|-42--38----42--38--------42----42----------|
C|-------------------------------------------|-------------------------------------------|
C|-------------------------------------------|-------------------------------------------|
C|-------------------------------------------|-------------------------------------------|


C|-35--42-42-42--42-42-35--35-42-42-42-42-42-|-35--42-42-42--42-42-35--35-42-42-42-42-42-|
C|-42--42----42--42----42--42----38----42----|-42--42----42--42----42--42----42----42----|
C|-42--------38--------42--42----42----------|-42--------38--------42--42----38----------|
C|-------------------------------------------|-------------------------------------------|
C|-------------------------------------------|-------------------------------------------|
C|-------------------------------------------|-------------------------------------------|


C|-35-42-42-42-42--42-42-35-424235424242424242-42424242|-3542-42424242424242-42424242-3542-42354242-424242-42424242|
C|-42----42----42--42----42-------------38--42-42------|-42-----42------38-----42--42-42-----42--42-42--42-42--38--|
C|-42----42----42--42----42-----42------42-----42------|-42-----42------42-----42-----42-----42-----38-------------|
C|-42----------38---------------42------42-------------|----------------42------------42-----42-----42-------------|
C|-----------------------------------------------------|-----------------------------------------------------------|
C|-----------------------------------------------------|-----------------------------------------------------------|


C|-354238-424242-42423842424242-424245-424245-424242-424241-|-35--42-42-42--42-42-35--42-42-42-42-42-42-|
C|-42--42-42--38-38------42--38-42--42-42--42-41--41-41--42-|-49--42----42--42----42--35----42----42----|
C|-42-----38--42-42------38--42--------45--42-42--42-42--42-|-42--------38--------42--42----38----------|
C|-38---------------------------45--------------------------|-------------------------------------------|
C|----------------------------------------------------------|-------------------------------------------|
C|----------------------------------------------------------|-------------------------------------------|


C|-35--35-42-42--42-42-35--35-42-42-42-42-42-|-38--42-42-35--49-42-35--35-42-42-42-35-42-|
C|-42--42----42--42----42--42----38----42----|-49--35----42--38----42--42----49----42----|
C|-42--42----38--------42--42----42----------|-42------------42--------------38----------|
C|-------------------------------------------|-38----------------------------------------|
C|-------------------------------------------|-------------------------------------------|
C|-------------------------------------------|-------------------------------------------|


C|-354238-424242-42423842424242-424245-424245-424242-424241-|-35--42-42-42--42-42-35--42-42-42-42-42-42-|
C|-42--42-42--38-38------42--38-42--42-42--42-41--41-41--42-|-49--42----42--42----42--35----42----42----|
C|-42-----38--42-42------38--42--------45--42-42--42-42--42-|-42--------38--------42--42----38----------|
C|-38---------------------------45--------------------------|-------------------------------------------|
C|----------------------------------------------------------|-------------------------------------------|
C|----------------------------------------------------------|-------------------------------------------|


C|-35--35-42-42--42-42-35--35-42-42-42-42-42-|-38--42-42-35--49-42-35--35-42-42-42-35-42-|
C|-42--42----42--42----42--42----38----42----|-49--35----42--38----42--42----49----42----|
C|-42--42----38--------42--42----42----------|-42------------42--------------38----------|
C|-------------------------------------------|-38----------------------------------------|
C|-------------------------------------------|-------------------------------------------|
C|-------------------------------------------|-------------------------------------------|


C|-35--49-42-35--35-42-42--42-42-49-42-42-42-|-42-42-42-42-38-----42-35-42-42-42-42-----42-|
C|-42--42----42--42----49--------42----------|-35----------51--------51----35----51--------|
C|-----38--------------38--35----38----------|-49----------42--------42----------38--------|
C|-------------------------------------------|---------------------------------------------|
C|-------------------------------------------|---------------------------------------------|
C|-------------------------------------------|---------------------------------------------|


C|-35-42-35-42-51-42-42-42-35-42-35-42-51---|-42-42-42-42-51-----42-35-42-35-42-38-----42-|
C|-42----42----42----------42----42----42---|-51----------42--------51----42----42--------|
C|-51----------38----------51----------38---|-35----------38--------42----------51--------|
C|------------------------------------------|---------------------------------------------|
C|------------------------------------------|---------------------------------------------|
C|------------------------------------------|---------------------------------------------|


C|-35-42-42-42-42-42-42-42-42-42-42-42-38---|
C|-42----35----38----------35----35----49---|
C|-51----------51----------51----------42---|
C|------------------------------------------|
C|------------------------------------------|
C|------------------------------------------|



← Back to top