Nightmarish Waltz

by Akira Yamaoka

Guitar Pro Tab  |  v4.06  |  Posted on April 1, 2007, 10:43 p.m. ← Back

Guitar Pro Tab Summary

Album

Silent Hill 4 OST

Song Author

unknown

Tabbed by

IZO

Instruments

1st → Piano Right
2nd → Keyboard
3rd → Piano Left
4th → Drums
5th → Strings

File Size

13 KB

Views

2,177






Tablature Sheet

Title: Nightmarish Waltz
Artist: Akira Yamaoka
Album: Silent Hill 4 OST
Author: 






Track 1: Piano Right
Back to top
E|--------|--------|--------|--------|--------|--------|--------|--------|--------|
B|--------|--------|--------|--------|--------|--------|--------|--------|--------|
G|--------|--------|--------|--------|--------|--------|--------|--------|--------|
D|--------|--------|--------|--------|--------|--------|--------|--------|--------|
A|--------|--------|--------|--------|--------|--------|--------|--------|--------|
E|--------|--------|--------|--------|--------|--------|--------|--------|--------|


E|--------|--------|--------|--------|--------|--------|--------|-------------0-----0---|
B|--------|--------|--------|--------|--------|--------|--------|-----------------------|
G|--------|--------|--------|--------|--------|--------|--------|---------2-------------|
D|--------|--------|--------|--------|--------|--------|--------|-----2-----------------|
A|--------|--------|--------|--------|--------|--------|--------|-0---------------------|
E|--------|--------|--------|--------|--------|--------|--------|-----------------------|


E|-------------0-----0---|---------------------------|---------------------------|
B|-----------------------|---------------------------|---------------------------|
G|---------2-------------|-------------1---------1---|-------------1----1--------|
D|-----2-----------------|---------5--------5--------|---------5------------5----|
A|-0---------------------|-----3---------------------|-----3---------------------|
E|-----------------------|-1-------------------------|-1-------------------------|


E|-------------0-----0---|-------------0-----0---|---------------------------|------------------------------|
B|-----------------------|-----------------------|---------------------------|------------------------------|
G|---------2-------------|---------2-------------|-------------1-----1-------|---------1-------1-------1----|
D|-----2-----------------|-----2-----------------|---------5-------------5---|-------------5-------5--------|
A|-0---------------------|-0---------------------|-----3---------------------|-----3------------------------|
E|-----------------------|-----------------------|-1-------------------------|-1----------------------------|


E|-------------0-----0---|-------------0-----0---|---------------------------|------------------------|
B|-----------------------|-----------------------|---------------------------|------------------------|
G|---------2-------------|---------2-------------|-------------1-----1-------|-------------1----------|
D|-----2-----------------|-----2-----------------|---------5-------------5---|-5----------------5-----|
A|-0---------------------|-0---------------------|-----3---------------------|---------3--------------|
E|-----------------------|-----------------------|-1-------------------------|-----1------------------|


E|-------------0-----0---|-0-------------------|---------------------------|------------------------|
B|-----------------------|----------5----------|---------------------------|------------------------|
G|---------2-------------|-----2----------2----|-------------1---------1---|-------------1----------|
D|-----2-----------------|---------------------|---------5--------5--------|---------5--------5-----|
A|-0---------------------|---------------------|-----3---------------------|-----3------------------|
E|-----------------------|---------------------|-1-------------------------|-1----------------------|


E|-------------|--------------------|------------------------|-----------------|-------------|
B|-8------8----|---------------8----|------------------------|-----------------|-8------8----|
G|-------------|-5------------------|------------------------|-----------------|-------------|
D|-------------|--------------------|-----3---6---5----3-----|-----------------|-------------|
A|-4-----------|-4---4---4----------|-3----------------------|-----------------|-4-----------|
E|-------------|--------------------|------------------------|-----------------|-------------|


E|--------------------|------------------------------|---------------------------|
B|---------------8----|------------------------------|---------------------------|
G|-5------------------|------------------------------|---------------------------|
D|--------------------|-----3---6---5----3---6---5---|-----3---6---5----3---5----|
A|-4---4---4----------|-3----------------------------|-3-------------------------|
E|--------------------|------------------------------|---------------------------|


E|-------------0-----0---|-------------0-----0---|---------------------------|---------------------------|
B|-----------------------|-----------------------|---------------------------|---------------------------|
G|---------2-------------|---------2-------------|-------------1---------1---|-------------1----1--------|
D|-----2-----------------|-----2-----------------|---------5--------5--------|---------5------------5----|
A|-0---------------------|-0---------------------|-----3---------------------|-----3---------------------|
E|-----------------------|-----------------------|-1-------------------------|-1-------------------------|


E|-------------0-----0---|-------------0-----0---|---------------------------|------------------------------|
B|-----------------------|-----------------------|---------------------------|------------------------------|
G|---------2-------------|---------2-------------|-------------1-----1-------|---------1-------1-------1----|
D|-----2-----------------|-----2-----------------|---------5-------------5---|-------------5-------5--------|
A|-0---------------------|-0---------------------|-----3---------------------|-----3------------------------|
E|-----------------------|-----------------------|-1-------------------------|-1----------------------------|


E|-------------0-----0---|-------------0-----0---|---------------------------|------------------------|
B|-----------------------|-----------------------|---------------------------|------------------------|
G|---------2-------------|---------2-------------|-------------1-----1-------|-------------1----------|
D|-----2-----------------|-----2-----------------|---------5-------------5---|-5----------------5-----|
A|-0---------------------|-0---------------------|-----3---------------------|---------3--------------|
E|-----------------------|-----------------------|-1-------------------------|-----1------------------|


E|-------------0-----0---|-0-------------------|---------------------------|------------------------|
B|-----------------------|----------5----------|---------------------------|------------------------|
G|---------2-------------|-----2----------2----|-------------1---------1---|-------------1----------|
D|-----2-----------------|---------------------|---------5--------5--------|---------5--------5-----|
A|-0---------------------|---------------------|-----3---------------------|-----3------------------|
E|-----------------------|---------------------|-1-------------------------|-1----------------------|


E|-------------|--------------------|------------------------|-----------------|-------------|
B|-8------8----|---------------8----|------------------------|-----------------|-8------8----|
G|-------------|-5------------------|------------------------|-----------------|-------------|
D|-------------|--------------------|-----3---6---5----3-----|-----------------|-------------|
A|-4-----------|-4---4---4----------|-3----------------------|-----------------|-4-----------|
E|-------------|--------------------|------------------------|-----------------|-------------|


E|--------------------|------------------------------|---------------------------|
B|---------------8----|------------------------------|---------------------------|
G|-5------------------|------------------------------|---------------------------|
D|--------------------|-----3---6---5----3---6---5---|-----3---6---5----3---5----|
A|-4---4---4----------|-3----------------------------|-3-------------------------|
E|--------------------|------------------------------|---------------------------|


E|-------------|-------------|
B|-------------|-------------|
G|-------------|-------------|
D|-------------|-------------|
A|-------------|-------------|
E|-------------|-------------|









Track 2: Piano Left
Back to top
E|-------------|-------------|-------------|-------------|-------------|-------------|
B|-------------|-------------|-------------|-------------|-------------|-------------|
G|-------------|-------------|-------------|-------------|-------------|-------------|
D|-------------|-------------|-------------|-------------|-------------|-------------|
A|-------------|-------------|-------------|-------------|-------------|-------------|
E|-------------|-------------|-------------|-------------|-------------|-------------|


E|-------------|-------------|-------------|-------------|-------------|-------------|
B|-------------|-------------|-------------|-------------|-------------|-------------|
G|-------------|-------------|-------------|-------------|-------------|-------------|
D|-------------|-------------|-------------|-------------|-------------|-------------|
A|-------------|-------------|-------------|-------------|-------------|-------------|
E|-------------|-------------|-------------|-------------|-------------|-------------|


E|-------------|-------------|-------------|-------------|-------------|-------------|
B|-------------|-------------|-------------|-------------|-------------|-------------|
G|-------------|-------------|-------------|-------------|-------------|-------------|
D|-------------|-------------|-------------|-------------|-------------|-------------|
A|-------------|-------------|-------------|-------------|-------------|-------------|
E|-------------|-------------|-------------|-------------|-------------|-------------|


E|-------------|-------------|-------------|-------------|-------------|-------------|
B|-------------|-------------|-------------|-------------|-------------|-------------|
G|-------------|-------------|-------------|-------------|-------------|-------------|
D|-------------|-------------|-------------|-------------|-------------|-------------|
A|-------------|-------------|-------------|-------------|-------------|-------------|
E|-------------|-------------|-------------|-------------|-------------|-------------|


E|-------------|-------------|-------------|-------------|-------------|-------------|
B|-------------|-------------|-------------|-------------|-------------|-------------|
G|-------------|-------------|-------------|-------------|-------------|-------------|
D|-------------|-------------|-------------|-------------|-------------|-------------|
A|-------------|-------------|-------------|-------------|-------------|-------------|
E|-------------|-------------|-------------|-------------|-------------|-------------|


E|-------------|-------------|--------|-------------|--------|-------------|--------|
B|-------------|-------------|--------|-------------|--------|-------------|--------|
G|-------------|-------------|--------|-------------|--------|-------------|--------|
D|-------------|-------------|--------|-------------|--------|-------------|--------|
A|-------------|-------------|-4------|-------------|-3------|-------3-----|-4------|
E|-------------|-------------|--------|-------------|--------|-------------|--------|


E|-------------|--------|-------------|-------------|-------------|-------------|-------------|
B|-------------|--------|-------------|-------------|-------------|-------------|-------------|
G|-------------|--------|-------------|-------------|-------------|-------------|-------------|
D|-------------|--------|-------------|-------------|-------------|-------------|-------------|
A|-------------|-3------|-------------|-------------|-------------|-------------|-------------|
E|-------------|--------|-------------|-------------|-------------|-------------|-------------|


E|-------------|-------------|-------------|-------------|-------------|-------------|
B|-------------|-------------|-------------|-------------|-------------|-------------|
G|-------------|-------------|-------------|-------------|-------------|-------------|
D|-------------|-------------|-------------|-------------|-------------|-------------|
A|-------------|-------------|-------------|-------------|-------------|-------------|
E|-------------|-------------|-------------|-------------|-------------|-------------|


E|-------------|-------------|-------------|-------------|-------------|-------------|
B|-------------|-------------|-------------|-------------|-------------|-------------|
G|-------------|-------------|-------------|-------------|-------------|-------------|
D|-------------|-------------|-------------|-------------|-------------|-------------|
A|-------------|-------------|-------------|-------------|-------------|-------------|
E|-------------|-------------|-------------|-------------|-------------|-------------|


E|--------|-------------|--------|-------------|--------|-------------|--------|-------------|
B|--------|-------------|--------|-------------|--------|-------------|--------|-------------|
G|--------|-------------|--------|-------------|--------|-------------|--------|-------------|
D|--------|-------------|--------|-------------|--------|-------------|--------|-------------|
A|-4------|-------------|-3------|-------3-----|-4------|-------------|-3------|-------------|
E|--------|-------------|--------|-------------|--------|-------------|--------|-------------|


E|-------------|-------------|
B|-------------|-------------|
G|-------------|-------------|
D|-------------|-------------|
A|-------------|-------------|
E|-------------|-------------|









Track 3: Keyboard
Back to top
E|--------|--------|--------|--------|--------|--------|--------|--------|--------|
B|--------|--------|--------|--------|--------|--------|--------|--------|--------|
G|--------|--------|--------|--------|--------|--------|--------|--------|--------|
D|--------|--------|--------|--------|--------|--------|--------|--------|--------|
A|--------|--------|--------|--------|--------|--------|--------|--------|--------|
E|--------|--------|--------|--------|--------|--------|--------|--------|--------|


E|--------|--------|--------|--------|--------|--------|--------|-17------------------------|
B|--------|--------|--------|--------|--------|--------|--------|-----17--------------------|
G|--------|--------|--------|--------|--------|--------|--------|---------17--16--------14--|
D|--------|--------|--------|--------|--------|--------|--------|-------------------17------|
A|--------|--------|--------|--------|--------|--------|--------|---------------------------|
E|--------|--------|--------|--------|--------|--------|--------|---------------------------|


E|---------------------------|---------------------------|-----------------|-17------------------------|
B|-------------------15--17--|-18--------------------18--|-18----17----17--|-----17--------------------|
G|-14----14--16--17----------|-----17------------16------|-----------------|---------17--16--------14--|
D|---------------------------|---------17--18------------|-----------------|-------------------17------|
A|---------------------------|---------------------------|-----------------|---------------------------|
E|---------------------------|---------------------------|-----------------|---------------------------|


E|---------------------------|---------------------------|-----------------|-17------------------------|
B|-------------------15--17--|-18--------------------18--|-18----17----17--|-----17--------------------|
G|-14----14--16--17----------|-----17------------16------|-----------------|---------17--16--------14--|
D|---------------------------|---------17--18------------|-----------------|-------------------17------|
A|---------------------------|---------------------------|-----------------|---------------------------|
E|---------------------------|---------------------------|-----------------|---------------------------|


E|---------------------------|---------------------------|-----------------|-17------------------------|
B|-------------------15--17--|-18--------------------18--|-18----17----17--|-----17--------------------|
G|-14----14--16--17----------|-----17------------16------|-----------------|---------17--16--------14--|
D|---------------------------|---------17--18------------|-----------------|-------------------17------|
A|---------------------------|---------------------------|-----------------|---------------------------|
E|---------------------------|---------------------------|-----------------|---------------------------|


E|---------------------------|---------------------------|-----------------|-----------------------|
B|-------------------15--17--|-18--------------------18--|-18----17----17--|-20------------16--18--|
G|-14----14--16--17----------|-----17------------16------|-----------------|-----17----17----------|
D|---------------------------|---------17--18------------|-----------------|-----------------------|
A|---------------------------|---------------------------|-----------------|-----------------------|
E|---------------------------|---------------------------|-----------------|-----------------------|


E|-------15----15---|-----------------------|------15---16---18---|-20------------15--16--|
B|-18---------------|-20------------16--18--|-18------------------|-----18----18----------|
G|------------------|-----17----17----------|---------------------|-----------------------|
D|------------------|-----------------------|---------------------|-----------------------|
A|------------------|-----------------------|---------------------|-----------------------|
E|------------------|-----------------------|---------------------|-----------------------|


E|-16----18----20---|-20-------------|--------|-17------------------------|---------------------------|
B|------------------|-----20-----20--|-20-----|-----17--------------------|-------------------15--17--|
G|------------------|----------------|--------|---------17--16--------14--|-14----14--16--17----------|
D|------------------|----------------|--------|-------------------17------|---------------------------|
A|------------------|----------------|--------|---------------------------|---------------------------|
E|------------------|----------------|--------|---------------------------|---------------------------|


E|---------------------------|-----------------|-17------------------------|---------------------------|
B|-18--------------------18--|-18----17----17--|-----17--------------------|-------------------15--17--|
G|-----17------------16------|-----------------|---------17--16--------14--|-14----14--16--17----------|
D|---------17--18------------|-----------------|-------------------17------|---------------------------|
A|---------------------------|-----------------|---------------------------|---------------------------|
E|---------------------------|-----------------|---------------------------|---------------------------|


E|---------------------------|-----------------|-17------------------------|---------------------------|
B|-18--------------------18--|-18----17----17--|-----17--------------------|-------------------15--17--|
G|-----17------------16------|-----------------|---------17--16--------14--|-14----14--16--17----------|
D|---------17--18------------|-----------------|-------------------17------|---------------------------|
A|---------------------------|-----------------|---------------------------|---------------------------|
E|---------------------------|-----------------|---------------------------|---------------------------|


E|---------------------------|-----------------|-17------------------------|---------------------------|
B|-18--------------------18--|-18----17----17--|-----17--------------------|-------------------15--17--|
G|-----17------------16------|-----------------|---------17--16--------14--|-14----14--16--17----------|
D|---------17--18------------|-----------------|-------------------17------|---------------------------|
A|---------------------------|-----------------|---------------------------|---------------------------|
E|---------------------------|-----------------|---------------------------|---------------------------|


E|---------------------------|-----------------|-----------------------|-------15----15---|
B|-18--------------------18--|-18----17----17--|-20------------16--18--|-18---------------|
G|-----17------------16------|-----------------|-----17----17----------|------------------|
D|---------17--18------------|-----------------|-----------------------|------------------|
A|---------------------------|-----------------|-----------------------|------------------|
E|---------------------------|-----------------|-----------------------|------------------|


E|-----------------------|------15---16---18---|-20------------15--16--|-16----18----20---|
B|-20------------16--18--|-18------------------|-----18----18----------|------------------|
G|-----17----17----------|---------------------|-----------------------|------------------|
D|-----------------------|---------------------|-----------------------|------------------|
A|-----------------------|---------------------|-----------------------|------------------|
E|-----------------------|---------------------|-----------------------|------------------|


E|-20-------------|--------|--------|--------|
B|-----20-----20--|-20-----|--------|--------|
G|----------------|--------|--------|--------|
D|----------------|--------|--------|--------|
A|----------------|--------|--------|--------|
E|----------------|--------|--------|--------|









Track 4: Strings
Back to top
E|-12-----|-12-----|-8------|-8------|-12-----|-12-----|-8------|-8------|-12-----|
B|-13-----|-13-----|-9------|-9------|-13-----|-13-----|-9------|-9------|-13-----|
G|-14-----|-14-----|-10-----|-10-----|-14-----|-14-----|-10-----|-10-----|-14-----|
D|--------|--------|--------|--------|--------|--------|--------|--------|--------|
A|-12-----|-12-----|-8------|-8------|-12-----|-12-----|-8------|-8------|-12-----|
E|--------|--------|--------|--------|--------|--------|--------|--------|--------|


E|-12-----|-8------|-8------|-12-----|-12-----|-8------|-8------|-12-----|-12-----|
B|-13-----|-9------|-9------|-13-----|-13-----|-9------|-9------|-13-----|-13-----|
G|-14-----|-10-----|-10-----|-14-----|-14-----|-10-----|-10-----|-14-----|-14-----|
D|--------|--------|--------|--------|--------|--------|--------|--------|--------|
A|-12-----|-8------|-8------|-12-----|-12-----|-8------|-8------|-12-----|-12-----|
E|--------|--------|--------|--------|--------|--------|--------|--------|--------|


E|-8------|-8------|-12-----|-12-----|-8------|-8------|-12-----|-12-----|-8------|
B|-9------|-9------|-13-----|-13-----|-9------|-9------|-13-----|-13-----|-9------|
G|-10-----|-10-----|-14-----|-14-----|-10-----|-10-----|-14-----|-14-----|-10-----|
D|--------|--------|--------|--------|--------|--------|--------|--------|--------|
A|-8------|-8------|-12-----|-12-----|-8------|-8------|-12-----|-12-----|-8------|
E|--------|--------|--------|--------|--------|--------|--------|--------|--------|


E|-8------|-12-----|-12-----|-8------|-8------|-9------|-9-----8----6----|-3------|
B|-9------|-13-----|-13-----|-9------|-9------|-6------|-6-----6----6----|-4------|
G|-10-----|-14-----|-14-----|-10-----|-10-----|-6------|-6-----6----6----|-5------|
D|--------|--------|--------|--------|--------|-6------|-6-----6----6----|-5------|
A|-8------|-12-----|-12-----|-8------|-8------|-4------|-4-----4----4----|-3------|
E|--------|--------|--------|--------|--------|--------|-----------------|--------|


E|-4-----6-----|-16----15----|-16-----18---|-15-----|-15-----|-12-----|-12-----|-8------|
B|-4-----4-----|-14----14----|-14-----14---|-8------|-8------|-13-----|-13-----|-9------|
G|-5-----5-----|-10----10----|-10-----10---|-8------|--------|-14-----|-14-----|-10-----|
D|-5-----5-----|-11----11----|-11-----11---|-10-----|--------|--------|--------|--------|
A|-3-----3-----|-11----11----|-11-----11---|-10-----|--------|-12-----|-12-----|-8------|
E|-------------|-9-----9-----|-9------9----|-8------|--------|--------|--------|--------|


E|-8------|-12-----|-12-----|-8------|-8------|-12-----|-12-----|-8------|-8------|
B|-9------|-13-----|-13-----|-9------|-9------|-13-----|-13-----|-9------|-9------|
G|-10-----|-14-----|-14-----|-10-----|-10-----|-14-----|-14-----|-10-----|-10-----|
D|--------|--------|--------|--------|--------|--------|--------|--------|--------|
A|-8------|-12-----|-12-----|-8------|-8------|-12-----|-12-----|-8------|-8------|
E|--------|--------|--------|--------|--------|--------|--------|--------|--------|


E|-12-----|-12-----|-8------|-8------|-9------|-9-----8----6----|-3------|-4-----6-----|
B|-13-----|-13-----|-9------|-9------|-6------|-6-----6----6----|-4------|-4-----4-----|
G|-14-----|-14-----|-10-----|-10-----|-6------|-6-----6----6----|-5------|-5-----5-----|
D|--------|--------|--------|--------|-6------|-6-----6----6----|-5------|-5-----5-----|
A|-12-----|-12-----|-8------|-8------|-4------|-4-----4----4----|-3------|-3-----3-----|
E|--------|--------|--------|--------|--------|-----------------|--------|-------------|


E|-16----15----|-16-----18---|-15-----|-15-----|--------|--------|
B|-14----14----|-14-----14---|-8------|-8------|-8------|--------|
G|-10----10----|-10-----10---|-8------|-8------|-8------|--------|
D|-11----11----|-11-----11---|-10-----|-10-----|-10-----|--------|
A|-11----11----|-11-----11---|-10-----|-10-----|-10-----|--------|
E|-9-----9-----|-9------9----|-8------|-8------|-8------|--------|









Track 5: Drums
Back to top
C|-------------|-------------|-------------|-------------|-------------|-------------|
C|-------------|-------------|-------------|-------------|-------------|-------------|
C|-------------|-------------|-------------|-------------|-------------|-------------|
C|-------------|-------------|-------------|-------------|-------------|-------------|
C|-------------|-------------|-------------|-------------|-------------|-------------|
C|-------------|-------------|-------------|-------------|-------------|-------------|


C|-------------|-------------|--------------------------------51----|--------------------------------51----|
C|-------------|-------------|-46--46--46--46-----46--46--46--46-42-|-46--46--46--46-----46--46--46--46-42-|
C|-------------|-------------|--------------------------------------|--------------------------------------|
C|-------------|-------------|--------------------------------------|--------------------------------------|
C|-------------|-------------|---------40-----404040------40-----40-|---------40-----404040------40-----40-|
C|-------------|-------------|-36--36-------------36--36------------|-36--36-------------36--36------------|


C|--------------------------------51----|--------------------------------51----|--------------------------------51----|
C|-46--46--46--46-----46--46--46--46-42-|-46--46--46--46-----46--46--46--46-42-|-46--46--46--46-----46--46--46--46-42-|
C|--------------------------------------|--------------------------------------|--------------------------------------|
C|--------------------------------------|--------------------------------------|--------------------------------------|
C|---------40-----404040------40-----40-|---------40-----404040------40-----40-|---------40-----404040------40-----40-|
C|-36--36-------------36--36------------|-36--36-------------36--36------------|-36--36-------------36--36------------|


C|--------------------------------51----|--------------------------------51----|-----------------------------51----|
C|-46--46--46--46-----46--46--46--46-42-|-46--46--46--46-----46--46--46--46-42-|-46--46--46--------------46--46-42-|
C|--------------------------------------|--------------------------------------|-----------------------------------|
C|--------------------------------------|--------------------------------------|-----------------------------------|
C|---------40-----404040------40-----40-|---------40-----404040------40-----40-|---------40--40--40--40--40-----40-|
C|-36--36-------------36--36------------|-36--36-------------36--36------------|-36--36------------------36--------|


C|--------------------------------51----|--------------------------------51----|--------------------------------51----|
C|-46--46--46--46-----46--46--46--46-42-|-46--46--46--46-----46--46--46--46-42-|-46--46--46--46-----46--46--46--46-42-|
C|--------------------------------------|--------------------------------------|--------------------------------------|
C|--------------------------------------|--------------------------------------|--------------------------------------|
C|---------40-----404040------40-----40-|---------40-----404040------40-----40-|---------40-----404040------40-----40-|
C|-36--36-------------36--36------------|-36--36-------------36--36------------|-36--36-------------36--36------------|


C|--------------------------------51----|--------------------------------51----|--------------------------------51----|
C|-46--46--46--46-----46--46--46--46-42-|-46--46--46--46-----46--46--46--46-42-|-46--46--46--46-----46--46--46--46-42-|
C|--------------------------------------|--------------------------------------|--------------------------------------|
C|--------------------------------------|--------------------------------------|--------------------------------------|
C|---------40-----404040------40-----40-|---------40-----404040------40-----40-|---------40-----404040------40-----40-|
C|-36--36-------------36--36------------|-36--36-------------36--36------------|-36--36-------------36--36------------|


C|--------------------------------51----|-------------------------------------51-------|
C|-46--46--46--46-----46--46--46--46-42-|-46--46--46--46-----46--46--46-------46-------|
C|--------------------------------------|----------------------------------------------|
C|--------------------------------------|----------------------------------------------|
C|---------40-----404040------40-----40-|---------40-----404040--40-----404040---404040|
C|-36--36-------------36--36------------|-36--36-------------36--36--------------------|


C|--------------------------------51----|--------------------------------51----|--------------------------------51----|
C|-46--46--46--46-----46--46--46--46-42-|-46--46--46--46-----46--46--46--46-42-|-46--46--46--46-----46--46--46--46-42-|
C|--------------------------------------|--------------------------------------|--------------------------------------|
C|--------------------------------------|--------------------------------------|--------------------------------------|
C|---------40-----404040------40-----40-|---------40-----404040------40-----40-|---------40-----404040------40-----40-|
C|-36--36-------------36--36------------|-36--36-------------36--36------------|-36--36-------------36--36------------|


C|--------------------------------51----|--------------------------------51----|--------------------------------51----|
C|-46--46--46--46-----46--46--46--46-42-|-46--46--46--46-----46--46--46--46-42-|-46--46--46--46-----46--46--46--46-42-|
C|--------------------------------------|--------------------------------------|--------------------------------------|
C|--------------------------------------|--------------------------------------|--------------------------------------|
C|---------40-----404040------40-----40-|---------40-----404040------40-----40-|---------40-----404040------40-----40-|
C|-36--36-------------36--36------------|-36--36-------------36--36------------|-36--36-------------36--36------------|


C|--------------------------------51----|-------------------------------------51-------|
C|-46--46--46--46-----46--46--46--46-42-|-46--46--46--46-----46--46--46-------46-------|
C|--------------------------------------|----------------------------------------------|
C|--------------------------------------|----------------------------------------------|
C|---------40-----404040------40-----40-|---------40-----404040--40-----404040---404040|
C|-36--36-------------36--36------------|-36--36-------------36--36--------------------|


C|--------------------------------51----|--------------------------------51----|--------------------------------51----|
C|-46--46--46--46-----46--46--46--46-42-|-46--46--46--46-----46--46--46--46-42-|-46--46--46--46-----46--46--46--46-42-|
C|--------------------------------------|--------------------------------------|--------------------------------------|
C|--------------------------------------|--------------------------------------|--------------------------------------|
C|---------40-----404040------40-----40-|---------40-----404040------40-----40-|---------40-----404040------40-----40-|
C|-36--36-------------36--36------------|-36--36-------------36--36------------|-36--36-------------36--36------------|


C|--------------------------------51----|--------------------------------51----|--------------------------------51----|
C|-46--46--46--46-----46--46--46--46-42-|-46--46--46--46-----46--46--46--46-42-|-46--46--46--46-----46--46--46--46-42-|
C|--------------------------------------|--------------------------------------|--------------------------------------|
C|--------------------------------------|--------------------------------------|--------------------------------------|
C|---------40-----404040------40-----40-|---------40-----404040------40-----40-|---------40-----404040------40-----40-|
C|-36--36-------------36--36------------|-36--36-------------36--36------------|-36--36-------------36--36------------|


C|--------------------------------51----|---------------------|--------------------------------51----|
C|-46--46--46--46-----46--46--46--46-42-|---------------------|-46--46--46--46-----46--46--46--46-42-|
C|--------------------------------------|---------------------|--------------------------------------|
C|--------------------------------------|---------------------|--------------------------------------|
C|---------40-----404040------40-----40-|-40---40---40---40---|---------40-----404040------40-----40-|
C|-36--36-------------36--36------------|-----------36--------|-36--36-------------36--36------------|


C|--------------------------------51----|--------------------------------51----|--------------------------------51----|
C|-46--46--46--46-----46--46--46--46-42-|-46--46--46--46-----46--46--46--46-42-|-46--46--46--46-----46--46--46--46-42-|
C|--------------------------------------|--------------------------------------|--------------------------------------|
C|--------------------------------------|--------------------------------------|--------------------------------------|
C|---------40-----404040------40-----40-|---------40-----404040------40-----40-|---------40-----404040------40-----40-|
C|-36--36-------------36--36------------|-36--36-------------36--36------------|-36--36-------------36--36------------|


C|--------------------------------51----|--------------------------------51----|--------------------------------51----|
C|-46--46--46--46-----46--46--46--46-42-|-46--46--46--46-----46--46--46--46-42-|-46--46--46--46-----46--46--46--46-42-|
C|--------------------------------------|--------------------------------------|--------------------------------------|
C|--------------------------------------|--------------------------------------|--------------------------------------|
C|---------40-----404040------40-----40-|---------40-----404040------40-----40-|---------40-----404040------40-----40-|
C|-36--36-------------36--36------------|-36--36-------------36--36------------|-36--36-------------36--36------------|


C|--------------------------------51----|--------------------------------51----|--------------------------------51----|
C|-46--46--46--46-----46--46--46--46-42-|-46--46--46--46-----46--46--46--46-42-|-46--46--46--46-----46--46--46--46-42-|
C|--------------------------------------|--------------------------------------|--------------------------------------|
C|--------------------------------------|--------------------------------------|--------------------------------------|
C|---------40-----404040------40-----40-|---------40-----404040------40-----40-|---------40-----404040------40-----40-|
C|-36--36-------------36--36------------|-36--36-------------36--36------------|-36--36-------------36--36------------|


C|--------------------------------51----|--------------------------51---------|--------------------------------51----|
C|-46--46--46--46-----46--46--46--46-42-|-46--46--46--46--------------46--46--|-46--46--46--46-----46--46--46--46-42-|
C|--------------------------------------|-------------------------------------|--------------------------------------|
C|--------------------------------------|-------------------------------------|--------------------------------------|
C|---------40-----404040------40-----40-|---------40--40--40--40------40------|---------40-----404040------40-----40-|
C|-36--36-------------36--36------------|-36--36----------------36-36---------|-36--36-------------36--36------------|


C|--------------------------------51----|--------------------------------51----|--------------------------------51----|
C|-46--46--46--46-----46--46--46--46-42-|-46--46--46--46-----46--46--46--46-42-|-46--46--46--46-----46--46--46--46-42-|
C|--------------------------------------|--------------------------------------|--------------------------------------|
C|--------------------------------------|--------------------------------------|--------------------------------------|
C|---------40-----404040------40-----40-|---------40-----404040------40-----40-|---------40-----404040------40-----40-|
C|-36--36-------------36--36------------|-36--36-------------36--36------------|-36--36-------------36--36------------|


C|--------------------------------51----|--------------------------------51----|--------------------------------51----|
C|-46--46--46--46-----46--46--46--46-42-|-46--46--46--46-----46--46--46--46-42-|-46--46--46--46-----46--46--46--46-42-|
C|--------------------------------------|--------------------------------------|--------------------------------------|
C|--------------------------------------|--------------------------------------|--------------------------------------|
C|---------40-----404040------40-----40-|---------40-----404040------40-----40-|---------40-----404040------40-----40-|
C|-36--36-------------36--36------------|-36--36-------------36--36------------|-36--36-------------36--36------------|


C|--------------------------------51----|--------------------------------51----|--------------------------------51----|
C|-46--46--46--46-----46--46--46--46-42-|-46--46--46--46-----46--46--46--46-42-|-46--46--46--46-----46--46--46--46-42-|
C|--------------------------------------|--------------------------------------|--------------------------------------|
C|--------------------------------------|--------------------------------------|--------------------------------------|
C|---------40-----404040------40-----40-|---------40-----404040------40-----40-|---------40-----404040------40-----40-|
C|-36--36-------------36--36------------|-36--36-------------36--36------------|-36--36-------------36--36------------|


C|--------------------------------51----|---------------------|----------------|----------------|
C|-46--46--46--46-----46--46--46--46-42-|---------------------|----------------|----------------|
C|--------------------------------------|---------------------|----------------|----------------|
C|--------------------------------------|---------------------|----------------|----------------|
C|---------40-----404040------40-----40-|-40---40---40---40---|----------------|----------------|
C|-36--36-------------36--36------------|-----------36--------|----------------|----------------|



← Back to top