Silent Hill 2 "Laura'sTheme"

by Akira Yamaoka

Guitar Pro Tab  |  v4.00  |  Posted on March 29, 2007, 11 a.m. ← Back

Guitar Pro Tab Summary

Album

Silent Hill 2 Original Soundtrack

Song Author

Akira Yamaoka / KONAMI

Tabbed by

Marcin Gi´┐Życki

Instruments

1st → Acoustic Guitar
2nd → Lead Guitar
3rd → Fret Noise (FX)
4th → Bass
5th → Rythm Guitar
6th → Synth Strings
7th → Effects Guitar
8th → Percussions
9th → Rhodes Piano

File Size

30 KB

Views

8,531

Notice

Just listen.






Tablature Sheet

Title: Silent Hill 2 "Laura'sTheme" 
Artist: Akira Yamaoka 
Album: Silent Hill 2 Original Soundtrack
Author: Akira Yamaoka / KONAMI






Track 1: Acoustic Guitar
Back to top
E|-----|----------------|---------------------------------------|-3-------3---------3--------5-----3--3--0--|
B|-----|-------------1--|-1---1---1------------3--3---3---3--5--|-5-------5---------5--5--5--5-----5--5--7--|
G|-----|-------------0--|-0---0---0---5--5-----4--4---4---4--4--|-4---4---4---4--4--4--4--4--4--4--4--------|
D|-----|-------------2--|-2---2---2---5--5-----4--4---4---0--0--|-2---2---2---2--2--2--2--2--2--2--2--------|
A|-----|-------------3--|-3---3---3---3--3-----5--5---5---------|-------------------------------------------|
E|-----|----------------|---------------------------------------|-------------------------------------------|


E|-0-------------------------------------|-3-------3---------3--------5-----3--3--0--|
B|-1---1---1------------3--3---3---3--5--|-5-------5---------5--5--5--5-----5--5--7--|
G|-0---0---0---5--5-----4--4---4---4--4--|-4---4---4---4--4--4--4--4--4--4--4--------|
D|-2---2---2---5--5-----4--4---4---0--0--|-2---2---2---2--2--2--2--2--2--2--2--------|
A|-3---3---3---3--3-----5--5---5---------|-------------------------------------------|
E|---------------------------------------|-------------------------------------------|


E|---------------------------------------|-3-------3---------3--------5-----3--3--0--|
B|-1---1---1------------3--3---3---3--5--|-5-------5---------5--5--5--5-----5--5--7--|
G|-0---0---0---5--5-----4--4---4---4--4--|-4---4---4---4--4--4--4--4--4--4--4--------|
D|-2---2---2---5--5-----4--4---4---0--0--|-2---2---2---2--2--2--2--2--2--2--2--------|
A|-3---3---3---3--3-----5--5---5---------|-------------------------------------------|
E|---------------------------------------|-------------------------------------------|


E|---------------------------------------|---------------------------------------|
B|-1---1---1------------3--3---3---3--5--|-1---1---1------------3--3---3---3--5--|
G|-0---0---0---5--5-----4--4---4---4--4--|-0---0---0---5--5-----4--4---4---4--4--|
D|-2---2---2---5--5-----4--4---4---0--0--|-2---2---2---5--5-----4--4---4---0--0--|
A|-3---3---3---3--3-----5--5---5---------|-3---3---3---3--3-----5--5---5---------|
E|---------------------------------------|---------------------------------------|


E|----------------|----------------|----------------|----------------|----------------|
B|----------------|----------------|----------------|----------------|----------------|
G|----------------|----------------|----------------|----------------|----------------|
D|----------------|----------------|----------------|----------------|----------------|
A|----------------|----------------|----------------|----------------|----------------|
E|----------------|----------------|----------------|----------------|----------------|


E|----------------|----------------|----------------|----------------|----------------|
B|----------------|----------------|----------------|----------------|----------------|
G|----------------|----------------|----------------|----------------|----------------|
D|----------------|----------------|----------------|----------------|----------------|
A|----------------|----------------|----------------|----------------|----------------|
E|----------------|----------------|----------------|----------------|----------------|


E|----------------|----------------|----------------|----------------|----------------|
B|----------------|----------------|----------------|----------------|----------------|
G|----------------|----------------|----------------|----------------|----------------|
D|----------------|----------------|----------------|----------------|----------------|
A|----------------|----------------|----------------|----------------|----------------|
E|----------------|----------------|----------------|----------------|----------------|


E|----------------|----------------|----------------|----------------|----------------|
B|----------------|----------------|----------------|----------------|----------------|
G|----------------|----------------|----------------|----------------|----------------|
D|----------------|----------------|----------------|----------------|----------------|
A|----------------|----------------|----------------|----------------|----------------|
E|----------------|----------------|----------------|----------------|----------------|


E|----------------|----------------|----------------|----------------|----------------|
B|----------------|----------------|----------------|----------------|----------------|
G|----------------|----------------|----------------|----------------|----------------|
D|----------------|----------------|----------------|----------------|----------------|
A|----------------|----------------|----------------|----------------|----------------|
E|----------------|----------------|----------------|----------------|----------------|


E|----------------|----------------|----------------|----------------|----------------|
B|----------------|----------------|----------------|----------------|----------------|
G|----------------|----------------|----------------|----------------|----------------|
D|----------------|----------------|----------------|----------------|----------------|
A|----------------|----------------|----------------|----------------|----------------|
E|----------------|----------------|----------------|----------------|----------------|


E|----------------|----------------|----------------|----------------|----------------|
B|----------------|----------------|----------------|----------------|----------------|
G|----------------|----------------|----------------|----------------|----------------|
D|----------------|----------------|----------------|----------------|----------------|
A|----------------|----------------|----------------|----------------|----------------|
E|----------------|----------------|----------------|----------------|----------------|


E|----------------|----------------|----------------|----------------|----------------|
B|----------------|----------------|----------------|----------------|----------------|
G|----------------|----------------|----------------|----------------|----------------|
D|----------------|----------------|----------------|----------------|----------------|
A|----------------|----------------|----------------|----------------|----------------|
E|----------------|----------------|----------------|----------------|----------------|


E|----------------|----------------|----------------|----------------|----------------|
B|----------------|----------------|----------------|----------------|----------------|
G|----------------|----------------|----------------|----------------|----------------|
D|----------------|----------------|----------------|----------------|----------------|
A|----------------|----------------|----------------|----------------|----------------|
E|----------------|----------------|----------------|----------------|----------------|


E|----------------|----------------|----------------|----------------|----------------|
B|----------------|----------------|----------------|----------------|----------------|
G|----------------|----------------|----------------|----------------|----------------|
D|----------------|----------------|----------------|----------------|----------------|
A|----------------|----------------|----------------|----------------|----------------|
E|----------------|----------------|----------------|----------------|----------------|


E|----------------|----------------|----------------|----------------|----------------|
B|----------------|----------------|----------------|----------------|----------------|
G|----------------|----------------|----------------|----------------|----------------|
D|----------------|----------------|----------------|----------------|----------------|
A|----------------|----------------|----------------|----------------|----------------|
E|----------------|----------------|----------------|----------------|----------------|


E|----------------|----------------|----------------|----------------|----------------|
B|----------------|----------------|----------------|----------------|----------------|
G|----------------|----------------|----------------|----------------|----------------|
D|----------------|----------------|----------------|----------------|----------------|
A|----------------|----------------|----------------|----------------|----------------|
E|----------------|----------------|----------------|----------------|----------------|


E|----------------|----------------|----------------|----------------|----------------|
B|----------------|----------------|----------------|----------------|----------------|
G|----------------|----------------|----------------|----------------|----------------|
D|----------------|----------------|----------------|----------------|----------------|
A|----------------|----------------|----------------|----------------|----------------|
E|----------------|----------------|----------------|----------------|----------------|


E|----------------|----------------|----------------|----------------|----------------|
B|----------------|----------------|----------------|----------------|----------------|
G|----------------|----------------|----------------|----------------|----------------|
D|----------------|----------------|----------------|----------------|----------------|
A|----------------|----------------|----------------|----------------|----------------|
E|----------------|----------------|----------------|----------------|----------------|


E|----------------|----------------|----------------|----------------|----------------|
B|----------------|----------------|----------------|----------------|----------------|
G|----------------|----------------|----------------|----------------|----------------|
D|----------------|----------------|----------------|----------------|----------------|
A|----------------|----------------|----------------|----------------|----------------|
E|----------------|----------------|----------------|----------------|----------------|


E|----------------|----------------|----------------|----------------|----------------|
B|----------------|----------------|----------------|----------------|----------------|
G|----------------|----------------|----------------|----------------|----------------|
D|----------------|----------------|----------------|----------------|----------------|
A|----------------|----------------|----------------|----------------|----------------|
E|----------------|----------------|----------------|----------------|----------------|


E|----------------|
B|----------------|
G|----------------|
D|----------------|
A|----------------|
E|----------------|









Track 2: Fret Noise (FX)
Back to top
E|-----|--------|----------------------------|-----------------------|----------------------------|
B|-----|--------|----------------------------|-----------------------|----------------------------|
G|-----|--------|-------------3---3----------|------------0-------2--|-0-----------3---3----------|
D|-----|--------|-5--------------------------|-----------------------|----------------------------|
A|-----|--------|----------------------------|-----------------------|----------------------------|
E|-----|--------|----------------------------|-----------------------|----------------------------|


E|-----------------------|----------------------------|-----------------------|----------------------------|
B|-----------------------|----------------------------|-----------------------|----------------------------|
G|------------0-------2--|-0-----------3---3----------|------------0-------2--|-0-----------3---3----------|
D|-----------------------|----------------------------|-----------------------|----------------------------|
A|-----------------------|----------------------------|-----------------------|----------------------------|
E|-----------------------|----------------------------|-----------------------|----------------------------|


E|----------------------------|-----------------|-----------------|-----------------|
B|----------------------------|-----------------|-----------------|-----------------|
G|-0-----------3---3----------|-----------------|-----------------|-----------------|
D|----------------------------|-----------------|-----------------|-----------------|
A|----------------------------|-----------------|-----------------|-----------------|
E|----------------------------|-----------------|-----------------|-----------------|


E|-----------------|-----------------|-----------------|-----------------|-----------------|
B|-----------------|-----------------|-----------------|-----------------|-----------------|
G|-----------------|-----------------|-----------------|-----------------|-----------------|
D|-----------------|-----------------|-----------------|-----------------|-----------------|
A|-----------------|-----------------|-----------------|-----------------|-----------------|
E|-----------------|-----------------|-----------------|-----------------|-----------------|


E|-----------------|-----------------|-----------------|-----------------|-----------------|
B|-----------------|-----------------|-----------------|-----------------|-----------------|
G|-----------------|-----------------|-----------------|-----------------|-----------------|
D|-----------------|-----------------|-----------------|-----------------|-----------------|
A|-----------------|-----------------|-----------------|-----------------|-----------------|
E|-----------------|-----------------|-----------------|-----------------|-----------------|


E|-----------------|-----------------|-----------------|-----------------|-----------------|
B|-----------------|-----------------|-----------------|-----------------|-----------------|
G|-----------------|-----------------|-----------------|-----------------|-----------------|
D|-----------------|-----------------|-----------------|-----------------|-----------------|
A|-----------------|-----------------|-----------------|-----------------|-----------------|
E|-----------------|-----------------|-----------------|-----------------|-----------------|


E|-----------------|-----------------|-----------------|-----------------|-----------------|
B|-----------------|-----------------|-----------------|-----------------|-----------------|
G|-----------------|-----------------|-----------------|-----------------|-----------------|
D|-----------------|-----------------|-----------------|-----------------|-----------------|
A|-----------------|-----------------|-----------------|-----------------|-----------------|
E|-----------------|-----------------|-----------------|-----------------|-----------------|


E|-----------------|-----------------|-----------------|-----------------|-----------------|
B|-----------------|-----------------|-----------------|-----------------|-----------------|
G|-----------------|-----------------|-----------------|-----------------|-----------------|
D|-----------------|-----------------|-----------------|-----------------|-----------------|
A|-----------------|-----------------|-----------------|-----------------|-----------------|
E|-----------------|-----------------|-----------------|-----------------|-----------------|


E|-----------------|-----------------|-----------------|-----------------|-----------------|
B|-----------------|-----------------|-----------------|-----------------|-----------------|
G|-----------------|-----------------|-----------------|-----------------|-----------------|
D|-----------------|-----------------|-----------------|-----------------|-----------------|
A|-----------------|-----------------|-----------------|-----------------|-----------------|
E|-----------------|-----------------|-----------------|-----------------|-----------------|


E|-----------------|-----------------|-----------------|-----------------|-----------------|
B|-----------------|-----------------|-----------------|-----------------|-----------------|
G|-----------------|-----------------|-----------------|-----------------|-----------------|
D|-----------------|-----------------|-----------------|-----------------|-----------------|
A|-----------------|-----------------|-----------------|-----------------|-----------------|
E|-----------------|-----------------|-----------------|-----------------|-----------------|


E|-----------------|-----------------|-----------------|-----------------|-----------------|
B|-----------------|-----------------|-----------------|-----------------|-----------------|
G|-----------------|-----------------|-----------------|-----------------|-----------------|
D|-----------------|-----------------|-----------------|-----------------|-----------------|
A|-----------------|-----------------|-----------------|-----------------|-----------------|
E|-----------------|-----------------|-----------------|-----------------|-----------------|


E|-----------------|-----------------|-----------------|-----------------|-----------------|
B|-----------------|-----------------|-----------------|-----------------|-----------------|
G|-----------------|-----------------|-----------------|-----------------|-----------------|
D|-----------------|-----------------|-----------------|-----------------|-----------------|
A|-----------------|-----------------|-----------------|-----------------|-----------------|
E|-----------------|-----------------|-----------------|-----------------|-----------------|


E|-----------------|-----------------|-----------------|-----------------|-----------------|
B|-----------------|-----------------|-----------------|-----------------|-----------------|
G|-----------------|-----------------|-----------------|-----------------|-----------------|
D|-----------------|-----------------|-----------------|-----------------|-----------------|
A|-----------------|-----------------|-----------------|-----------------|-----------------|
E|-----------------|-----------------|-----------------|-----------------|-----------------|


E|-----------------|-----------------|-----------------|-----------------|-----------------|
B|-----------------|-----------------|-----------------|-----------------|-----------------|
G|-----------------|-----------------|-----------------|-----------------|-----------------|
D|-----------------|-----------------|-----------------|-----------------|-----------------|
A|-----------------|-----------------|-----------------|-----------------|-----------------|
E|-----------------|-----------------|-----------------|-----------------|-----------------|


E|-----------------|-----------------|-----------------|-----------------|-----------------|
B|-----------------|-----------------|-----------------|-----------------|-----------------|
G|-----------------|-----------------|-----------------|-----------------|-----------------|
D|-----------------|-----------------|-----------------|-----------------|-----------------|
A|-----------------|-----------------|-----------------|-----------------|-----------------|
E|-----------------|-----------------|-----------------|-----------------|-----------------|


E|-----------------|-----------------|-----------------|-----------------|-----------------|
B|-----------------|-----------------|-----------------|-----------------|-----------------|
G|-----------------|-----------------|-----------------|-----------------|-----------------|
D|-----------------|-----------------|-----------------|-----------------|-----------------|
A|-----------------|-----------------|-----------------|-----------------|-----------------|
E|-----------------|-----------------|-----------------|-----------------|-----------------|


E|-----------------|-----------------|-----------------|-----------------|-----------------|
B|-----------------|-----------------|-----------------|-----------------|-----------------|
G|-----------------|-----------------|-----------------|-----------------|-----------------|
D|-----------------|-----------------|-----------------|-----------------|-----------------|
A|-----------------|-----------------|-----------------|-----------------|-----------------|
E|-----------------|-----------------|-----------------|-----------------|-----------------|


E|-----------------|-----------------|-----------------|-----------------|-----------------|
B|-----------------|-----------------|-----------------|-----------------|-----------------|
G|-----------------|-----------------|-----------------|-----------------|-----------------|
D|-----------------|-----------------|-----------------|-----------------|-----------------|
A|-----------------|-----------------|-----------------|-----------------|-----------------|
E|-----------------|-----------------|-----------------|-----------------|-----------------|


E|-----------------|-----------------|-----------------|
B|-----------------|-----------------|-----------------|
G|-----------------|-----------------|-----------------|
D|-----------------|-----------------|-----------------|
A|-----------------|-----------------|-----------------|
E|-----------------|-----------------|-----------------|









Track 3: Lead Guitar
Back to top
E|-----|--------|--------|--------|--------|--------|--------|--------|--------|--------|
B|-----|--------|--------|--------|--------|--------|--------|--------|--------|--------|
G|-----|--------|--------|--------|--------|--------|--------|--------|--------|--------|
D|-----|--------|--------|--------|--------|--------|--------|--------|--------|--------|
A|-----|--------|--------|--------|--------|--------|--------|--------|--------|--------|
E|-----|--------|--------|--------|--------|--------|--------|--------|--------|--------|


E|-------------0-------------|------------------------|---------------------|------------------|
B|---------0--------0--------|-----0------------------|------0--------------|-------3----0-----|
G|-----0-----------------2---|-2--------0---------0---|-0--------2----------|-0----------------|
D|-2-------------------------|----------------4-------|----------------2----|------------------|
A|---------------------------|------------------------|---------------------|------------------|
E|---------------------------|------------------------|---------------------|------------------|


E|-------------0-------------|------------------------|---------------------|-0---------------|
B|---------0--------0--------|-----0------------------|------0---------3----|-------0-----0---|
G|-----0-----------------2---|-2--------0---------0---|-0--------2----------|-----------------|
D|-2-------------------------|----------------4-------|---------------------|-----------------|
A|---------------------------|------------------------|---------------------|-----------------|
E|---------------------------|------------------------|---------------------|-----------------|


E|------------2---2-|-2------|------------2---2-|-2------|------------2---2-|-2------|
B|------------3---3-|-3------|------------3---3-|-3------|------------3---3-|-3------|
G|------------0---0-|-0------|------------0---0-|-0------|------------0---0-|-0------|
D|------------2---2-|-2------|------------2---2-|-2------|------------2---2-|-2------|
A|------------------|--------|------------------|--------|------------------|--------|
E|-0------0---------|--------|-0------0---------|--------|-0------0---------|--------|


E|------------2---2-|-2------|-------------------3---|-3-----2----2---3---2---|-0---------------|
B|------------3---3-|-3------|-----------------------|------------------------|-------0-----0---|
G|------------0---0-|-0------|-----------2---2-------|------------------------|-----------------|
D|------------2---2-|-2------|-----------------------|------------------------|-----------------|
A|------------------|--------|-----------------------|------------------------|-----------------|
E|-0------0---------|--------|-----------------------|------------------------|-----------------|


E|-----------------|-------------------3---|-3-----2----5---3---2---|-0-----5-----12--|
B|-0-----0---------|-----------------------|------------------------|-------0---------|
G|-----------------|-----------2---2-------|------------------------|-----------------|
D|-----------------|-----------------------|------------------------|-----------------|
A|-----------------|-----------------------|------------------------|-----------------|
E|-----------------|-----------------------|------------------------|-----------------|


E|-12----12--------|-----------------0---3---5---0---|-0------|-----------------0---3---5---0---|
B|-----------------|---------1---3-------------------|--------|---------1---3-------------------|
G|-----------------|-----2---------------------------|--------|-----2---------------------------|
D|-----------------|---------------------------------|--------|---------------------------------|
A|-----------------|---------------------------------|--------|---------------------------------|
E|-----------------|---------------------------------|--------|---------------------------------|


E|-0------|-----------------0---3---5---0---|-0------|--------|--------|-----3---3---3---2---2---3---5---|
B|--------|---------1---3-------------------|--------|--------|--------|---------------------------------|
G|--------|-----2---------------------------|--------|--------|--------|---------------------------------|
D|--------|---------------------------------|--------|--------|--------|---------------------------------|
A|--------|---------------------------------|--------|--------|--------|---------------------------------|
E|--------|---------------------------------|--------|--------|--------|---------------------------------|


E|-5---0----0--------2-------|-0-----0---------|--------|-----3---3---3---2---2---3---5---|
B|--------------0--------0---|-----------------|--------|---------------------------------|
G|---------------------------|-----------------|--------|---------------------------------|
D|---------------------------|-----------------|--------|---------------------------------|
A|---------------------------|-----------------|--------|---------------------------------|
E|---------------------------|-----------------|--------|---------------------------------|


E|-5---0----0--------2-------|-0-----0---------|--------|-----3---3---3---2---2---3---5---|
B|--------------0--------0---|-----------------|--------|---------------------------------|
G|---------------------------|-----------------|--------|---------------------------------|
D|---------------------------|-----------------|--------|---------------------------------|
A|---------------------------|-----------------|--------|---------------------------------|
E|---------------------------|-----------------|--------|---------------------------------|


E|-5---0----0--------2-------|-0-----0---------|--------|-----3---3---3---2---2---3---5---|
B|--------------0--------0---|-----------------|--------|---------------------------------|
G|---------------------------|-----------------|--------|---------------------------------|
D|---------------------------|-----------------|--------|---------------------------------|
A|---------------------------|-----------------|--------|---------------------------------|
E|---------------------------|-----------------|--------|---------------------------------|


E|-5---0----0--------2-------|-0-----0---------|--------|--------|--------|--------|
B|--------------0--------0---|-----------------|--------|--------|--------|--------|
G|---------------------------|-----------------|--------|--------|--------|--------|
D|---------------------------|-----------------|--------|--------|--------|--------|
A|---------------------------|-----------------|--------|--------|--------|--------|
E|---------------------------|-----------------|--------|--------|--------|--------|


E|--------|--------|--------|--------|--------|--------|--------|-------------0-------------|
B|--------|--------|--------|--------|--------|--------|--------|---------0--------0--------|
G|--------|--------|--------|--------|--------|--------|--------|-----0-----------------2---|
D|--------|--------|--------|--------|--------|--------|--------|-2-------------------------|
A|--------|--------|--------|--------|--------|--------|--------|---------------------------|
E|--------|--------|--------|--------|--------|--------|--------|---------------------------|


E|------------------------|---------------------|------------------|-------------0-------------|
B|-----0------------------|------0--------------|-------3----0-----|---------0--------0--------|
G|-2--------0---------0---|-0--------2----------|-0----------------|-----0-----------------2---|
D|----------------4-------|----------------2----|------------------|-2-------------------------|
A|------------------------|---------------------|------------------|---------------------------|
E|------------------------|---------------------|------------------|---------------------------|


E|------------------------|---------------------|-0---------------|------------2---2-|
B|-----0------------------|------0---------3----|-------0-----0---|------------3---3-|
G|-2--------0---------0---|-0--------2----------|-----------------|------------0---0-|
D|----------------4-------|---------------------|-----------------|------------2---2-|
A|------------------------|---------------------|-----------------|------------------|
E|------------------------|---------------------|-----------------|-0------0---------|


E|-2------|------------2---2-|-2------|------------2---2-|-2------|------------2---2-|
B|-3------|------------3---3-|-3------|------------3---3-|-3------|------------3---3-|
G|-0------|------------0---0-|-0------|------------0---0-|-0------|------------0---0-|
D|-2------|------------2---2-|-2------|------------2---2-|-2------|------------2---2-|
A|--------|------------------|--------|------------------|--------|------------------|
E|--------|-0------0---------|--------|-0------0---------|--------|-0------0---------|


E|-2------|-2------|-2------|-2------|-2------|-2------|-2------2---2--2----|----------------|
B|-3------|-3------|-3------|-3------|-3------|-3------|-3------3---3--3----|----------------|
G|-0------|-0------|-0------|-0------|-0------|-0------|-0------0---0--0----|----------------|
D|-2------|-2------|-2------|-2------|-2------|-2------|-2------2---2--2----|----------------|
A|--------|--------|--------|--------|--------|--------|--------------------|----------------|
E|--------|--------|--------|--------|--------|--------|--------------------|----------------|









Track 4: Rythm Guitar
Back to top
E|-----|--------|--------|--------|--------|--------|--------|--------|--------|--------|
B|-----|--------|--------|--------|--------|--------|--------|--------|--------|--------|
G|-----|--------|--------|--------|--------|--------|--------|--------|--------|--------|
D|-----|--------|--------|--------|--------|--------|--------|--------|--------|--------|
A|-----|--------|--------|--------|--------|--------|--------|--------|--------|--------|
E|-----|--------|--------|--------|--------|--------|--------|--------|--------|--------|


E|---------------------------------|---------------------------------|---------------------------------|
B|---------------------------------|---------------------------------|---------------------------------|
G|---------------------------------|---------------------------------|---------------------------------|
D|-----------------0---0---0---0---|-2---2---2---2---2---2---2---0---|-----------------0---0---0---0---|
A|-3---3---3---3---0---0---0---0---|-2---2---2---2---2---2---2---0---|-3---3---3---3---0---0---0---0---|
E|-3---3---3---3-------------------|---------------------------------|-3---3---3---3-------------------|


E|---------------------------------|---------------------------------|---------------------------------|
B|---------------------------------|---------------------------------|---------------------------------|
G|---------------------------------|---------------------------------|---------------------------------|
D|-2---2---2---2---2---2---2---0---|-----------------0---0---0---0---|-2---2---2---2---2---2---2---0---|
A|-2---2---2---2---2---2---2---0---|-3---3---3---3---0---0---0---0---|-2---2---2---2---2---2---2---0---|
E|---------------------------------|-3---3---3---3-------------------|---------------------------------|


E|---------------------------------|---------------------------------|--------|---------------------|
B|---------------------------------|---------------------------------|--------|---------------------|
G|---------------------------------|---------------------------------|--------|---------------------|
D|-----------------0---0---0---0---|-----------------0---0---0---0---|--------|-------0-------------|
A|-3---3---3---3---0---0---0---0---|-3---3---3---3---0---0---0---0---|--------|------------4----3---|
E|-3---3---3---3-------------------|-3---3---3---3-------------------|-0------|-0-------------------|


E|--------|---------------------|--------|---------------------|--------|---------------------|
B|--------|---------------------|--------|---------------------|--------|---------------------|
G|--------|---------------------|--------|---------------------|--------|---------------------|
D|--------|-------0-------------|--------|-------0-------------|--------|-------0-------------|
A|--------|------------4----3---|--------|------------4----3---|--------|------------4----3---|
E|-0------|-0-------------------|-0------|-0-------------------|-0------|-0-------------------|


E|-----------------------|----------------------|----------------------|-------------3----------|
B|-----------------------|-----------0-----0----|-----------0-----0----|---------0--------0-----|
G|-------------0-----0---|--------2-------------|--------0-------------|-----0------------------|
D|---------2-------------|-----2----------------|-----2----------------|------------------------|
A|-----3-----------------|----------------------|----------------------|------------------------|
E|-----------------------|----------------------|----------------------|------------------------|


E|-----------------------|----------------------|----------------------|-----3-----3-----3-----3-----5---3---2---|
B|-----------------------|-----------0-----0----|-----------0-----0----|-----------------------------------------|
G|-------------0-----0---|--------2-------------|--------0-------------|-----------------------------------------|
D|---------2-------------|-----2----------------|-----2----------------|-----------------------------------------|
A|-----3-----------------|----------------------|----------------------|-----------------------------------------|
E|-----------------------|----------------------|----------------------|-----------------------------------------|


E|-----------------|--------|-----------------|--------|-----------------|--------|
B|-----------------|--------|-----------------|--------|-----------------|--------|
G|-----------------|--------|-----------------|--------|-----------------|--------|
D|-2-----2-----2---|-2------|-2-----2-----2---|-2------|-2-----2-----2---|-2------|
A|-0-----0---------|--------|-0-----0---------|--------|-0-----0---------|--------|
E|-------------3---|-3------|-------------3---|-3------|-------------3---|-3------|


E|---------------------|---------------------------------|--------|--------|-3----2---3--------3---2---|
B|---------------------|---------------------------------|--------|--------|--------------3------------|
G|-1----1----1----1----|-2---2---2---2---1---1---1---1---|--------|--------|---------------------------|
D|-2----2----2----2----|-2---2---2---2---2---2---2---2---|--------|--------|---------------------------|
A|-2----2----2----2----|-2---2---2---2---2---2---2---2---|--------|--------|---------------------------|
E|---------------------|---------------------------------|--------|--------|---------------------------|


E|-0--------0----------------|-0------0-------|--------|-3----2---3--------3---2---|
B|------0-------4----2---4---|----------------|--------|--------------3------------|
G|---------------------------|----------------|--------|---------------------------|
D|---------------------------|----------------|--------|---------------------------|
A|---------------------------|----------------|--------|---------------------------|
E|---------------------------|----------------|--------|---------------------------|


E|-0--------0----------------|-0------0-------|--------|-3----2---3--------3---2---|
B|------0-------4----2---4---|----------------|--------|--------------3------------|
G|---------------------------|----------------|--------|---------------------------|
D|---------------------------|----------------|--------|---------------------------|
A|---------------------------|----------------|--------|---------------------------|
E|---------------------------|----------------|--------|---------------------------|


E|-0--------0----------------|-0------0-------|--------|-3----2---3--------3---2---|
B|------0-------4----2---4---|----------------|--------|--------------3------------|
G|---------------------------|----------------|--------|---------------------------|
D|---------------------------|----------------|--------|---------------------------|
A|---------------------------|----------------|--------|---------------------------|
E|---------------------------|----------------|--------|---------------------------|


E|-0--------0----------------|-0------|-0------0-------|---------------------------------|
B|------0-------4----2---4---|--------|----------------|---------------------------------|
G|---------------------------|--------|----------------|---------------------------------|
D|---------------------------|--------|----------------|-----------------0---0---0---0---|
A|---------------------------|--------|----------------|-3---3---3---3---0---0---0---0---|
E|---------------------------|--------|----------------|-3---3---3---3-------------------|


E|---------------------------------|---------------------------------|---------------------------------|
B|---------------------------------|---------------------------------|---------------------------------|
G|---------------------------------|---------------------------------|---------------------------------|
D|-2---2---2---2---2---2---2---0---|-----------------0---0---0---0---|-2---2---2---2---2---2---2---0---|
A|-2---2---2---2---2---2---2---0---|-3---3---3---3---0---0---0---0---|-2---2---2---2---2---2---2---0---|
E|---------------------------------|-3---3---3---3-------------------|---------------------------------|


E|---------------------------------|---------------------------------|---------------------------------|
B|---------------------------------|---------------------------------|---------------------------------|
G|---------------------------------|---------------------------------|---------------------------------|
D|-----------------0---0---0---0---|-2---2---2---2---2---2---2---0---|-----------------0---0---0---0---|
A|-3---3---3---3---0---0---0---0---|-2---2---2---2---2---2---2---0---|-3---3---3---3---0---0---0---0---|
E|-3---3---3---3-------------------|---------------------------------|-3---3---3---3-------------------|


E|---------------------------------|---------------------------------|---------------------------------|
B|---------------------------------|---------------------------------|---------------------------------|
G|---------------------------------|---------------------------------|---------------------------------|
D|-----------------0---0---0---0---|-----------------0---0---0---0---|-2---2---2---2---2---2---2---0---|
A|-3---3---3---3---0---0---0---0---|-3---3---3---3---0---0---0---0---|-2---2---2---2---2---2---2---0---|
E|-3---3---3---3-------------------|-3---3---3---3-------------------|---------------------------------|


E|---------------------------------|---------------------------------|---------------------------------|
B|---------------------------------|---------------------------------|---------------------------------|
G|---------------------------------|---------------------------------|---------------------------------|
D|-----------------0---0---0---0---|-2---2---2---2---2---2---2---0---|-----------------0---0---0---0---|
A|-3---3---3---3---0---0---0---0---|-2---2---2---2---2---2---2---0---|-3---3---3---3---0---0---0---0---|
E|-3---3---3---3-------------------|---------------------------------|-3---3---3---3-------------------|


E|---------------------------------|---------------------------------|---------------------------------|
B|---------------------------------|---------------------------------|---------------------------------|
G|---------------------------------|---------------------------------|---------------------------------|
D|-2---2---2---2---2---2---2---0---|-----------------0---0---0---0---|-----------------0---0---0---0---|
A|-2---2---2---2---2---2---2---0---|-3---3---3---3---0---0---0---0---|-3---3---3---3---0---0---0---0---|
E|---------------------------------|-3---3---3---3-------------------|-3---3---3---3-------------------|


E|--------|---------------------|--------|---------------------|--------|---------------------|
B|--------|---------------------|--------|---------------------|--------|---------------------|
G|--------|---------------------|--------|---------------------|--------|---------------------|
D|--------|-------0-------------|--------|-------0-------------|--------|-------0-------------|
A|--------|------------4----3---|--------|------------4----3---|--------|------------4----3---|
E|-0------|-0-------------------|-0------|-0-------------------|-0------|-0-------------------|


E|--------|--------|--------|--------|--------|--------|--------|----------------|
B|--------|--------|--------|--------|--------|--------|--------|----------------|
G|--------|--------|--------|--------|--------|--------|--------|----------------|
D|--------|--------|--------|--------|--------|--------|--------|----------------|
A|--------|--------|--------|--------|--------|--------|--------|----------------|
E|-0------|-0------|-0------|-0------|-0------|-0------|-0------|-0------0-------|


E|----------------|
B|----------------|
G|----------------|
D|----------------|
A|----------------|
E|----------------|









Track 5: Bass
Back to top
G|-----|--------|--------|--------|--------|--------|--------|--------|--------|-------------|
D|-----|--------|--------|--------|--------|--------|--------|--------|--------|-------------|
A|-----|--------|--------|--------|--------|--------|--------|--------|--------|-------------|
E|-----|--------|--------|--------|--------|--------|--------|--------|--------|--------3----|


G|---------------------|------------------------|------------------------|------------------0-----0--------|
D|-----------0----0----|-2---2----2-----2---0---|-----------0---0---0----|-2---2----2----2-----2-----2--0--|
A|-3----3--------------|------------------------|-3----3-----------------|---------------------------------|
E|---------------------|------------------------|------------------------|---------------------------------|


G|---------------------|------------------------|------------------------|------------------------|
D|-----------0----0----|-2---2----2-----2---0---|-----------0---0---0----|----------0---0----0----|
A|-3----3--------------|------------------------|-3----3-----------------|-3----3-----------------|
E|---------------------|------------------------|------------------------|------------------------|


G|--------|--------|--------|--------|--------|--------|--------|--------|--------|
D|-2------|--------|-2------|--------|-2------|--------|-2------|--------|--------|
A|--------|--------|--------|--------|--------|--------|--------|--------|-0------|
E|--------|--------|--------|--------|--------|--------|--------|--------|--------|


G|--------|--------|--------|--------|--------|--------|--------|----------------|
D|--------|--------|--------|--------|--------|--------|--------|----------------|
A|-0------|--------|--------|-0------|-0------|--------|--------|-0------0---3---|
E|--------|-0------|-0------|--------|--------|-0------|-0------|----------------|


G|--------|----------------|--------|----------------|--------|--------|--------|-------------|
D|--------|----------------|--------|----------------|--------|--------|--------|-2-----0-----|
A|-3------|-0------0---3---|-3------|-0------0---3---|-3------|--------|--------|-------------|
E|--------|----------------|--------|----------------|--------|-0------|-0------|-------------|


G|-------------|-------------|-------------|-------------|-------------|-------------|
D|-------------|-2-----0-----|-------------|-2-----0-----|-------------|-2-----0-----|
A|-3-----2-----|-------------|-3-----2-----|-------------|-3-----2-----|-------------|
E|-------------|-------------|-------------|-------------|-------------|-------------|


G|-------------|-------------|-------------|-------------|-------------|-------------|
D|-------------|-2-----0-----|-------------|-2-----0-----|-------------|-2-----0-----|
A|-3-----2-----|-------------|-3-----2-----|-------------|-3-----2-----|-------------|
E|-------------|-------------|-------------|-------------|-------------|-------------|


G|-------------|-------------|-------------|--------|----------------|---------------------|
D|-------------|-2-----0-----|-------------|--------|----------------|-----------0----0----|
A|-3-----2-----|-------------|-3-----2-----|-3------|-3------3-------|-3----3--------------|
E|-------------|-------------|-------------|--------|----------------|---------------------|


G|------------------------|------------------------|------------------0-----0--------|
D|-2---2----2-----2---0---|-----------0---0---0----|-2---2----2----2-----2-----2--0--|
A|------------------------|-3----3-----------------|---------------------------------|
E|------------------------|------------------------|---------------------------------|


G|---------------------|------------------------|------------------------|------------------------|
D|-----------0----0----|-2---2----2-----2---0---|-----------0---0---0----|----------0---0----0----|
A|-3----3--------------|------------------------|-3----3-----------------|-3----3-----------------|
E|---------------------|------------------------|------------------------|------------------------|


G|---------------------|------------------------|------------------------|------------------0-----0--------|
D|-----------0----0----|-2---2----2-----2---0---|-----------0---0---0----|-2---2----2----2-----2-----2--0--|
A|-3----3--------------|------------------------|-3----3-----------------|---------------------------------|
E|---------------------|------------------------|------------------------|---------------------------------|


G|---------------------|------------------------|------------------------|------------------------|
D|-----------0----0----|-2---2----2-----2---0---|-----------0---0---0----|----------0---0----0----|
A|-3----3--------------|------------------------|-3----3-----------------|-3----3-----------------|
E|---------------------|------------------------|------------------------|------------------------|


G|--------|--------|--------|--------|--------|--------|-------------|--------|--------|
D|-2------|--------|-2------|--------|-2------|--------|-2-----2-----|-2------|-2------|
A|--------|--------|--------|--------|--------|--------|-------------|--------|--------|
E|--------|--------|--------|--------|--------|--------|-------------|--------|--------|


G|--------|--------|--------|--------|----------------|----------------|
D|-2------|-2------|-2------|-2------|-2------2-------|----------------|
A|--------|--------|--------|--------|----------------|----------------|
E|--------|--------|--------|--------|----------------|----------------|









Track 6: Effects Guitar
Back to top
E|-----|--------|--------|--------|--------|----------------|-----0---0----2----2----|
B|-----|--------|--------|--------|--------|------------0---|-0----------------------|
G|-----|--------|--------|--------|--------|----------------|------------------------|
D|-----|--------|--------|--------|--------|----------------|------------------------|
A|-----|--------|--------|--------|--------|----------------|------------------------|
E|-----|--------|--------|--------|--------|----------------|------------------------|


E|-3----3---2-----0----|-7----7----5------------|-7-----7----0-------0---|---------------------------------|
B|---------------------|---------------5----5---|------------------------|---------------------------------|
G|---------------------|------------------------|------------------------|---------0---------------0-------|
D|---------------------|------------------------|------------------------|-----2-------2---0---4-------4---|
A|---------------------|------------------------|------------------------|-3-------------------------------|
E|---------------------|------------------------|------------------------|---------------------------------|


E|------------------------------|---------------------------------|------------------------------|
B|---------0---3----0-----------|---------------------------------|---------0---3----0-----------|
G|-----0----------------0-------|---------0---------------0-------|-----0----------------0-------|
D|-2------------------------4---|-----2-------2---0---4-------4---|-2------------------------4---|
A|------------------------------|-3-------------------------------|------------------------------|
E|------------------------------|---------------------------------|------------------------------|


E|---------------------------------|------------------------------|---------------------------------|
B|---------------------------------|---------0---3----0-----------|---------------------------------|
G|---------0---------------0-------|-----0----------------0-------|---------0---------------0-------|
D|-----2-------2---0---4-------4---|-2------------------------4---|-----2-------2---0---4-------4---|
A|-3-------------------------------|------------------------------|-3-------------------------------|
E|---------------------------------|------------------------------|---------------------------------|


E|---------------------------------|--------|--------|--------|--------|--------|--------|
B|---------------------------------|--------|--------|--------|--------|--------|--------|
G|---------0---------------0-------|--------|--------|--------|--------|--------|--------|
D|-----2-------2---0---4-------4---|--------|--------|--------|--------|--------|--------|
A|-3-------------------------------|--------|--------|--------|--------|--------|--------|
E|---------------------------------|--------|--------|--------|--------|--------|--------|


E|--------|--------|-3-----2-----|-2------|-2-----0-----|-0------|-3-----2-----|-2------|
B|--------|--------|-5-----3-----|-3------|-3-----0-----|-0------|-5-----3-----|-3------|
G|--------|--------|-5-----4-----|-4------|-4-----0-----|-0------|-5-----4-----|-4------|
D|--------|--------|-------------|--------|-------------|--------|-------------|--------|
A|--------|--------|-------------|--------|-------------|--------|-------------|--------|
E|--------|--------|-------------|--------|-------------|--------|-------------|--------|


E|-2-----0-----|-0------|-0--------------|-----3----2---3---5----0---|-0-----------|
B|-3-----0-----|-0------|----------------|---------------------------|-------------|
G|-4-----0-----|-0------|----------------|---------------------------|-------------|
D|-------------|--------|----------------|---------------------------|-------------|
A|-------------|--------|----------------|---------------------------|-------------|
E|-------------|--------|----------------|---------------------------|-------------|


E|-----3----2---3--2--3--------|-------------|-----3----2---3---4---5---7---|-7------|
B|-----------------------------|-------------|------------------------------|--------|
G|-------------------------2---|-2-----------|------------------------------|--------|
D|-----------------------------|-------------|------------------------------|--------|
A|-----------------------------|-------------|------------------------------|--------|
E|-----------------------------|-------------|------------------------------|--------|


E|-0---0---0---0---0---0---0---0---|---------------------------------|---------------------------------|
B|---------------------------------|---------------------------------|---------------------------------|
G|---------------------------------|-----0---2---0-------0---2-------|---------0-----------------------|
D|---------------------------------|-2---------------0-----------0---|-----2---------------1---4-------|
A|---------------------------------|---------------------------------|-3-----------3---2-----------2---|
E|---------------------------------|---------------------------------|---------------------------------|


E|---------------------------------|---------------------------------|---------------------------------|
B|---------------------------------|---------------------------------|---------------------------------|
G|-----0---2---0-------0---2-------|---------0-----------------------|-----0---2---0-------0---2-------|
D|-2---------------0-----------0---|-----2---------------1---4-------|-2---------------0-----------0---|
A|---------------------------------|-3-----------3---2-----------2---|---------------------------------|
E|---------------------------------|---------------------------------|---------------------------------|


E|---------------------------------|---------------------------------|---------------------------------|
B|---------------------------------|---------------------------------|---------------------------------|
G|---------0-----------------------|-----0---2---0-------0---2-------|---------0-----------------------|
D|-----2---------------1---4-------|-2---------------0-----------0---|-----2---------------1---4-------|
A|-3-----------3---2-----------2---|---------------------------------|-3-----------3---2-----------2---|
E|---------------------------------|---------------------------------|---------------------------------|


E|---------------------------------|---------------------------------|---------------------------------|
B|---------------------------------|---------------------------------|---------------------------------|
G|-----0---2---0-------0---2-------|---------0-----------------------|-----0---2---0-------0---2-------|
D|-2---------------0-----------0---|-----2---------------1---4-------|-2---------------0-----------0---|
A|---------------------------------|-3-----------3---2-----------2---|---------------------------------|
E|---------------------------------|---------------------------------|---------------------------------|


E|---------------------------------|---------------------------------|---------------------------------|
B|---------------------------------|---------------------------------|---------------------------------|
G|---------0-----------------------|-----0---2---0-------0---2-------|---------0-----------------------|
D|-----2---------------1---4-------|-2---------------0-----------0---|-----2---------------1---4-------|
A|-3-----------3---2-----------2---|---------------------------------|-3-----------3---2-----------2---|
E|---------------------------------|---------------------------------|---------------------------------|


E|---------------------------------|---------------------------------|--------|----------------|
B|---------------------------------|---------------------------------|--------|----------------|
G|-----0---2---0-------0---2-------|---------0-----------------------|-0------|-0------0-------|
D|-2---------------0-----------0---|-----2---------------1---4-------|-2------|-2------2-------|
A|---------------------------------|-3-----------3---2-----------2---|-3------|-3------3---2---|
E|---------------------------------|---------------------------------|--------|----------------|


E|---------------------------------|------------------------------|---------------------------------|
B|---------------------------------|---------0---3----0-----------|---------------------------------|
G|---------0---------------0-------|-----0----------------0-------|---------0---------------0-------|
D|-----2-------2---0---4-------4---|-2------------------------4---|-----2-------2---0---4-------4---|
A|-3-------------------------------|------------------------------|-3-------------------------------|
E|---------------------------------|------------------------------|---------------------------------|


E|------------------------------|---------------------------------|------------------------------|
B|---------0---3----0-----------|---------------------------------|---------0---3----0-----------|
G|-----0----------------0-------|---------0---------------0-------|-----0----------------0-------|
D|-2------------------------4---|-----2-------2---0---4-------4---|-2------------------------4---|
A|------------------------------|-3-------------------------------|------------------------------|
E|------------------------------|---------------------------------|------------------------------|


E|---------------------------------|---------------------------------|---------------------------------|
B|---------------------------------|---------------------------------|---------------------------------|
G|---------0---------------0-------|---------0---------------0-------|---------0---------------0-------|
D|-----2-------2---0---4-------4---|-----2-------2---0---4-------4---|-----2-------2---0---4-------4---|
A|-3-------------------------------|-3-------------------------------|-3-------------------------------|
E|---------------------------------|---------------------------------|---------------------------------|


E|------------------------------|---------------------------------|------------------------------|
B|---------0---3----0-----------|---------------------------------|---------0---3----0-----------|
G|-----0----------------0-------|---------0---------------0-------|-----0----------------0-------|
D|-2------------------------4---|-----2-------2---0---4-------4---|-2------------------------4---|
A|------------------------------|-3-------------------------------|------------------------------|
E|------------------------------|---------------------------------|------------------------------|


E|---------------------------------|------------------------------|---------------------------------|
B|---------------------------------|---------0---3----0-----------|---------------------------------|
G|---------0---------------0-------|-----0----------------0-------|---------0---------------0-------|
D|-----2-------2---0---4-------4---|-2------------------------4---|-----2-------2---0---4-------4---|
A|-3-------------------------------|------------------------------|-3-------------------------------|
E|---------------------------------|------------------------------|---------------------------------|


E|---------------------------------|--------|--------|--------|--------|--------|--------|
B|---------------------------------|--------|--------|--------|--------|--------|--------|
G|---------0---------------0-------|--------|--------|--------|--------|--------|--------|
D|-----2-------2---0---4-------4---|--------|--------|--------|--------|--------|--------|
A|-3-------------------------------|--------|--------|--------|--------|--------|--------|
E|---------------------------------|--------|--------|--------|--------|--------|--------|


E|--------|--------|--------|--------|--------|--------|--------|--------|--------|
B|--------|--------|--------|--------|--------|--------|--------|--------|--------|
G|--------|--------|--------|--------|--------|--------|--------|--------|--------|
D|--------|--------|--------|--------|--------|--------|--------|--------|--------|
A|--------|--------|--------|--------|--------|--------|--------|--------|--------|
E|--------|--------|--------|--------|--------|--------|--------|--------|--------|









Track 7: Synth Strings
Back to top
E|-----|--------|--------|--------|--------|--------|-0------|-0------|-0------|-0------0-------|
B|-----|--------|--------|--------|--------|--------|--------|--------|--------|----------------|
G|-----|--------|--------|--------|--------|--------|--------|--------|--------|----------------|
D|-----|--------|--------|--------|--------|--------|-2------|-2------|-2------|-2------2-------|
A|-----|--------|--------|--------|--------|--------|--------|--------|--------|----------------|
E|-----|--------|--------|--------|--------|--------|--------|--------|--------|----------------|


E|-0------|-0------|-0------|-0------0-------|-12----14----|-15---------12--19---|
B|--------|--------|--------|----------------|-------------|-------15------------|
G|--------|--------|--------|----------------|-------------|---------------------|
D|-2------|-2------|-2------|-2------2-------|-------------|---------------------|
A|--------|--------|--------|----------------|-------------|---------------------|
E|--------|--------|--------|----------------|-------------|---------------------|


E|-------------|-------------|--------|--------|--------|--------|--------|--------|
B|-17----------|-17----19----|--------|--------|--------|--------|--------|--------|
G|-------19----|-------------|--------|--------|--------|--------|--------|--------|
D|-------------|-------------|--------|--------|--------|--------|--------|--------|
A|-------------|-------------|--------|--------|--------|--------|--------|--------|
E|-------------|-------------|--------|--------|--------|--------|--------|--------|


E|--------|--------|-3------|-3------|-3------|-3------|-3-----3-----3-----3-----3-----3-----3-----3-----|
B|--------|--------|-1------|-1------|-5------|-5------|-1-----1-----1-----1-----1-----1-----1-----1-----|
G|--------|--------|-2------|-2------|-4------|-4------|-2-----2-----2-----2-----2-----2-----2-----2-----|
D|--------|--------|--------|--------|--------|--------|-------------------------------------------------|
A|--------|--------|--------|--------|--------|--------|-------------------------------------------------|
E|--------|--------|--------|--------|--------|--------|-------------------------------------------------|


E|-3-----3-----3-----3-----3-----3-----3-----3-----|-3-----3-----3-----3-----3-----3-----3-----3-----|
B|-1-----1-----1-----1-----1-----1-----1-----1-----|-5-----5-----5-----5-----5-----5-----5-----5-----|
G|-2-----2-----2-----2-----2-----2-----2-----2-----|-4-----4-----4-----4-----4-----4-----4-----4-----|
D|-------------------------------------------------|-------------------------------------------------|
A|-------------------------------------------------|-------------------------------------------------|
E|-------------------------------------------------|-------------------------------------------------|


E|-3-----3-----3-----3-----3-----5-----3-----2-----|-------12------12----------|----------------10--8---|
B|-5-----5-----5-----5-----5-----5-----5-----5-----|-----------------------13--|-13---------13----------|
G|-4-----4-----4-----4-----4-----4-----4-----4-----|---------------------------|------------------------|
D|-------------------------------------------------|---------------------------|------------------------|
A|-------------------------------------------------|---------------------------|------------------------|
E|-------------------------------------------------|---------------------------|------------------------|


E|-------12------12----------|------------------|-------12------12----------|------------15--12--15--|
B|-----------------------13--|-13---------13----|-----------------------13--|-13---------------------|
G|---------------------------|------------------|---------------------------|------------------------|
D|---------------------------|------------------|---------------------------|------------------------|
A|---------------------------|------------------|---------------------------|------------------------|
E|---------------------------|------------------|---------------------------|------------------------|


E|-16----16------16--17--|-19----24---22---|--------|--------|--------|--------|--------|
B|-----------17----------|-----------------|--------|--------|--------|--------|--------|
G|-----------------------|-----------------|--------|--------|--------|--------|--------|
D|-----------------------|-----------------|--------|--------|--------|--------|--------|
A|-----------------------|-----------------|--------|--------|--------|--------|--------|
E|-----------------------|-----------------|--------|--------|--------|--------|--------|


E|--------|--------|--------|--------|------------7---|-12--------12------12--14--|
B|--------|--------|--------|--------|----------------|-------12------12----------|
G|--------|--------|--------|--------|----------------|---------------------------|
D|--------|--------|--------|--------|----------------|---------------------------|
A|--------|--------|--------|--------|----------------|---------------------------|
E|--------|--------|--------|--------|----------------|---------------------------|


E|-15----12--15--12--15--17--|-17-------------|----------------|-----------------------14--|
B|---------------------------|-----17-----17--|-17-----17------|-17--------17------17------|
G|---------------------------|----------------|------------16--|-------16------16----------|
D|---------------------------|----------------|----------------|---------------------------|
A|---------------------------|----------------|----------------|---------------------------|
E|---------------------------|----------------|----------------|---------------------------|


E|-15----12--15--12--15--17--|-17---------14-15-|-17----15-14-12--------|--------|
B|---------------------------|-----17-----------|------------------12---|--------|
G|---------------------------|------------------|-----------------------|--------|
D|---------------------------|------------------|-----------------------|--------|
A|---------------------------|------------------|-----------------------|--------|
E|---------------------------|------------------|-----------------------|--------|


E|--------|--------|------------12-14-|-15----14-12-10----12-14-|-12---------12-14-|
B|--------|--------|------------------|-------------------------|------------------|
G|--------|--------|------------------|-------------------------|------------------|
D|--------|--------|------------------|-------------------------|------------------|
A|--------|--------|------------------|-------------------------|------------------|
E|--------|--------|------------------|-------------------------|------------------|


E|-15----14-15-17----15-14-|-12----14-15-14----|-12-----|--------|--------|--------|
B|-------------------------|-------------------|--------|--------|--------|--------|
G|-------------------------|-------------------|--------|--------|--------|--------|
D|-------------------------|-------------------|--------|--------|--------|--------|
A|-------------------------|-------------------|--------|--------|--------|--------|
E|-------------------------|-------------------|--------|--------|--------|--------|


E|-12----14----|-15---------12--19---|-------------|-------------|--------|--------|
B|-------------|-------15------------|-17----------|-17----19----|--------|--------|
G|-------------|---------------------|-------19----|-------------|--------|--------|
D|-------------|---------------------|-------------|-------------|--------|--------|
A|-------------|---------------------|-------------|-------------|--------|--------|
E|-------------|---------------------|-------------|-------------|--------|--------|


E|--------|--------|--------|--------|--------|--------|--------|--------|--------|
B|--------|--------|--------|--------|--------|--------|--------|--------|--------|
G|--------|--------|--------|--------|--------|--------|--------|--------|--------|
D|--------|--------|--------|--------|--------|--------|--------|--------|--------|
A|--------|--------|--------|--------|--------|--------|--------|--------|--------|
E|--------|--------|--------|--------|--------|--------|--------|--------|--------|


E|--------|--------|--------|--------|
B|--------|--------|--------|--------|
G|--------|--------|--------|--------|
D|--------|--------|--------|--------|
A|--------|--------|--------|--------|
E|--------|--------|--------|--------|









Track 8: Rhodes Piano
Back to top
E|-----|--------|--------|--------|--------|-------12---14---|-12---12---14---14---|
B|-----|--------|--------|--------|--------|-----------------|---------------------|
G|-----|--------|--------|--------|--------|-----------------|---------------------|
D|-----|--------|--------|--------|--------|-----------------|---------------------|
A|-----|--------|--------|--------|--------|-----------------|---------------------|
E|-----|--------|--------|--------|--------|-----------------|---------------------|


E|-15---15---14---12---|-19---19----------------|-19----19---------------|--------|
B|---------------------|-----------20-----------|------------17------17--|--------|
G|---------------------|---------------21---21--|------------------------|--------|
D|---------------------|------------------------|------------------------|--------|
A|---------------------|------------------------|------------------------|--------|
E|---------------------|------------------------|------------------------|--------|


E|--------|--------|--------|-12----14----|-15---------12--19---|-------------|-------------|
B|--------|--------|--------|-------------|-------15------------|-17----------|-17----19----|
G|--------|--------|--------|-------------|---------------------|-------19----|-------------|
D|--------|--------|--------|-------------|---------------------|-------------|-------------|
A|--------|--------|--------|-------------|---------------------|-------------|-------------|
E|--------|--------|--------|-------------|---------------------|-------------|-------------|


E|--------|--------|--------|--------|--------|--------|--------|--------|-12----12--14----14--|
B|--------|--------|--------|--------|--------|--------|--------|--------|---------------------|
G|--------|--------|--------|--------|--------|--------|--------|--------|---------------------|
D|--------|--------|--------|--------|--------|--------|--------|--------|---------------------|
A|--------|--------|--------|--------|--------|--------|--------|--------|---------------------|
E|--------|--------|--------|--------|--------|--------|--------|--------|---------------------|


E|-15----15--14----12--|-12--------------|--------|-12----12--14----14--|-15----15--14----12--|
B|---------------------|-------12--12----|--------|---------------------|---------------------|
G|---------------------|-----------------|--------|---------------------|---------------------|
D|---------------------|-----------------|--------|---------------------|---------------------|
A|---------------------|-----------------|--------|---------------------|---------------------|
E|---------------------|-----------------|--------|---------------------|---------------------|


E|-12--------------|--------|-------12------12----------|----------------10--8---|
B|-------12--12----|--------|-----------------------13--|-13---------13----------|
G|-----------------|--------|---------------------------|------------------------|
D|-----------------|--------|---------------------------|------------------------|
A|-----------------|--------|---------------------------|------------------------|
E|-----------------|--------|---------------------------|------------------------|


E|-------12------12----------|------------------|-------12------12----------|------------15--12--15--|
B|-----------------------13--|-13---------13----|-----------------------13--|-13---------------------|
G|---------------------------|------------------|---------------------------|------------------------|
D|---------------------------|------------------|---------------------------|------------------------|
A|---------------------------|------------------|---------------------------|------------------------|
E|---------------------------|------------------|---------------------------|------------------------|


E|-16----16------16--17--|-19----24---22---|--------|--------|--------|--------|--------|
B|-----------17----------|-----------------|--------|--------|--------|--------|--------|
G|-----------------------|-----------------|--------|--------|--------|--------|--------|
D|-----------------------|-----------------|--------|--------|--------|--------|--------|
A|-----------------------|-----------------|--------|--------|--------|--------|--------|
E|-----------------------|-----------------|--------|--------|--------|--------|--------|


E|--------|--------|--------|--------|------------7---|-12--------12------12--14--|
B|--------|--------|--------|--------|----------------|-------12------12----------|
G|--------|--------|--------|--------|----------------|---------------------------|
D|--------|--------|--------|--------|----------------|---------------------------|
A|--------|--------|--------|--------|----------------|---------------------------|
E|--------|--------|--------|--------|----------------|---------------------------|


E|-15----12--15--12--15--17--|-17-------------|----------------|-----------------------14--|
B|---------------------------|-----17-----17--|-17-----17------|-17--------17------17------|
G|---------------------------|----------------|------------16--|-------16------16----------|
D|---------------------------|----------------|----------------|---------------------------|
A|---------------------------|----------------|----------------|---------------------------|
E|---------------------------|----------------|----------------|---------------------------|


E|-15----12--15--12--15--17--|-17---------14-15-|-17----15-14-12--------|--------|
B|---------------------------|-----17-----------|------------------12---|--------|
G|---------------------------|------------------|-----------------------|--------|
D|---------------------------|------------------|-----------------------|--------|
A|---------------------------|------------------|-----------------------|--------|
E|---------------------------|------------------|-----------------------|--------|


E|--------|--------|------------12-14-|-15----14-12-10----12-14-|-12---------12-14-|
B|--------|--------|------------------|-------------------------|------------------|
G|--------|--------|------------------|-------------------------|------------------|
D|--------|--------|------------------|-------------------------|------------------|
A|--------|--------|------------------|-------------------------|------------------|
E|--------|--------|------------------|-------------------------|------------------|


E|-15----14-15-17----15-14-|-12----14-15-14----|--------|--------|--------|--------|
B|-------------------------|-------------------|--------|--------|--------|--------|
G|-------------------------|-------------------|--------|--------|--------|--------|
D|-------------------------|-------------------|--------|--------|--------|--------|
A|-------------------------|-------------------|--------|--------|--------|--------|
E|-------------------------|-------------------|--------|--------|--------|--------|


E|-12----14----|-15---------12--19---|-------------|-------------|--------|--------|
B|-------------|-------15------------|-17----------|-17----19----|--------|--------|
G|-------------|---------------------|-------19----|-------------|--------|--------|
D|-------------|---------------------|-------------|-------------|--------|--------|
A|-------------|---------------------|-------------|-------------|--------|--------|
E|-------------|---------------------|-------------|-------------|--------|--------|


E|--------|--------|--------|--------|--------|--------|--------|--------|--------|
B|--------|--------|--------|--------|--------|--------|--------|--------|--------|
G|--------|--------|--------|--------|--------|--------|--------|--------|--------|
D|--------|--------|--------|--------|--------|--------|--------|--------|--------|
A|--------|--------|--------|--------|--------|--------|--------|--------|--------|
E|--------|--------|--------|--------|--------|--------|--------|--------|--------|


E|--------|--------|--------|--------|
B|--------|--------|--------|--------|
G|--------|--------|--------|--------|
D|--------|--------|--------|--------|
A|--------|--------|--------|--------|
E|--------|--------|--------|--------|









Track 9: Percussions
Back to top
C|-----|-44---44---44---44---|-44---44---44---44---|-44---44---44---44---|-44---44---44---44---|
C|-----|---------------------|------54--------54---|------54--------54---|------54--------54---|
C|-----|---------------------|---------------------|---------------------|---------------------|
C|-----|---------------------|---------------------|---------------------|---------------------|
C|-----|---------------------|---------------------|---------------------|---------------------|
C|-----|---------------------|---------------------|---------------------|---------------------|


C|-46---46---46---46---|-36---51---51---51---|-51---51---51---51---|-36---51---51---51---|
C|------54--------54---|-51---54--------54---|------54--------54---|-51---54--------54---|
C|---------------------|---------------------|---------------------|---------------------|
C|---------------------|---------------------|---------------------|---------------------|
C|---------------------|---------------------|---------------------|---------------------|
C|---------------------|---------------------|---------------------|---------------------|


C|-36---51---36---36---|-36-54-54-54-38-54-54-54-36-54-36-54-38-54-54-54-|-36-54-54-54-38-54-36-54-36-54-54-54-38-54-54-36-|
C|-51---54---52---52---|-46----------46----------46----46----46----------|-46----------46----46----46----------46-------54-|
C|----------------54---|-49----------54----------54----54----54----------|-54----------54----54----54----------54----------|
C|---------------------|-54----------------------------------------------|-------------------------------------------------|
C|---------------------|-------------------------------------------------|-------------------------------------------------|
C|---------------------|-------------------------------------------------|-------------------------------------------------|


C|-36-54-54-54-38-54-54-54-36-54-36-54-38-54-54-54-|-36-54-36-54-38-54-46-54-54-38-36-54-36-54-38-36-|
C|-46----------46----------46----46----46----------|-46----54----46----49-------54-54----38----54-38-|
C|-54----------54----------54----54----54----------|-54----------54----54----------------46-------54-|
C|-------------------------------------------------|-------------------------------------54----------|
C|-------------------------------------------------|-------------------------------------------------|
C|-------------------------------------------------|-------------------------------------------------|


C|-36-54-54-54-38-54-54-54-36-54-36-54-38-54-54-54-|-36-54-54-54-38-54-36-54-36-54-54-54-38-54-54-36-|
C|-46----------46----------46----46----46----------|-46----------46----46----46----------46-------54-|
C|-49----------54----------54----54----54----------|-54----------54----54----54----------54----------|
C|-54----------------------------------------------|-------------------------------------------------|
C|-------------------------------------------------|-------------------------------------------------|
C|-------------------------------------------------|-------------------------------------------------|


C|-36-54-54-54-38-54-54-54-36-54-36-54-38-54-54-54-|-36-54-36-54-38-54-36-54-36-48-38-45-36-38-38-38-38-38-|
C|-46----------46----------46----46----46----------|-46----54----46----46----54-54-47-46-38-------54-------|
C|-54----------54----------54----54----54----------|-54----------54----54----------54-54-42----------------|
C|-------------------------------------------------|-------------------------------------54----------------|
C|-------------------------------------------------|-------------------------------------------------------|
C|-------------------------------------------------|-------------------------------------------------------|


C|-36---38---36--36--38---|-36---38--36--36---38---36-|-36---38---36--36--38---|-36--36--38--36--36-48-38-45-36-38-38-38-38-38-|
C|-46---46---46--46--46---|-46---46--46--46---46------|-46---46---46--46--46---|-46------46--46--------47-46-38----------------|
C|-49---54-----------54---|-49---54-----------54------|-49---54-----------54---|-49------54------------------42----------------|
C|------------------------|---------------------------|------------------------|-----------------------------54----------------|
C|------------------------|---------------------------|------------------------|-----------------------------------------------|
C|------------------------|---------------------------|------------------------|-----------------------------------------------|


C|-36---38---36--36--38---|-36---38--36-38-36--38--46-38-49-36-|-36---38---36--36--38---|
C|-46---46---46--46--46---|-46---46--46----46--49--54----------|-46---46---46--46--46---|
C|-49---54-----------54---|-49---54--49------------------------|-49---54-----------54---|
C|------------------------|------------------------------------|------------------------|
C|------------------------|------------------------------------|------------------------|
C|------------------------|------------------------------------|------------------------|


C|-36---38---36--36--38---|-36--42--38--42--36--36--38--42--|-36--42--38--36--36--36--38--42--|
C|-46---46---46--46--46---|-42------42------42--42--42------|-42------42--42--42--42--46------|
C|-49---54-----------54---|-49------------------------------|---------------------------------|
C|------------------------|---------------------------------|---------------------------------|
C|------------------------|---------------------------------|---------------------------------|
C|------------------------|---------------------------------|---------------------------------|


C|-36--42--38--42--36--36--38--42--|-36--42--38--36--36--36--38--42--|-36--42--38--42--36--36--38--42--|
C|-42------42------42--42--42------|-42------42--42--42--42--46------|-42------42------42--42--42------|
C|---------------------------------|---------------------------------|-49------------------------------|
C|---------------------------------|---------------------------------|---------------------------------|
C|---------------------------------|---------------------------------|---------------------------------|
C|---------------------------------|---------------------------------|---------------------------------|


C|-36--42--38--36--36--36--38--42--|-36--42--38--42--36--36--38--42--|-36---38--36--46-38-36--38--38-38-|
C|-42------42--42--42--42--46------|-42------42------42--42--42------|-46---46----------------46--------|
C|---------------------------------|---------------------------------|----------------------------------|
C|---------------------------------|---------------------------------|----------------------------------|
C|---------------------------------|---------------------------------|----------------------------------|
C|---------------------------------|---------------------------------|----------------------------------|


C|-36---51--36--36--38--51---|-36---38---36---38--38-38-|-36---51--36--36--38--51--36--|
C|-49---54------51------54---|-51---51---51---51--------|-49---54------51------54--49--|
C|---------------------------|------54--------54--------|------------------------------|
C|---------------------------|--------------------------|------------------------------|
C|---------------------------|--------------------------|------------------------------|
C|---------------------------|--------------------------|------------------------------|


C|-51--36--38--36--36-38-36--36--41-41-|-36---51--36--36--4545454541--49--|-----36--38---36--36--38---|
C|---------51------51--------38--------|-49---54------51----------51------|---------51---51------51---|
C|---------54----------------51--------|--------------------------54------|---------54-----------54---|
C|---------------------------54--------|----------------------------------|---------------------------|
C|-------------------------------------|----------------------------------|---------------------------|
C|-------------------------------------|----------------------------------|---------------------------|


C|-36---38---36--36--51--45454545|-36--36--36--36--36--36--36--38-38-|-36-54-54-54-38--54-54-36-54-36-54-38--54-54-|
C|-49---51---51------54----------|-41--41--41--41--38--38--38--------|-44----------42--------42----42----42--------|
C|------54-----------------------|-----------------------------------|-49----------54--------54----54----54--------|
C|-------------------------------|-----------------------------------|-54------------------------------------------|
C|-------------------------------|-----------------------------------|---------------------------------------------|
C|-------------------------------|-----------------------------------|---------------------------------------------|


C|-36-54-54-54-38--54-54-36-54-36-54-38--54-54-|-36-54-54-54-38--36-54-36-54-36-54-38--54-54-|
C|-44----------42--------42----42----42--------|-44----------42--42----42----42----42--------|
C|-54----------54--------54----54----54--------|-54----------54--54----54----54----54--------|
C|---------------------------------------------|---------------------------------------------|
C|---------------------------------------------|---------------------------------------------|
C|---------------------------------------------|---------------------------------------------|


C|-36-54-54-54-38--36-54-36-54-36-54-38--38-38-|-36-54-54-54-38--54-54-36-54-54-54-38--54-54-|
C|-44----------42--42----42----42----42--54-54-|-44----------42--------42----------42--------|
C|-54----------54--54----54----54----54--------|-49----------54--------54----------54--------|
C|---------------------------------------------|-54------------------------------------------|
C|---------------------------------------------|---------------------------------------------|
C|---------------------------------------------|---------------------------------------------|


C|-36-54-42-54-38--46-54-36-54-36-54-38--42-54-|-36-54-54-54-38--36-54-36-54-36-54-38--36-54-|
C|-44----54----42--54----42----42----42--54----|-54----------54--54----54----54----54--54----|
C|-54----------54--------54----54----54--------|---------------------------------------------|
C|---------------------------------------------|---------------------------------------------|
C|---------------------------------------------|---------------------------------------------|
C|---------------------------------------------|---------------------------------------------|


C|-36-54-36-54-38--49-54-36-47-45-54-36-47-41-41-|-36-54-54-54-38--54-54-36-54-36-54-38--54-54-|
C|-54----54----54--54----54-54-54----47----54-54-|-44----------42--------42----42----42--------|
C|-----------------------------------54----------|-49----------54--------54----54----54--------|
C|-----------------------------------------------|-54------------------------------------------|
C|-----------------------------------------------|---------------------------------------------|
C|-----------------------------------------------|---------------------------------------------|


C|-36-54-54-54-38--54-54-36-54-36-54-38--54-54-|-36-54-54-54-38--36-54-36-54-36-54-38--54-54-|
C|-44----------42--------42----42----42--------|-44----------42--42----42----42----42--------|
C|-54----------54--------54----54----54--------|-54----------54--54----54----54----54--------|
C|---------------------------------------------|---------------------------------------------|
C|---------------------------------------------|---------------------------------------------|
C|---------------------------------------------|---------------------------------------------|


C|-36-54-54-54-38--36-54-36-54-36-54-38--38-38-|-36-54-54-54-38--36-54-36-54-54-54-38--36-54-|
C|-44----------42--42----42----42----42--54-54-|-44----------42--54----42----------42--54----|
C|-54----------54--54----54----54----54--------|-49----------54--------54----------54--------|
C|---------------------------------------------|-54------------------------------------------|
C|---------------------------------------------|---------------------------------------------|
C|---------------------------------------------|---------------------------------------------|


C|-54-54-36-54-38--44-54-36-54-36-54-38--44-54-|-36-54-44-54-38--36-54-44-54-54-54-38--36-54-|
C|-------44----44--54----44----44----44--54----|-44----54----44--54----54----------44--44----|
C|-------54----54--------54----54----54--------|-54----------54--------------------54--54----|
C|---------------------------------------------|---------------------------------------------|
C|---------------------------------------------|---------------------------------------------|
C|---------------------------------------------|---------------------------------------------|


C|-44-54-36-54-36--5050505036484848474747473645454545454545|-36---38--36--51--36--38---|
C|-54----44----38--54--54--48--54--54--54--38------54--54--|-49------------------------|
C|-------54----54----------54--------------54--------------|---------------------------|
C|---------------------------------------------------------|---------------------------|
C|---------------------------------------------------------|---------------------------|
C|---------------------------------------------------------|---------------------------|


C|-36---38--36------36--38------|-36-54-54-54-38-54-54-54-36-54-36-54-38-54-54-54-|
C|-51-------------------38------|-46----------46----------46----46----46----------|
C|------------------------------|-49----------54----------54----54----54----------|
C|------------------------------|-54----------------------------------------------|
C|------------------------------|-------------------------------------------------|
C|------------------------------|-------------------------------------------------|


C|-36-54-54-54-38-54-36-54-36-54-54-54-38-54-54-36-|-36-54-54-54-38-54-54-54-36-54-36-54-38-54-54-54-|
C|-46----------46----46----46----------46-------54-|-46----------46----------46----46----46----------|
C|-54----------54----54----54----------54----------|-54----------54----------54----54----54----------|
C|-------------------------------------------------|-------------------------------------------------|
C|-------------------------------------------------|-------------------------------------------------|
C|-------------------------------------------------|-------------------------------------------------|


C|-36-54-36-54-38-54-46-54-54-38-36-54-36-54-38-36-|-36-54-54-54-38-54-54-54-36-54-36-54-38-54-54-54-|
C|-46----54----46----49-------54-54----38----54-38-|-46----------46----------46----46----46----------|
C|-54----------54----54----------------46-------54-|-49----------54----------54----54----54----------|
C|-------------------------------------54----------|-54----------------------------------------------|
C|-------------------------------------------------|-------------------------------------------------|
C|-------------------------------------------------|-------------------------------------------------|


C|-36-54-54-54-38-54-36-54-36-54-54-54-38-54-54-36-|-36-54-54-54-38-54-54-54-36-54-36-54-38-54-54-54-|
C|-46----------46----46----46----------46-------54-|-46----------46----------46----46----46----------|
C|-54----------54----54----54----------54----------|-54----------54----------54----54----54----------|
C|-------------------------------------------------|-------------------------------------------------|
C|-------------------------------------------------|-------------------------------------------------|
C|-------------------------------------------------|-------------------------------------------------|


C|-36-54-36-54-38-54-36-54-36-48-38-45-36-38-38-38-38-38-|-36-54-54-54-38-54-54-54-36-54-36-54-38-54-54-54-|
C|-46----54----46----49----54-54-47-46-38-------54-------|-46----------46----------46----46----46----------|
C|-54----------54----54----------54-54-42----------------|-49----------54----------54----54----54----------|
C|-------------------------------------54----------------|-54----------------------------------------------|
C|-------------------------------------------------------|-------------------------------------------------|
C|-------------------------------------------------------|-------------------------------------------------|


C|-36-54-54-54-38-54-36-54-36-54-54-54-38-54-54-36-|-36-54-54-54-38-54-54-54-36-54-36-54-38-54-54-54-|
C|-46----------46----46----46----------46-------54-|-46----------46----------46----46----46----------|
C|-54----------54----54----54----------54----------|-54----------54----------54----54----54----------|
C|-------------------------------------------------|-------------------------------------------------|
C|-------------------------------------------------|-------------------------------------------------|
C|-------------------------------------------------|-------------------------------------------------|


C|-36-54-36-54-38-54-46-54-54-38-36-54-36-54-38-36-|-36-54-54-54-38-54-54-54-36-54-36-54-38-54-54-54-|
C|-46----54----46----49-------54-54----38----54-38-|-46----------46----------46----46----46----------|
C|-54----------54----54----------------46-------54-|-49----------54----------54----54----54----------|
C|-------------------------------------54----------|-54----------------------------------------------|
C|-------------------------------------------------|-------------------------------------------------|
C|-------------------------------------------------|-------------------------------------------------|


C|-36-54-54-54-38-54-36-54-36-54-54-54-38-54-54-36-|-36-54-54-54-38-54-54-54-36-54-36-54-38-54-54-54-|
C|-46----------46----46----46----------46-------54-|-46----------46----------46----46----46----------|
C|-54----------54----54----54----------54----------|-54----------54----------54----54----54----------|
C|-------------------------------------------------|-------------------------------------------------|
C|-------------------------------------------------|-------------------------------------------------|
C|-------------------------------------------------|-------------------------------------------------|


C|-36-54-36-54-38-54-36-54-36-48-38-45-36-38-38-38-38-38-|-36---38---36--36--38---|
C|-46----54----46----46----54-54-47-46-38-------54-------|-46---46---46--46--46---|
C|-54----------54----54----------54-54-42----------------|-49---54-----------54---|
C|-------------------------------------54----------------|------------------------|
C|-------------------------------------------------------|------------------------|
C|-------------------------------------------------------|------------------------|


C|-36---38--36--36---38---36-|-36---38---36--36--38---|-36--36--38--36--36-48-38-45-36-38-38-38-38-38-|
C|-46---46--46--46---46------|-46---46---46--46--46---|-46------46--46--------47-46-38----------------|
C|-49---54-----------54------|-49---54-----------54---|-49------54------------------42----------------|
C|---------------------------|------------------------|-----------------------------54----------------|
C|---------------------------|------------------------|-----------------------------------------------|
C|---------------------------|------------------------|-----------------------------------------------|


C|-36---38---36--36--38---|-36---38--36-38-36--38--46-38-49-36-|-36---38---36--36--36--36--|
C|-46---46---46--46--46---|-46---46--46----46--49--54----------|-46---46---41--41--38--46--|
C|-49---54-----------54---|-49---54--49------------------------|-49---54---46--46--41--49--|
C|------------------------|------------------------------------|-------------------46------|
C|------------------------|------------------------------------|---------------------------|
C|------------------------|------------------------------------|---------------------------|


C|--------|--------|--------|--------|--------|--------|--------|--------|
C|--------|--------|--------|--------|--------|--------|--------|--------|
C|--------|--------|--------|--------|--------|--------|--------|--------|
C|--------|--------|--------|--------|--------|--------|--------|--------|
C|--------|--------|--------|--------|--------|--------|--------|--------|
C|--------|--------|--------|--------|--------|--------|--------|--------|



← Back to top