Z.I.T.O.

by Angra

Guitar Pro Tab  |  v3.00  |  Posted on March 29, 2007, 10:57 a.m. ← Back

Guitar Pro Tab Summary

Album

Holy Land

Song Author

Angra

Tabbed by

unknown

Instruments

1st → Guitar Solo 1
2nd → Recorder
3rd → Guitar Solo 2
4th → Bassa 2
5th → Drumssi´┐Żn
6th → Rythym Guitar
7th → Trombone
8th → Leada 4
9th → Strings 1
10th → Timpani
11th → Brass 9
12th → Strings 2

File Size

123 KB

Views

1,533






Related guitar pro tabs

Tablature Sheet

Title: Z.I.T.O.
Artist: Angra
Album: Holy Land
Author: Angra






Track 1: Bass
Back to top
C|-------------|-----------------|--------------------|-----------------|--------|
G|-------------|-----------------|--------------------|-----------------|--------|
D|-------------|-----------------|--------------------|-----------------|--------|
A|-2-----------|-------------2---|-2--2----2----------|-------0---------|--------|
E|-------------|-----------------|--------------------|-----------------|--------|
B|-------------|-----------------|--------------------|-----------------|--------|


C|--------|-------------------------------------------------|-------------------------------------------------|
G|--------|-------------------------------------------------|-------------------------------------------------|
D|--------|-------------------------------------------------|-------------------------------------------------|
A|--------|-2--2--2--2--2--2--2--2--2--2--2--2--2--2--2--2--|-2--2--2--2--2--2--2--2--2--2--2--2--2--2--2--2--|
E|--------|-------------------------------------------------|-------------------------------------------------|
B|--------|-------------------------------------------------|-------------------------------------------------|


C|-----------------------------------------------|-----------------------------------------|
G|-----------------------------------------------|-----------------------------------------|
D|-----------------------------------------------|-0---0--0--0--0--0-----------------------|
A|-2---2--2--2--2--2--2--2--2--2--2--2--2--2--2--|---------------------4---4--4--4--4--4---|
E|-----------------------------------------------|-----------------------------------------|
B|-----------------------------------------------|-----------------------------------------|


C|-----------------------------------------------|-------------------------------|
G|-----------------------------------------------|-------------------------------|
D|-----------------------------------------------|-------------------------------|
A|-2---2--2--2--2--2--2--2--2--2--2--2--2--2--2--|-0---0--0--0--0--0--------0----|
E|-----------------------------------------------|---------------------4---------|
B|-----------------------------------------------|-------------------------------|


C|-----------------------------------------------|-----------------------------------------|
G|-----------------------------------------------|-----------------------------------------|
D|-----------------------------------------------|-0---0--0--0--0--0-----------------------|
A|-2---2--2--2--2--2--2--2--2--2--2--2--2--2--2--|---------------------4---4--4--4--4--4---|
E|-----------------------------------------------|-----------------------------------------|
B|-----------------------------------------------|-----------------------------------------|


C|-----------------------------------------|---------------------------------|-----------------------------------------------|
G|-----------------------------------------|---------------------------------|-----------------------------------------------|
D|-----------------------------------------|-----------------------0---------|-----------------------------------------------|
A|-----------------------------------------|----------------------------4----|-2---2--2--2--2--2--2--2--2--2--2--2--2--2--2--|
E|-3---3--3--3--3--3---3--3--3---3--3--3---|-2---2--2--2--2--2--2------------|-----------------------------------------------|
B|-----------------------------------------|---------------------------------|-----------------------------------------------|


C|-----------------------------------------|-----------------------------------------------|
G|-----------------------------------------|-----------------------------------------------|
D|-0---0--0--0--0--0-----------------------|-----------------------------------------------|
A|---------------------4---4--4--4--4--4---|-2---2--2--2--2--2--2--2--2--2--2--2--2--2--2--|
E|-----------------------------------------|-----------------------------------------------|
B|-----------------------------------------|-----------------------------------------------|


C|-------------------------------|-----------------------------------------------|
G|-------------------------------|-----------------------------------------------|
D|-------------------------------|-----------------------------------------------|
A|-0---0--0--0--0--0--------0----|-2---2--2--2--2--2--2--2--2--2--2--2--2--2--2--|
E|---------------------4---------|-----------------------------------------------|
B|-------------------------------|-----------------------------------------------|


C|-----------------------------------------|-------------------------------------------------|
G|-----------------------------------------|-------------------------------------------------|
D|-0---0--0--0--0--0-----------------------|-------------------------------------------------|
A|---------------------4---4--4--4--4--4---|-------------------------------------------------|
E|-----------------------------------------|-3--3--3--3--3--3--3--3--3--3--3--3--3--3--3--3--|
B|-----------------------------------------|-------------------------------------------------|


C|-------------------------------------------------|-----------------------------------------|
G|-------------------------------------------------|-----------------------------------------|
D|-------------------------------------------------|-0---0--0--0--0--0---0---0--0--0--0--0---|
A|-------------------------------------------------|-----------------------------------------|
E|-2--2--2--2--2--2--2--2--2--2--2--2--2--2--2--2--|-----------------------------------------|
B|-------------------------------------------------|-----------------------------------------|


C|-----------------------------------------|-----------------------------------------|
G|-----------------------------------------|-----------------------------------------|
D|-----------------------------------------|-----------------------------------------|
A|-4---4--4--4--4--4---4---4--4--4--4--4---|-----------------------------------------|
E|-----------------------------------------|-0---0--0--0--0--0---0---0--0--0--0--0---|
B|-----------------------------------------|-----------------------------------------|


C|-----------------------------------------|-------------------------------------|
G|-----------------------------------------|-------------------------------------|
D|-1---1--1--1--1--1---1---1--1--1--1--1---|-------------------------------------|
A|-----------------------------------------|-------------------------------------|
E|-----------------------------------------|-3---3--3--3--3--3---3---3---3---3---|
B|-----------------------------------------|-------------------------------------|


C|-------------------------------------|---------------------------------------|---------------------------------------|
G|-------------------------------------|---------------------------------------|---------------------------------------|
D|-------------------------------------|-------------------------------2-------|---------------------------------------|
A|-------------------------------------|-3--3--3--3--3--3--3---3---3-------3---|-0--0--0--0--0--0--0---0---0---2---4---|
E|-3---3--3--3--3--3---3---3---3---3---|---------------------------------------|---------------------------------------|
B|-------------------------------------|---------------------------------------|---------------------------------------|


C|-----------------------------------------|-----------------------------------------|
G|-----------------------------------------|-----------------------------------------|
D|-0---0--0--0--0--0---0---0--0--0--0--0---|-----------------------------------------|
A|-----------------------------------------|-4---4--4--4--4--4---4---4--4--4--4--4---|
E|-----------------------------------------|-----------------------------------------|
B|-----------------------------------------|-----------------------------------------|


C|-----------------------------------------|-----------------------------------------|
G|-----------------------------------------|-----------------------------------------|
D|-----------------------------------------|-1---1--1--1--1--1---1---1--1--1--1--1---|
A|-----------------------------------------|-----------------------------------------|
E|-0---0--0--0--0--0---0---0--0--0--0--0---|-----------------------------------------|
B|-----------------------------------------|-----------------------------------------|


C|-------------------------------------|-------------------------------------|-------------------------------------|
G|-------------------------------------|-------------------------------------|-------------------------------------|
D|-------------------------------------|-------------------------------------|-------------------------------------|
A|-------------------------------------|-------------------------------------|-------------------------------------|
E|-3---3--3--3--3--3---3---3---3---3---|-3---3--3--3--3--3---3---3---3---3---|-3---3--3--3--3--3---3---3---3---3---|
B|-------------------------------------|-------------------------------------|-------------------------------------|


C|--------------------------|-----------------------------------------------|-----------------------------------------|
G|----------------0---------|-----------------------------------------------|-----------------------------------------|
D|-----------2--------------|-----------------------------------------------|-0---0--0--0--0--0-----------------------|
A|-1----4-------------------|-2---2--2--2--2--2--2--2--2--2--2--2--2--2--2--|---------------------4---4--4--4--4--4---|
E|--------------------------|-----------------------------------------------|-----------------------------------------|
B|--------------------------|-----------------------------------------------|-----------------------------------------|


C|-----------------------------------------------|-------------------------------|
G|-----------------------------------------------|-------------------------------|
D|-----------------------------------------------|-------------------------------|
A|-2---2--2--2--2--2--2--2--2--2--2--2--2--2--2--|-0---0--0--0--0--0--------0----|
E|-----------------------------------------------|---------------------4---------|
B|-----------------------------------------------|-------------------------------|


C|-----------------------------------------------|-----------------------------------------|
G|-----------------------------------------------|-----------------------------------------|
D|-----------------------------------------------|-0---0--0--0--0--0-----------------------|
A|-2---2--2--2--2--2--2--2--2--2--2--2--2--2--2--|---------------------4---4--4--4--4--4---|
E|-----------------------------------------------|-----------------------------------------|
B|-----------------------------------------------|-----------------------------------------|


C|-----------------------------------------|---------------------------------|-----------------------------------------------|
G|-----------------------------------------|---------------------------------|-----------------------------------------------|
D|-----------------------------------------|-----------------------0---------|-----------------------------------------------|
A|-----------------------------------------|----------------------------4----|-2---2--2--2--2--2--2--2--2--2--2--2--2--2--2--|
E|-3---3--3--3--3--3---3--3--3---3--3--3---|-2---2--2--2--2--2--2------------|-----------------------------------------------|
B|-----------------------------------------|---------------------------------|-----------------------------------------------|


C|-----------------------------------------|-----------------------------------------------|
G|-----------------------------------------|-----------------------------------------------|
D|-0---0--0--0--0--0-----------------------|-----------------------------------------------|
A|---------------------4---4--4--4--4--4---|-2---2--2--2--2--2--2--2--2--2--2--2--2--2--2--|
E|-----------------------------------------|-----------------------------------------------|
B|-----------------------------------------|-----------------------------------------------|


C|-------------------------------|-----------------------------------------------|
G|-------------------------------|-----------------------------------------------|
D|-------------------------------|-----------------------------------------------|
A|-0---0--0--0--0--0--------0----|-2---2--2--2--2--2--2--2--2--2--2--2--2--2--2--|
E|---------------------4---------|-----------------------------------------------|
B|-------------------------------|-----------------------------------------------|


C|-----------------------------------------|-------------------------------------------------|
G|-----------------------------------------|-------------------------------------------------|
D|-0---0--0--0--0--0-----------------------|-------------------------------------------------|
A|---------------------4---4--4--4--4--4---|-------------------------------------------------|
E|-----------------------------------------|-3--3--3--3--3--3--3--3--3--3--3--3--3--3--3--3--|
B|-----------------------------------------|-------------------------------------------------|


C|-------------------------------------------------|-----------------------------------------|
G|-------------------------------------------------|-----------------------------------------|
D|-------------------------------------------------|-0---0--0--0--0--0---0---0--0--0--0--0---|
A|-------------------------------------------------|-----------------------------------------|
E|-2--2--2--2--2--2--2--2--2--2--2--2--2--2--2--2--|-----------------------------------------|
B|-------------------------------------------------|-----------------------------------------|


C|-----------------------------------------|-----------------------------------------|
G|-----------------------------------------|-----------------------------------------|
D|-----------------------------------------|-----------------------------------------|
A|-4---4--4--4--4--4---4---4--4--4--4--4---|-----------------------------------------|
E|-----------------------------------------|-0---0--0--0--0--0---0---0--0--0--0--0---|
B|-----------------------------------------|-----------------------------------------|


C|-----------------------------------------|-------------------------------------|
G|-----------------------------------------|-------------------------------------|
D|-1---1--1--1--1--1---1---1--1--1--1--1---|-------------------------------------|
A|-----------------------------------------|-------------------------------------|
E|-----------------------------------------|-3---3--3--3--3--3---3---3---3---3---|
B|-----------------------------------------|-------------------------------------|


C|-------------------------------------|---------------------------------------|---------------------------------------|
G|-------------------------------------|---------------------------------------|---------------------------------------|
D|-------------------------------------|-------------------------------2-------|---------------------------------------|
A|-------------------------------------|-3--3--3--3--3--3--3---3---3-------3---|-0--0--0--0--0--0--0---0---0---2---4---|
E|-3---3--3--3--3--3---3---3---3---3---|---------------------------------------|---------------------------------------|
B|-------------------------------------|---------------------------------------|---------------------------------------|


C|-----------------------------------------|-----------------------------------------|
G|-----------------------------------------|-----------------------------------------|
D|-0---0--0--0--0--0---0---0--0--0--0--0---|-----------------------------------------|
A|-----------------------------------------|-4---4--4--4--4--4---4---4--4--4--4--4---|
E|-----------------------------------------|-----------------------------------------|
B|-----------------------------------------|-----------------------------------------|


C|-----------------------------------------|-----------------------------------------|
G|-----------------------------------------|-----------------------------------------|
D|-----------------------------------------|-1---1--1--1--1--1---1---1--1--1--1--1---|
A|-----------------------------------------|-----------------------------------------|
E|-0---0--0--0--0--0---0---0--0--0--0--0---|-----------------------------------------|
B|-----------------------------------------|-----------------------------------------|


C|-------------------------------------|-------------------------------------|-------------------------------------------------|
G|-------------------------------------|-------------------------------------|-------------------------------------------------|
D|-------------------------------------|-------------------------------------|-------------------------------------------------|
A|-------------------------------------|-------------------------------------|-------------------------------------------------|
E|-3---3--3--3--3--3---3---3---3---3---|-3---3--3--3--3--3---3---3---3---3---|-1---1---1---1---1---1---1---1---1---1---1---1---|
B|-------------------------------------|-------------------------------------|-------------------------------------------------|


C|----------------------|-------------------------------------------------|-------------------------------------------------|
G|----------------------|-------------------------------------------------|-------------------------------------------------|
D|----------------------|-------------------------------------------------|-------------------------------------------------|
A|----------------------|-0--0--0--0--0--0--0--0--0--0--0--0--0--0--0--0--|-------------------------------------------------|
E|-1----1----1----------|-------------------------------------------------|-1--1--1--1--1--1--1--1--1--1--1--1--1--1--1--1--|
B|----------------------|-------------------------------------------------|-------------------------------------------------|


C|-------------------------------------------------|-------------------------------------------------|
G|-------------------------------------------------|-------------------------------------------------|
D|-------------------------------------------------|-------------------------------------------------|
A|-3--3--3--3--3--3--3--3--3--3--3--3--3--3--3--3--|-------------------------------------------------|
E|-------------------------------------------------|-3--3--3--3--3--3--3--3--0--0--0--0--0--0--0--0--|
B|-------------------------------------------------|-------------------------------------------------|


C|-------------------------------------------------|-------------------------------------------------|
G|-------------------------------------------------|-------------------------------------------------|
D|-------------------------------------------------|-------------------------------------------------|
A|-0--0--0--0--0--0--0--0--0--0--0--0--0--0--0--0--|-------------------------------------------------|
E|-------------------------------------------------|-1--1--1--1--1--1--1--1--1--1--1--1--1--1--1--1--|
B|-------------------------------------------------|-------------------------------------------------|


C|-------------------------------------------------|-------------------------------------------------|
G|-------------------------------------------------|-------------------------------------------------|
D|-------------------------------------------------|-3--3--3--3--2--2--2--2--0--0--0--0--------------|
A|-1--1--1--1--1--1--1--1--1--1--1--1--1--1--1--1--|-------------------------------------3--3--3--3--|
E|-------------------------------------------------|-------------------------------------------------|
B|-------------------------------------------------|-------------------------------------------------|


C|-------------------------------------------------|-------------------------------------------------|
G|-------------------------------------------------|-------------------------------------------------|
D|-------------------------------------------------|-------------------------------------------------|
A|-0--0--0--0--0--0--0--0--0--0--0--0--0--0--0--0--|-------------------------------------------------|
E|-------------------------------------------------|-1--1--1--1--1--1--1--1--1--1--1--1--1--1--1--1--|
B|-------------------------------------------------|-------------------------------------------------|


C|-------------------------------------------------|-------------------------------------------------|
G|-------------------------------------------------|-------------------------------------------------|
D|-------------------------------------------------|-------------------------------------------------|
A|-3--3--3--3--3--3--3--3--3--3--3--3--3--3--3--3--|-------------------------------------------------|
E|-------------------------------------------------|-3--3--3--3--3--3--3--3--0--0--0--0--0--0--0--0--|
B|-------------------------------------------------|-------------------------------------------------|


C|-------------------------------------------------|-------------------------------------------------|
G|-------------------------------------------------|-------------------------------------------------|
D|-------------------------------------------------|-------------------------------------------------|
A|-0--0--0--0--0--0--0--0--0--0--0--0--0--0--0--0--|-------------------------------------------------|
E|-------------------------------------------------|-1--1--1--1--1--1--1--1--1--1--1--1--1--1--1--1--|
B|-------------------------------------------------|-------------------------------------------------|


C|-------------------------------------------------|-------------------------------------------------|
G|-------------------------------------------------|-------------------------------------------------|
D|-------------------------------------------------|-------------------------------------------------|
A|-1--1--1--1--1--1--1--1--1--1--1--1--1--1--1--1--|-1--1--1--1--1--1--1--1--3--3--3--3--3--3--3--3--|
E|-------------------------------------------------|-------------------------------------------------|
B|-------------------------------------------------|-------------------------------------------------|


C|--------|--------|--------|--------|--------|--------|-------------------------------|
G|-2------|-2------|-2------|-2------|-2------|-4------|-------------------------------|
D|--------|--------|--------|--------|--------|--------|-------------------------------|
A|-0------|-0------|-0------|-0------|-0------|-2------|-2-2-----2-----2-2-------------|
E|--------|--------|--------|--------|--------|--------|-------------------------------|
B|--------|--------|--------|--------|--------|--------|-------------------------------|


C|--------|-----------------------------------|-------------------------------------------|
G|-4------|-----------------------------------|-------------------------------------------|
D|--------|-----------------------------------|-------------------------------------------|
A|-2------|-2-2-----2-----2-2-----2-----------|-2-2-----2-----2-2----2-2-----2-----2-2----|
E|--------|-----------------------------------|-------------------------------------------|
B|--------|-----------------------------------|-------------------------------------------|


C|-------------------------------------------|-------------------------------------------|
G|-------------------------------------------|-------------------------------------------|
D|-------------------------------------------|-------------------------------------------|
A|-2-2-----2-----2-2----2-2-----2-----2-2----|-2-2-----2-----2-2----2-2-----2-----2-2----|
E|-------------------------------------------|-------------------------------------------|
B|-------------------------------------------|-------------------------------------------|


C|-------------------------------------------|-------------------------------------------|
G|-------------------------------------------|-------------------------------------------|
D|-------------------------------------------|-------------------------------------------|
A|-2-2-----2-----2-2----2-2-----2-----2-2----|-2-2---2-2-------2----2-2---2-2-------2----|
E|-------------------------------------------|-------------------------------------------|
B|-------------------------------------------|-------------------------------------------|


C|-------------------------------------------|-------------------------------------------|
G|-------------------------------------------|-------------------------------------------|
D|-------------------------------------------|-------------------------------------------|
A|-2-2---2-2-------2----2-2---2-2-------2----|-2-2---2-2-------2----2-2---2-2-------2----|
E|-------------------------------------------|-------------------------------------------|
B|-------------------------------------------|-------------------------------------------|


C|---------------------------------------------|---------------------------------------------|
G|---------------------------------------------|---------------------------------------------|
D|---------------------------------------------|---------------------------------------------|
A|-2---2---2---2---2---2---2---2-------2---2---|-2-------2---2---2-------2---2---2---2---2---|
E|---------------------------------------------|---------------------------------------------|
B|---------------------------------------------|---------------------------------------------|


C|---------------------------------------------|---------------------------------------------|
G|---------------------------------------------|---------------------------------------------|
D|---------------------------------------------|---------------------------------------------|
A|-4---4---4---4---4---4---4---4-------4---4---|-4-------4---4---4-------4---4---4---4---4---|
E|---------------------------------------------|---------------------------------------------|
B|---------------------------------------------|---------------------------------------------|


C|---------------------------------------------|---------------------------------------------|
G|---------------------------------------------|---------------------------------------------|
D|---------------------------------------------|---------------------------------------------|
A|---------------------------------------------|---------------------------------------------|
E|-1---1---1---1---1---1---1---1-------1---1---|-1-------1---1---1-------1---1---1---1---1---|
B|---------------------------------------------|---------------------------------------------|


C|---------------------------------------------|---------------------------------------------|
G|---------------------------------------------|---------------------------------------------|
D|---------------------------------------------|---------------------------------------------|
A|-----------------------------4---------------|---------------------------------------------|
E|-3---3---3---3---3---3---3---3-------3---3---|-3-------3---3---3-------3---3---3---3---3---|
B|---------------------------------------------|---------------------------------------------|


C|-------------------------------------------------|-------------------------------------------------|
G|-------------------------------------------------|-------------------------------------------------|
D|-------------------------------------------------|-------------------------------------------------|
A|-------------------------------------------------|-------------------------------------------------|
E|-1---1---1---1---1---1---1---1---1---1---1---1---|-1---1---1---1---1---1---1---1---1---1---1---1---|
B|-------------------------------------------------|-------------------------------------------------|


C|-------------------------------------------------|-------------------------------------------------|
G|-------------------------------------------------|-------------------------------------------------|
D|-------------------------------------------------|-------------------------------------------------|
A|-------------------------------------------------|-------------------------------------------------|
E|-0---0---0---0---0---0---0---0---0---0---0---0---|-0---0---0---0---0---0---0---0---0---0---0---0---|
B|-------------------------------------------------|-------------------------------------------------|


C|---------------------------------------------|--------------------------------------|
G|---------------------------------------------|--------------------------------------|
D|---------------------------------------------|--------------------------------------|
A|-4---4---4---4---4---4---4---4---4---1---1---|-1----1---1---------------------------|
E|---------------------------------------------|--------------2---2---2---2---2---2---|
B|---------------------------------------------|--------------------------------------|


C|-------------------------------------------------|-------------------------------------------------|
G|-------------------------------------------------|-------------------------------------------------|
D|-0---0---0---0---0---0---0---0---0---0---0---0---|-0---0---0---0---0---0---0---0---0---0---0---0---|
A|-------------------------------------------------|-------------------------------------------------|
E|-------------------------------------------------|-------------------------------------------------|
B|-------------------------------------------------|-------------------------------------------------|


C|-------------------------------------------------|-------------------------------------------------|
G|-------------------------------------------------|-------------------------------------------------|
D|-0---0---0---0---0---0---0---0---0---0---0---0---|-0---0---0---0---0---0---0---0---0---0---0---0---|
A|-------------------------------------------------|-------------------------------------------------|
E|-------------------------------------------------|-------------------------------------------------|
B|-------------------------------------------------|-------------------------------------------------|


C|-------------------------------------------------|-------------------------------------------------|
G|-------------------------------------------------|-------------------------------------------------|
D|-0---0---0---0---0---0---0---0---0---0---0---0---|-------------------------------------------------|
A|-------------------------------------------------|-------------------------------------------------|
E|-------------------------------------------------|-0---0---0---0---0---0---0---0---0---0---0---0---|
B|-------------------------------------------------|-------------------------------------------------|


C|-------------------------------------------------|-------------------------------------------------|
G|-------------------------------------------------|-------------------------------------------------|
D|-------------------------------------------------|-------------------------0---0---0---0---0---0---|
A|-------------------------------------0---0---0---|-1---1---1---2---2---2---------------------------|
E|-3---3---3---3---3---3---3---3---3---------------|-------------------------------------------------|
B|-------------------------------------------------|-------------------------------------------------|


C|-------------------------------------------------|-------------------------------------------------|
G|-------------------------------------------------|-------------------------------------------------|
D|-0---0---0---0---0---0---0---0---0---0---0---0---|-0---0---0---0---0---0---0---0---0---0---0---0---|
A|-------------------------------------------------|-------------------------------------------------|
E|-------------------------------------------------|-------------------------------------------------|
B|-------------------------------------------------|-------------------------------------------------|


C|-------------------------------------------------|-------------------------------------------------|
G|-------------------------------------------------|-------------------------------------------------|
D|-0---0---0---0---0---0---0---0---0---0---0---0---|-0---0---0---0---0---0---0---0---0---0---0---0---|
A|-------------------------------------------------|-------------------------------------------------|
E|-------------------------------------------------|-------------------------------------------------|
B|-------------------------------------------------|-------------------------------------------------|


C|-------------------------------------------------|-------------------------------------------------|
G|-------------------------------------------------|-------------------------------------------------|
D|-0---0---0---0---0---0---0---0---0---0---0---0---|-------------------------------------------------|
A|-------------------------------------------------|-------------------------------------------------|
E|-------------------------------------------------|-0---0---0---0---0---0---0---0---0---0---0---0---|
B|-------------------------------------------------|-------------------------------------------------|


C|-------------------------------------------------|-------------------------------|
G|-------------------------------------------------|-------------------------------|
D|-0---0---0---0---0---0---0---0---0---0---0---0---|-0---0---0---0---0---0---0-----|
A|-------------------------------------------------|-------------------------------|
E|-------------------------------------------------|-------------------------------|
B|-------------------------------------------------|-------------------------------|


C|-------------------|-------------------|-------------------|-------------------|
G|-------------------|-------------------|-------------------|----------------4--|
D|-------------------|-------------------|-------------------|-------------------|
A|-2-----2--2-----2--|-2-----2--2-----2--|-0-----0--0-----0--|-0-----0--0-----0--|
E|-------------------|-------------------|-------------------|-------------------|
B|-------------------|-------------------|-------------------|-------------------|


C|-------------------|-------------------|-------------------------------------------------|
G|-------------------|-------------------|-------------------------------------------------|
D|-------------------|-------------------|-------------------------------------------------|
A|-------------------|-------------------|-------------------------------------------------|
E|-3-----3--3-----3--|-3-----3--3-----3--|-2--3--2--0--2--3--2--0--2--3--2--0--2--3--2--0--|
B|-------------------|-------------------|-------------------------------------------------|


C|---------------------------------|-------------------------------------------------|
G|---------------------------------|-------------------------------------------------|
D|---------------------------------|-------------------------------------------------|
A|---------------------------------|-------------------------------------------------|
E|-2---0---2---0---2---0---2---0---|-2--2--2--2--2--2--2--2--2--2--2--2--2--2--2--2--|
B|---------------------------------|-------------------------------------------------|


C|-------------------------------------------------|-------------------------------------------------|
G|-------------------------------------------------|-------------------------------------------------|
D|-------------------------------------------------|-------------------------------------------------|
A|-2--2--2--2--2--2--2--2--2--2--2--2--2--2--2--2--|-------------------------------------------------|
E|-------------------------------------------------|-3--3--3--3--3--3--3--3--3--3--3--3--3--3--3--3--|
B|-------------------------------------------------|-------------------------------------------------|


C|-------------------------------------------------|-------------------------------------------------|
G|-------------------------------------------------|-------------------------------------------------|
D|-------------------------------------------------|-------------------------------------------------|
A|-0--0--0--0--0--0--0--0--0--0--0--0--0--0--0--0--|-------------------------------------------------|
E|-------------------------------------------------|-2--2--2--2--2--2--2--2--2--2--2--2--2--2--2--2--|
B|-------------------------------------------------|-------------------------------------------------|


C|-------------------------------------------------|-------------------------------------------------|
G|-------------------------------------------------|-------------------------------------------------|
D|-------------------------------------------------|-------------------------------------------------|
A|-------------------------------------------------|-------------------------------------------------|
E|-3--3--3--3--3--3--3--3--3--3--3--3--3--3--3--3--|-0--0--0--0--0--0--0--0--0--0--0--0--0--0--0--0--|
B|-------------------------------------------------|-------------------------------------------------|


C|-------------------------------------------------|-------------------------------------------------|
G|-------------------------------------------------|-------------------------------------------------|
D|-------------------------------------------------|-------------------------------------------------|
A|-------------------------------------------------|-------------------------------------------------|
E|-2--2--2--2--2--2--2--2--2--2--2--2--2--2--2--2--|-2--2--2--2--2--2--2--2--2--2--2--2--2--2--2--2--|
B|-------------------------------------------------|-------------------------------------------------|


C|-------------------------------------------------|-------------------------------------------------|
G|-------------------------------------------------|-------------------------------------------------|
D|-------------------------------------------------|-------------------------------------------------|
A|-2--2--2--2--2--2--2--2--2--2--2--2--2--2--2--2--|-------------------------------------------------|
E|-------------------------------------------------|-3--3--3--3--3--3--3--3--3--3--3--3--3--3--3--3--|
B|-------------------------------------------------|-------------------------------------------------|


C|-------------------------------------------------|-------------------------------------------------|
G|-------------------------------------------------|-------------------------------------------------|
D|-------------------------------------------------|-------------------------------------------------|
A|-0--0--0--0--0--0--0--0--0--0--0--0--0--0--0--0--|-------------------------------------------------|
E|-------------------------------------------------|-2--2--2--2--2--2--2--2--2--2--2--2--2--2--2--2--|
B|-------------------------------------------------|-------------------------------------------------|


C|-------------------------------------------------|-------------------------------------------------|
G|-------------------------------------------------|-------------------------------------------------|
D|-------------------------------------------------|-------------------------------------------------|
A|-------------------------------------------------|-------------------------------------------------|
E|-3--3--3--3--3--3--3--3--3--3--3--3--3--3--3--3--|-0--0--0--0--0--0--0--0--0--0--0--0--0--0--0--0--|
B|-------------------------------------------------|-------------------------------------------------|


C|---------------------------------------|-----------------------------|-----------------------------------------------|
G|---------------------------------------|-----------------------------|-----------------------------------------------|
D|---------------------------------------|-----------------------------|-----------------------------------------------|
A|---------------------------------------|-----------------------------|-2---2--2--2--2--2--2--2--2--2--2--2--2--2--2--|
E|-2---2---2--2---2--2---2--2-----2---2--|-2---2---2--2---2--2---------|-----------------------------------------------|
B|---------------------------------------|-----------------------------|-----------------------------------------------|


C|-----------------------------------------|-----------------------------------------------|
G|-----------------------------------------|-----------------------------------------------|
D|-0---0--0--0--0--0-----------------------|-----------------------------------------------|
A|---------------------4---4--4--4--4--4---|-2---2--2--2--2--2--2--2--2--2--2--2--2--2--2--|
E|-----------------------------------------|-----------------------------------------------|
B|-----------------------------------------|-----------------------------------------------|


C|-------------------------------|-----------------------------------------------|
G|-------------------------------|-----------------------------------------------|
D|-------------------------------|-----------------------------------------------|
A|-0---0--0--0--0--0--------0----|-2---2--2--2--2--2--2--2--2--2--2--2--2--2--2--|
E|---------------------4---------|-----------------------------------------------|
B|-------------------------------|-----------------------------------------------|


C|-----------------------------------------|-----------------------------------------|
G|-----------------------------------------|-----------------------------------------|
D|-0---0--0--0--0--0-----------------------|-----------------------------------------|
A|---------------------4---4--4--4--4--4---|-----------------------------------------|
E|-----------------------------------------|-3---3--3--3--3--3---3--3--3---3--3--3---|
B|-----------------------------------------|-----------------------------------------|


C|---------------------------------|-----------------------------------------------|
G|---------------------------------|-----------------------------------------------|
D|-----------------------0---------|-----------------------------------------------|
A|----------------------------4----|-2---2--2--2--2--2--2--2--2--2--2--2--2--2--2--|
E|-2---2--2--2--2--2--2------------|-----------------------------------------------|
B|---------------------------------|-----------------------------------------------|


C|-----------------------------------------|-----------------------------------------------|
G|-----------------------------------------|-----------------------------------------------|
D|-0---0--0--0--0--0-----------------------|-----------------------------------------------|
A|---------------------4---4--4--4--4--4---|-2---2--2--2--2--2--2--2--2--2--2--2--2--2--2--|
E|-----------------------------------------|-----------------------------------------------|
B|-----------------------------------------|-----------------------------------------------|


C|-------------------------------|-----------------------------------------------|
G|-------------------------------|-----------------------------------------------|
D|-------------------------------|-----------------------------------------------|
A|-0---0--0--0--0--0--------0----|-2---2--2--2--2--2--2--2--2--2--2--2--2--2--2--|
E|---------------------4---------|-----------------------------------------------|
B|-------------------------------|-----------------------------------------------|


C|-----------------------------------------|-------------------------------------------------|
G|-----------------------------------------|-------------------------------------------------|
D|-0---0--0--0--0--0-----------------------|-------------------------------------------------|
A|---------------------4---4--4--4--4--4---|-------------------------------------------------|
E|-----------------------------------------|-3--3--3--3--3--3--3--3--3--3--3--3--3--3--3--3--|
B|-----------------------------------------|-------------------------------------------------|


C|-------------------------------------------------|-----------------------------------------|
G|-------------------------------------------------|-----------------------------------------|
D|-------------------------------------------------|-0---0--0--0--0--0---0---0--0--0--0--0---|
A|-------------------------------------------------|-----------------------------------------|
E|-2--2--2--2--2--2--2--2--2--2--2--2--2--2--2--2--|-----------------------------------------|
B|-------------------------------------------------|-----------------------------------------|


C|-----------------------------------------|-----------------------------------------|
G|-----------------------------------------|-----------------------------------------|
D|-----------------------------------------|-----------------------------------------|
A|-4---4--4--4--4--4---4---4--4--4--4--4---|-----------------------------------------|
E|-----------------------------------------|-0---0--0--0--0--0---0---0--0--0--0--0---|
B|-----------------------------------------|-----------------------------------------|


C|-----------------------------------------|-------------------------------------|
G|-----------------------------------------|-------------------------------------|
D|-1---1--1--1--1--1---1---1--1--1--1--1---|-------------------------------------|
A|-----------------------------------------|-------------------------------------|
E|-----------------------------------------|-3---3--3--3--3--3---3---3---3---3---|
B|-----------------------------------------|-------------------------------------|


C|-------------------------------------|---------------------------------------|---------------------------------------|
G|-------------------------------------|---------------------------------------|---------------------------------------|
D|-------------------------------------|-------------------------------2-------|---------------------------------------|
A|-------------------------------------|-3--3--3--3--3--3--3---3---3-------3---|-0--0--0--0--0--0--0---0---0---2---4---|
E|-3---3--3--3--3--3---3---3---3---3---|---------------------------------------|---------------------------------------|
B|-------------------------------------|---------------------------------------|---------------------------------------|


C|-----------------------------------------|-----------------------------------------|
G|-----------------------------------------|-----------------------------------------|
D|-0---0--0--0--0--0---0---0--0--0--0--0---|-----------------------------------------|
A|-----------------------------------------|-4---4--4--4--4--4---4---4--4--4--4--4---|
E|-----------------------------------------|-----------------------------------------|
B|-----------------------------------------|-----------------------------------------|


C|-----------------------------------------|-----------------------------------------|
G|-----------------------------------------|-----------------------------------------|
D|-----------------------------------------|-1---1--1--1--1--1---1---1--1--1--1--1---|
A|-----------------------------------------|-----------------------------------------|
E|-0---0--0--0--0--0---0---0--0--0--0--0---|-----------------------------------------|
B|-----------------------------------------|-----------------------------------------|


C|-------------------------------------|-------------------------------------|-------------------------------------------------|
G|-------------------------------------|-------------------------------------|-------------------------------------------------|
D|-------------------------------------|-------------------------------------|-------------------------------------------------|
A|-------------------------------------|-------------------------------------|-------------------------------------------------|
E|-3---3--3--3--3--3---3---3---3---3---|-3---3--3--3--3--3---3---3---3---3---|-1---1---1---1---1---1---1---1---1---1---1---1---|
B|-------------------------------------|-------------------------------------|-------------------------------------------------|


C|----------------------|-------------------------------------------------|-------------------------------------------------|
G|----------------------|-------------------------------------------------|-------------------------------------------------|
D|----------------------|-------------------------------------------------|-------------------------------------------------|
A|----------------------|-0--0--0--0--0--0--0--0--0--0--0--0--0--0--0--0--|-------------------------------------------------|
E|-1----1----1----------|-------------------------------------------------|-1--1--1--1--1--1--1--1--1--1--1--1--1--1--1--1--|
B|----------------------|-------------------------------------------------|-------------------------------------------------|


C|-------------------------------------------------|-------------------------------------------------|
G|-------------------------------------------------|-------------------------------------------------|
D|-------------------------------------------------|-------------------------------------------------|
A|-3--3--3--3--3--3--3--3--3--3--3--3--3--3--3--3--|-------------------------------------------------|
E|-------------------------------------------------|-3--3--3--3--3--3--3--3--0--0--0--0--0--0--0--0--|
B|-------------------------------------------------|-------------------------------------------------|


C|-------------------------------------------------|-------------------------------------------------|
G|-------------------------------------------------|-------------------------------------------------|
D|-------------------------------------------------|-------------------------------------------------|
A|-0--0--0--0--0--0--0--0--0--0--0--0--0--0--0--0--|-------------------------------------------------|
E|-------------------------------------------------|-1--1--1--1--1--1--1--1--1--1--1--1--1--1--1--1--|
B|-------------------------------------------------|-------------------------------------------------|


C|-------------------------------------------------|-------------------------------------------------|
G|-------------------------------------------------|-------------------------------------------------|
D|-------------------------------------------------|-3--3--3--3--2--2--2--2--0--0--0--0--------------|
A|-1--1--1--1--1--1--1--1--1--1--1--1--1--1--1--1--|-------------------------------------3--3--3--3--|
E|-------------------------------------------------|-------------------------------------------------|
B|-------------------------------------------------|-------------------------------------------------|


C|-------------------------------------------------|-------------------------------------------------|
G|-------------------------------------------------|-------------------------------------------------|
D|-------------------------------------------------|-------------------------------------------------|
A|-0--0--0--0--0--0--0--0--0--0--0--0--0--0--0--0--|-------------------------------------------------|
E|-------------------------------------------------|-1--1--1--1--1--1--1--1--1--1--1--1--1--1--1--1--|
B|-------------------------------------------------|-------------------------------------------------|


C|-------------------------------------------------|-------------------------------------------------|
G|-------------------------------------------------|-------------------------------------------------|
D|-------------------------------------------------|-------------------------------------------------|
A|-3--3--3--3--3--3--3--3--3--3--3--3--3--3--3--3--|-------------------------------------------------|
E|-------------------------------------------------|-3--3--3--3--3--3--3--3--0--0--0--0--0--0--0--0--|
B|-------------------------------------------------|-------------------------------------------------|


C|-------------------------------------------------|-------------------------------------------------|
G|-------------------------------------------------|-------------------------------------------------|
D|-------------------------------------------------|-------------------------------------------------|
A|-0--0--0--0--0--0--0--0--0--0--0--0--0--0--0--0--|-------------------------------------------------|
E|-------------------------------------------------|-1--1--1--1--1--1--1--1--1--1--1--1--1--1--1--1--|
B|-------------------------------------------------|-------------------------------------------------|


C|-------------------------------------------------|-----------------------------------------|
G|-------------------------------------------------|-----------------------------------------|
D|-------------------------------------------------|-----------------------------0---0---0---|
A|-1--1--1--1--1--1--1--1--1--1--1--1--1--1--------|-1--1--1--1--1--1--1--1--1---------------|
E|-------------------------------------------1--1--|-----------------------------------------|
B|-------------------------------------------------|-----------------------------------------|


C|-------------------------------------------------|-------------------------------------------------|
G|-------------------------------------------------|-------------------------------------------------|
D|-------------------------------------------------|-------------------------------------------------|
A|-2--2--2--2--2--2--2--2--2--2--2--2--2--2--2--2--|-------------------------------------------------|
E|-------------------------------------------------|-3--3--3--3--3--3--3--3--3--3--3--3--3--3--3--3--|
B|-------------------------------------------------|-------------------------------------------------|


C|-------------------------------------------------|-------------------------------------------------|
G|-------------------------------------------------|-------------------------------------------------|
D|-0--0--0--0--0--0--0--0--0--0--0--0--0--0--0--0--|-------------------------------------0--0--0--0--|
A|-------------------------------------------------|-0--0--0--0--0--0--0--0--------------------------|
E|-------------------------------------------------|-------------------------2--2--2--2--------------|
B|-------------------------------------------------|-------------------------------------------------|


C|-------------------------------------------------|-------------------------------------------------|
G|-------------------------------------------------|-------------------------------------------------|
D|-------------------------------------------------|-------------------------------------------------|
A|-2--2--2--2--2--2--2--2--2--2--2--2--2--2--2--2--|-------------------------------------------------|
E|-------------------------------------------------|-3--3--3--3--3--3--3--3--3--3--3--3--3--3--3--3--|
B|-------------------------------------------------|-------------------------------------------------|


C|-------------------------------------------------|-------------------------------------------------|
G|-------------------------------------------------|-------------------------------------------------|
D|-------------------------------------------------|-------------------------------------------------|
A|-3--3--3--3--3--3--3--3--3--3--3--3--3--3--3--3--|-3--3--3--3--3--3--3--3--3--3--3--3--3--3--3--3--|
E|-------------------------------------------------|-------------------------------------------------|
B|-------------------------------------------------|-------------------------------------------------|


C|-------------------------------------------------|-------------------------------------------------|
G|-------------------------------------------------|-------------------------------------------------|
D|-------------------------------------------------|-------------------------------------------------|
A|-2--2--2--2--2--2--2--2--2--2--2--2--2--2--2--2--|-------------------------------------------------|
E|-------------------------------------------------|-3--3--3--3--3--3--3--3--3--3--3--3--3--3--3--3--|
B|-------------------------------------------------|-------------------------------------------------|


C|-------------------------------------------------|-------------------------------------------------|
G|-------------------------------------------------|-------------------------------------------------|
D|-0--0--0--0--0--0--0--0--0--0--0--0--0--0--0--0--|-------------------------------------------------|
A|-------------------------------------------------|-0--0--0--0--0--0--0--0--------------------------|
E|-------------------------------------------------|-------------------------2--2--2--2--2--2--2--2--|
B|-------------------------------------------------|-------------------------------------------------|


C|-------------------------------------------------|-------------------------------------------------|
G|-------------------------------------------------|-------------------------------------------------|
D|-------------------------------------------------|-------------------------------------------------|
A|-2--2--2--2--2--2--2--2--2--2--2--2--2--2--2--2--|-------------------------------------------------|
E|-------------------------------------------------|-3--3--3--3--3--3--3--3--3--3--3--3--3--3--3--3--|
B|-------------------------------------------------|-------------------------------------------------|


C|-------------------------------------------------|-------------------------------------------------|
G|-------------------------------------------------|-------------------------------------------------|
D|-------------------------------------------------|-------------------------------------------------|
A|-3--3--3--3--3--3--3--3--3--3--3--3--3--3--3--3--|-3--3--3--3--3--3--3--3--3--3--3--3--3--3--3--3--|
E|-------------------------------------------------|-------------------------------------------------|
B|-------------------------------------------------|-------------------------------------------------|


C|---------------------------------------|---------------------------------------|
G|---------------------------------------|---------------------------------------|
D|---------------------------------------|---------------------------------------|
A|-2---2---2--2---2--2---2--2-----2---2--|-2---2---2--2---2--2---2--2-----2---2--|
E|---------------------------------------|---------------------------------------|
B|---------------------------------------|---------------------------------------|


C|---------------------------------------|---------------------------------------|
G|---------------------------------------|---------------------------------------|
D|---------------------------------------|---------------------------------------|
A|-2---2---2--2---2--2---2--2-----2---2--|-2---2---2--2---2--2---2--2-----2---2--|
E|---------------------------------------|---------------------------------------|
B|---------------------------------------|---------------------------------------|


C|--------------------|----------------|----------------|
G|--------------------|----------------|----------------|
D|--------------------|----------------|----------------|
A|-2------------------|----------------|----------------|
E|--------------------|----------------|----------------|
B|--------------------|----------------|----------------|









Track 2: Rythym Guitar
Back to top
E|--------|--------|--------|--------|-----------------------------------------------------|
B|--------|--------|--------|--------|-----------------------------------------------------|
G|--------|--------|--------|--------|-----------------------------------------------------|
D|--------|--------|--------|--------|-4-----4-----4---4-----4---4-----4---4-----4-----4---|
A|--------|--------|--------|--------|-2-----2-----2---2-----2---2-----2---2-----2-----2---|
E|--------|--------|--------|--------|-----------------------------------------------------|


E|-----------------------------------------------------|-----------------------------------------------------|
B|-----------------------------------------------------|-----------------------------------------------------|
G|-----------------------------------------------------|-----------------------------------------------------|
D|-4-----4-----4---4-----4---4-----4---4-----4-----4---|-4-----4-----4---4-----4---4-----4---4-----4-----4---|
A|-2-----2-----2---2-----2---2-----2---2-----2-----2---|-2-----2-----2---2-----2---2-----2---2-----2-----2---|
E|-----------------------------------------------------|-----------------------------------------------------|


E|-----------------------------------------------------------|-------------------------------------------------------------|
B|-----------------------------------------------------------|-------------------------------------------------------------|
G|-----------------------------------------------------------|-------------------------------------------------------------|
D|-4-----4-----4---4-----4---4---4---4---4-------------------|-4-----------------------------------------------------------|
A|-2-----2-----2---2-----2---2---2---2---2-------------------|-2---2---2---2---2---2---2---2---2---2---2---2---2---2---2---|
E|-----------------------------------------------------------|-------------------------------------------------------------|


E|-------------------------------------------------|-------------------------------------------------------------|
B|-------------------------------------------------|-------------------------------------------------------------|
G|-------------------------------------------------|-------------------------------------------------------------|
D|-7-------------------7---7-------------------7---|-4-----------------------------------------------------------|
A|-5---5---5---5---5---5---4---4---4---4---4---4---|-2---2---2---2---2---2---2---2---2---2---2---2---2---2---2---|
E|-------------------------------------------------|-------------------------------------------------------------|


E|-----------------------------------|-------------------------------------------------------------|
B|-----------------------------------|-------------------------------------------------------------|
G|------------------------------2----|-------------------------------------------------------------|
D|-2-------------------2---6----2----|-4-----------------------------------------------------------|
A|-0---0---0---0---0---0---7----0----|-2---2---2---2---2---2---2---2---2---2---2---2---2---2---2---|
E|-------------------------4---------|-------------------------------------------------------------|


E|-------------------------------------------------|-------------------------------------------------|
B|-------------------------------------------------|-------------------------------------------------|
G|-------------------------------------------------|-------------------------------------------------|
D|-7-------------------7---7-------------------7---|-------------------------------------------------|
A|-5---5---5---5---5---5---4---4---4---4---4---4---|-5-------------------5-----------5-----------5---|
E|-------------------------------------------------|-3---3---3---3---3---3---3---3---3---3---3---3---|


E|----------------------------|-------------------------------------------------------------|
B|----------------------------|-------------------------------------------------------------|
G|----------------------------|-------------------------------------------------------------|
D|-4-----------4----2----4----|-4-----------------------------------------------------------|
A|-4-----------4--------------|-2---2---2---2---2---2---2---2---2---2---2---2---2---2---2---|
E|-2---2---2---2----0----2----|-------------------------------------------------------------|


E|-------------------------------------------------|-------------------------------------------------------------|
B|-------------------------------------------------|-------------------------------------------------------------|
G|-------------------------------------------------|-------------------------------------------------------------|
D|-7-------------------7---7-------------------7---|-4-----------------------------------------------------------|
A|-5---5---5---5---5---5---4---4---4---4---4---4---|-2---2---2---2---2---2---2---2---2---2---2---2---2---2---2---|
E|-------------------------------------------------|-------------------------------------------------------------|


E|-----------------------------------|-------------------------------------------------------------|
B|-----------------------------------|-------------------------------------------------------------|
G|-2-------------------2--------2----|-------------------------------------------------------------|
D|-2-------------------2---6----2----|-4-----------------------------------------------------------|
A|-0---0---0---0---0---0---7----0----|-2---2---2---2---2---2---2---2---2---2---2---2---2---2---2---|
E|-------------------------4---------|-------------------------------------------------------------|


E|-------------------------------------------------|-------------------------------------------------|
B|-------------------------------------------------|-------------------------------------------------|
G|-------------------------------------------------|-------------------------------------------------|
D|-7-------------------7---7-------------------7---|-------------------------------------------------|
A|-5---5---5---5---5---5---4---4---4---4---4---4---|-5-------------------5-----------5-----------5---|
E|-------------------------------------------------|-3---3---3---3---3---3---3---3---3---3---3---3---|


E|-----------------------------------------------------------------|-----------------------------------------------------|
B|-----------------------------------------------------------------|-----------------------------------------------------|
G|-----------------------------------------------------------------|-----------------------------------------------------|
D|-----------------------------------------------------------------|-7-------------------7---7---------------------------|
A|-----------------------------------------------------------------|-5---5---5---5---5---5---5---5---5---5---5---5---5---|
E|-2---2---2---2---2---2---2---2---2---2---2---2---2---2---2---2---|-----------------------------------------------------|


E|-----------------------------------------------------|-----------------------------------------------------|
B|-----------------------------------------------------|-----------------------------------------------------|
G|-----------------------------------------------------|-----------------------------------------------------|
D|-7-------------------7---7---------------------------|-9-------------------9---9---------------------------|
A|-4---4---4---4---4---4---4---4---4---4---4---4---4---|-7---7---7---7---7---7---7---7---7---7---7---7---7---|
E|-----------------------------------------------------|-----------------------------------------------------|


E|-------------------------------------------------|-------------------------------------------------|
B|-------------------------------------------------|-------------------------------------------------|
G|-------------------------------------------------|-------------------------------------------------|
D|-9-------------------9---9-------------------9---|-------------------------------------------------|
A|-6---6---6---6---6---6---6---6---6---6---6---6---|-5-------------------5---5-----5-----5-----5-----|
E|-------------------------------------------------|-3---3---3---3---3---3---3-----3-----3-----3-----|


E|-------------------------------------------------|-----------------------------------|
B|-------------------------------------------------|-----------------------------------|
G|-------------------------------------------------|-------------------------5-----5---|
D|-------------------------------------------------|-------------------------5---------|
A|-5-------------------5---5-----5-----5-----5-----|-3---3---3---3---3---3---3-----3---|
E|-3---3---3---3---3---3---3-----3-----3-----3-----|-----------------------------------|


E|-----------------------------------|-----------------------------------------------------|
B|-----------------------------------|-----------------------------------------------------|
G|-------------------------2-----2---|-----------------------------------------------------|
D|-------------------------2-----2---|-7-------------------7---7---------------------------|
A|-0---0---0---0---0---0---0-----0---|-5---5---5---5---5---5---5---5---5---5---5---5---5---|
E|-----------------------------------|-----------------------------------------------------|


E|-----------------------------------------------------|-----------------------------------------------------|
B|-----------------------------------------------------|-----------------------------------------------------|
G|-----------------------------------------------------|-----------------------------------------------------|
D|-7-------------------7---7---------------------------|-9-------------------9---9---------------------------|
A|-4---4---4---4---4---4---4---4---4---4---4---4---4---|-7---7---7---7---7---7---7---7---7---7---7---7---7---|
E|-----------------------------------------------------|-----------------------------------------------------|


E|-------------------------------------------------|-------------------------------------------------|
B|-------------------------------------------------|-------------------------------------------------|
G|-------------------------------------------------|-------------------------------------------------|
D|-9-------------------9---9-------------------9---|-------------------------------------------------|
A|-6---6---6---6---6---6---6---6---6---6---6---6---|-5-------------------5---5-----5-----5-----5-----|
E|-------------------------------------------------|-3---3---3---3---3---3---3-----3-----3-----3-----|


E|-------------------------------------------------|--------|----------------------------------------|
B|-------------------------------------------------|--------|----------------------------------------|
G|-------------------------------------------------|--------|----------------------------------------|
D|-------------------------------------------------|-5------|------2----5----8-----------------------|
A|-5-------------------5---5-----5-----5-----5-----|-5------|-4----4----7----10----------------------|
E|-3---3---3---3---3---3---3-----3-----3-----3-----|-3------|-6--------------------------------------|


E|-------------------------------------------------------------|-------------------------------------------------|
B|-------------------------------------------------------------|-------------------------------------------------|
G|-------------------------------------------------------------|-------------------------------------------------|
D|-4-----------------------------------------------------------|-7-------------------7---7-------------------7---|
A|-2---2---2---2---2---2---2---2---2---2---2---2---2---2---2---|-5---5---5---5---5---5---4---4---4---4---4---4---|
E|-------------------------------------------------------------|-------------------------------------------------|


E|-------------------------------------------------------------|-----------------------------------|
B|-------------------------------------------------------------|-----------------------------------|
G|-------------------------------------------------------------|-2-------------------2--------2----|
D|-4-----------------------------------------------------------|-2-------------------2---6----2----|
A|-2---2---2---2---2---2---2---2---2---2---2---2---2---2---2---|-0---0---0---0---0---0---7----0----|
E|-------------------------------------------------------------|-------------------------4---------|


E|-------------------------------------------------------------|-------------------------------------------------|
B|-------------------------------------------------------------|-------------------------------------------------|
G|-------------------------------------------------------------|-------------------------------------------------|
D|-4-----------------------------------------------------------|-7-------------------7---7-------------------7---|
A|-2---2---2---2---2---2---2---2---2---2---2---2---2---2---2---|-5---5---5---5---5---5---4---4---4---4---4---4---|
E|-------------------------------------------------------------|-------------------------------------------------|


E|-------------------------------------------------|----------------------------|-------------------------------------------------------------|
B|-------------------------------------------------|----------------------------|-------------------------------------------------------------|
G|-------------------------------------------------|----------------------------|-------------------------------------------------------------|
D|-------------------------------------------------|-4-----------4----2----4----|-4-----------------------------------------------------------|
A|-5-------------------5-----------5-----------5---|-4-----------4----2----4----|-2---2---2---2---2---2---2---2---2---2---2---2---2---2---2---|
E|-3---3---3---3---3---3---3---3---3---3---3---3---|-2---2---2---2----0----2----|-------------------------------------------------------------|


E|-------------------------------------------------|-------------------------------------------------------------|
B|-------------------------------------------------|-------------------------------------------------------------|
G|-------------------------------------------------|-------------------------------------------------------------|
D|-7-------------------7---7-------------------7---|-4-----------------------------------------------------------|
A|-5---5---5---5---5---5---4---4---4---4---4---4---|-2---2---2---2---2---2---2---2---2---2---2---2---2---2---2---|
E|-------------------------------------------------|-------------------------------------------------------------|


E|-----------------------------------|-------------------------------------------------------------|
B|-----------------------------------|-------------------------------------------------------------|
G|---------------------2--------2----|-------------------------------------------------------------|
D|-2-------------------2---6----2----|-4-----------------------------------------------------------|
A|-0---0---0---0---0---0---7----0----|-2---2---2---2---2---2---2---2---2---2---2---2---2---2---2---|
E|-------------------------4---------|-------------------------------------------------------------|


E|-------------------------------------------------|-------------------------------------------------|
B|-------------------------------------------------|-------------------------------------------------|
G|-------------------------------------------------|-------------------------------------------------|
D|-7-------------------7---7-------------------7---|-------------------------------------------------|
A|-5---5---5---5---5---5---4---4---4---4---4---4---|-5-------------------5-----------5-----------5---|
E|-------------------------------------------------|-3---3---3---3---3---3---3---3---3---3---3---3---|


E|-----------------------------------------------------------------|-----------------------------------------------------|
B|-----------------------------------------------------------------|-----------------------------------------------------|
G|-----------------------------------------------------------------|-----------------------------------------------------|
D|-----------------------------------------------------------------|-7-------------------7---7---------------------------|
A|-----------------------------------------------------------------|-5---5---5---5---5---5---5---5---5---5---5---5---5---|
E|-2---2---2---2---2---2---2---2---2---2---2---2---2---2---2---2---|-----------------------------------------------------|


E|-----------------------------------------------------|-----------------------------------------------------|
B|-----------------------------------------------------|-----------------------------------------------------|
G|-----------------------------------------------------|-----------------------------------------------------|
D|-7-------------------7---7---------------------------|-9-------------------9---9---------------------------|
A|-4---4---4---4---4---4---4---4---4---4---4---4---4---|-7---7---7---7---7---7---7---7---7---7---7---7---7---|
E|-----------------------------------------------------|-----------------------------------------------------|


E|-------------------------------------------------|-------------------------------------------------|
B|-------------------------------------------------|-------------------------------------------------|
G|-------------------------------------------------|-------------------------------------------------|
D|-9-------------------9---9-------------------9---|-------------------------------------------------|
A|-6---6---6---6---6---6---6---6---6---6---6---6---|-5-------------------5---5-----5-----5-----5-----|
E|-------------------------------------------------|-3---3---3---3---3---3---3-----3-----3-----3-----|


E|-------------------------------------------------|-----------------------------------|
B|-------------------------------------------------|-----------------------------------|
G|-------------------------------------------------|-------------------------5-----5---|
D|-------------------------------------------------|-------------------------5-----5---|
A|-5-------------------5---5-----5-----5-----5-----|-3---3---3---3---3---3---3-----3---|
E|-3---3---3---3---3---3---3-----3-----3-----3-----|-----------------------------------|


E|-----------------------------------|-----------------------------------------------------|
B|-----------------------------------|-----------------------------------------------------|
G|-------------------------2-----2---|-----------------------------------------------------|
D|-------------------------2-----2---|-7-------------------7---7---------------------------|
A|-0---0---0---0---0---0---0-----0---|-5---5---5---5---5---5---5---5---5---5---5---5---5---|
E|-----------------------------------|-----------------------------------------------------|


E|-----------------------------------------------------|-----------------------------------------------------|
B|-----------------------------------------------------|-----------------------------------------------------|
G|-----------------------------------------------------|-----------------------------------------------------|
D|-7-------------------7---7---------------------------|-9-------------------9---9---------------------------|
A|-4---4---4---4---4---4---4---4---4---4---4---4---4---|-7---7---7---7---7---7---7---7---7---7---7---7---7---|
E|-----------------------------------------------------|-----------------------------------------------------|


E|-------------------------------------------------|-------------------------------------------------|
B|-------------------------------------------------|-------------------------------------------------|
G|-------------------------------------------------|-------------------------------------------------|
D|-9-------------------9---9-------------------9---|-------------------------------------------------|
A|-6---6---6---6---6---6---6---6---6---6---6---6---|-5-------------------5---5-----5-----5-----5-----|
E|-------------------------------------------------|-3---3---3---3---3---3---3-----3-----3-----3-----|


E|-------------------------------------------------|--------|----------------------|
B|-------------------------------------------------|--------|----------------------|
G|-------------------------------------------------|--------|----------------------|
D|-------------------------------------------------|-3------|-3----3----3----------|
A|-5-------------------5---5-----5-----5-----5-----|-3------|-3----3----3----------|
E|-3---3---3---3---3---3---3-----3-----3-----3-----|-1------|-1----1----1----------|


E|--------|--------|--------|-------------|--------|--------|--------|-----------------------------------------------------------------|
B|--------|--------|--------|-------------|--------|--------|--------|-----------------------------------------------------------------|
G|-2------|--------|-5------|-------------|-2------|--------|-3------|-----------------------------------------------------------------|
D|-2------|-3------|-5------|-5-----2-----|-2------|-3------|-3------|-3---3---3---3---2---2---2---2---0---0---0---0-------------------|
A|-0------|-3------|-3------|-5-----2-----|-0------|-3------|-1------|-------------------------------------------------3---3---3---3---|
E|--------|-1------|--------|-3-----0-----|--------|-1------|--------|-----------------------------------------------------------------|


E|--------|--------|--------|-------------|--------|--------|--------|-------------------------------|
B|--------|--------|--------|-------------|--------|--------|--------|-------------------------------|
G|-2------|--------|-5------|-------------|-2------|--------|-3------|-3-----------------------------|
D|-2------|-3------|-5------|-5-----2-----|-2------|-3------|-3------|-3-----------------------------|
A|-0------|-3------|-3------|-5-----2-----|-0------|-3------|-1------|-1-----3-----3-----3-----3-----|
E|--------|-1------|--------|-3-----0-----|--------|-1------|--------|-------------------------------|


E|--------|--------|--------|--------|--------|--------|-------------------------------|
B|--------|--------|--------|--------|--------|--------|-------------------------------|
G|-2------|-2------|-2------|-2------|-2------|-4------|-------------------------------|
D|-2------|-2------|-2------|-2------|-2------|-4------|-4-4-----4-----4-4-------------|
A|-0------|-0------|-0------|-0------|-0------|-2------|-2-2-----2-----2-2-------------|
E|--------|--------|--------|--------|--------|--------|-------------------------------|


E|--------|-----------------------------------|-------------------------------------------|
B|--------|-----------------------------------|-------------------------------------------|
G|-4------|-----------------------------------|-------------------------------------------|
D|-4------|-4-4-----4-----4-4-----4-----------|-----------------4--------------------4----|
A|-2------|-2-2-----2-----2-2-----2-----------|-2-2-----2-----2-2----2-2-----2-----2-2----|
E|--------|-----------------------------------|-------------------------------------------|


E|-------------------------------------------|-------------------------------------------|
B|-------------------------------------------|-------------------------------------------|
G|-------------------------------------------|-------------------------------------------|
D|-----------------4--------------------4----|-----------------4--------------------4----|
A|-2-2-----2-----2-2----2-2-----2-----2-2----|-2-2-----2-----2-2----2-2-----2-----2-2----|
E|-------------------------------------------|-------------------------------------------|


E|-------------------------------------------|-------------------------------------------|
B|-------------------------------------------|-------------------------------------------|
G|-------------------------------------------|-------------------------------------------|
D|-----------------4--------------------4----|-----------------4--------------------4----|
A|-2-2-----2-----2-2----2-2-----2-----2-2----|-2-2---2-2-------2----2-2---2-2-------2----|
E|-------------------------------------------|-------------------------------------------|


E|-------------------------------------------|-------------------------------------------|
B|-------------------------------------------|-------------------------------------------|
G|-------------------------------------------|-------------------------------------------|
D|-----------------4--------------------4----|-----------------4--------------------4----|
A|-2-2---2-2-------2----2-2---2-2-------2----|-2-2---2-2-------2----2-2---2-2-------2----|
E|-------------------------------------------|-------------------------------------------|


E|-------------------------------------------------------------------|-----------------------------------------------------------|
B|-------------------------------------------------------------------|-----------------------------------------------------------|
G|-------------------------------------------------------------------|-----------------------------------------------------------|
D|-------------------------------------------------------------------|-----------------------------------------------------------|
A|-2-----2-----2-----2-----2-----2-----2-----------2-----2-----------|-2-------2-----2-----2----------2--------2-----2-----------|
E|-------------------------------------------------------------------|-----------------------------------------------------------|


E|-------------------------------------------------------------------|-----------------------------------------------------------|
B|-------------------------------------------------------------------|-----------------------------------------------------------|
G|-------------------------------------------------------------------|-----------------------------------------------------------|
D|-------------------------------------------------------------------|-----------------------------------------------------------|
A|-4-----4-----4-----4-----4-----4-----4-----------4-----4-----------|-4-------4-----4-----4----------4--------4-----4-----------|
E|-------------------------------------------------------------------|-----------------------------------------------------------|


E|-------------------------------------------------------------------|-----------------------------------------------------------|
B|-------------------------------------------------------------------|-----------------------------------------------------------|
G|-------------------------------------------------------------------|-----------------------------------------------------------|
D|-3-----3-----3-----3-----3-----3-----3-----------3-----3-----------|-3-------3-----3-----3----------3--------3-----3-----------|
A|-------------------------------------------------------------------|-----------------------------------------------------------|
E|-------------------------------------------------------------------|-----------------------------------------------------------|


E|-------------------------------------------------------------------|-----------------------------------------------------------|
B|-------------------------------------------------------------------|-----------------------------------------------------------|
G|-------------------------------------------------------------------|-----------------------------------------------------------|
D|-5-----5-----5-----5-----5-----5-----5-----------5-----5-----------|-5-------5-----5-----5----------5--------5-----5-----------|
A|-------------------------------------------------------------------|-----------------------------------------------------------|
E|-------------------------------------------------------------------|-----------------------------------------------------------|


E|-------------------------------------------------------------------------|-------------------------------------------------------------------------|
B|-------------------------------------------------------------------------|-------------------------------------------------------------------------|
G|-------------------------------------------------------------------------|-------------------------------------------------------------------------|
D|-3-----3-----3-----3-----3-----3-----3-----3-----3-----3-----3-----3-----|-3-----3-----3-----3-----3-----3-----3-----3-----3-----3-----3-----3-----|
A|-------------------------------------------------------------------------|-------------------------------------------------------------------------|
E|-------------------------------------------------------------------------|-------------------------------------------------------------------------|


E|-------------------------------------------------------------------------|-------------------------------------------------------------------------|
B|-------------------------------------------------------------------------|-------------------------------------------------------------------------|
G|-------------------------------------------------------------------------|-------------------------------------------------------------------------|
D|-2-----2-----2-----2-----2-----2-----2-----2-----2-----2-----2-----2-----|-2-----2-----2-----2-----2-----2-----2-----2-----2-----2-----2-----2-----|
A|-------------------------------------------------------------------------|-------------------------------------------------------------------------|
E|-------------------------------------------------------------------------|-------------------------------------------------------------------------|


E|--------------------------------------------------------|---------------------------------------|
B|--------------------------------------------------------|---------------------------------------|
G|--------------------------------------------------------|-3----3----3---------------------------|
D|----------6----6----------------------------------------|---------------4----4-4-----4----4---4-|
A|-4----4---4----4-4-----4-----4--4--------4-----4--------|-1----1----1---------------------------|
E|--------------------------------------------------------|---------------2----2-2-----2----2---2-|


E|-------------------------------------------------------------------------|-------------------------------------------------------------------------|
B|-------------------------------------------------------------------------|-------------------------------------------------------------------------|
G|-------------------------------------------------------------------------|-------------------------------------------------------------------------|
D|-------------------------------------------------------------------------|-------------------------------------------------------------------------|
A|-3-----5-----5-----5-----5-----5-----5-----5-----5-----5-----5-----5-----|-5-----5-----5-----5-----5-----5-----5-----5-----5-----5-----5-----5-----|
E|-------------------------------------------------------------------------|-------------------------------------------------------------------------|


E|-------------------------------------------------------------------------|-------------------------------------------------------------------------|
B|-------------------------------------------------------------------------|-------------------------------------------------------------------------|
G|-------------------------------------------------------------------------|-------------------------------------------------------------------------|
D|-------------------------------------------------------------------------|-------------------------------------------------------------------------|
A|-3-----5-----5-----5-----5-----5-----5-----5-----5-----5-----5-----5-----|-5-----5-----5-----5-----5-----5-----5-----5-----5-----5-----5-----5-----|
E|-------------------------------------------------------------------------|-------------------------------------------------------------------------|


E|-------------------------------------------------------------------------|-------------------------------------------------------------------------|
B|-------------------------------------------------------------------------|-------------------------------------------------------------------------|
G|-------------------------------------------------------------------------|-------------------------------------------------------------------------|
D|-------------------------------------------------------------------------|-------------------------------------------------------------------------|
A|-3-----5-----5-----5-----5-----5-----5-----5-----5-----5-----5-----5-----|-7-----7-----7-----7-----7-----7-----7-----7-----7-----7-----7-----7-----|
E|-------------------------------------------------------------------------|-------------------------------------------------------------------------|


E|-------------------------------------------------------------------------|-------------------------------------------------------------------------|
B|-------------------------------------------------------------------------|-------------------------------------------------------------------------|
G|-------------------------------------------------------------------------|-------------------------------------------------------------------------|
D|-5-----5-----5-----5-----5-----5-----5-----5-----5-----5-----5-----5-----|-8-----8-----8-----9-----9-----9-----12----12----12----12----14----14----|
A|-------------------------------------------------------------------------|-------------------------------------------------------------------------|
E|-------------------------------------------------------------------------|-------------------------------------------------------------------------|


E|-------------------------------------------------------------------------|-------------------------------------------------------------------------|
B|-------------------------------------------------------------------------|-------------------------------------------------------------------------|
G|-------------------------------------------------------------------------|-------------------------------------------------------------------------|
D|-------------------------------------------------------------------------|-------------------------------------------------------------------------|
A|-3-----5-----5-----5-----5-----5-----5-----5-----5-----5-----5-----5-----|-5-----5-----5-----5-----5-----5-----5-----5-----5-----5-----5-----5-----|
E|-------------------------------------------------------------------------|-------------------------------------------------------------------------|


E|-------------------------------------------------------------------------|-------------------------------------------------------------------------|
B|-------------------------------------------------------------------------|-------------------------------------------------------------------------|
G|-------------------------------------------------------------------------|-------------------------------------------------------------------------|
D|-------------------------------------------------------------------------|-------------------------------------------------------------------------|
A|-3-----5-----5-----5-----5-----5-----5-----5-----5-----5-----5-----5-----|-5-----5-----5-----5-----5-----5-----5-----5-----5-----5-----5-----5-----|
E|-------------------------------------------------------------------------|-------------------------------------------------------------------------|


E|-------------------------------------------------------------------------|-------------------------------------------------------------------------|
B|-------------------------------------------------------------------------|-------------------------------------------------------------------------|
G|-------------------------------------------------------------------------|-------------------------------------------------------------------------|
D|-------------------------------------------------------------------------|-------------------------------------------------------------------------|
A|-3-----5-----5-----5-----5-----5-----5-----5-----5-----5-----5-----5-----|-7-----7-----7-----7-----7-----7-----7-----7-----7-----7-----7-----7-----|
E|-------------------------------------------------------------------------|-------------------------------------------------------------------------|


E|-------------------------------------------------------------------------|---------------------------|
B|-------------------------------------------------------------------------|---------------------------|
G|-------------------------------------------------------------------------|---------------------------|
D|-------------------------------------------------------------------------|---------------------------|
A|-5-----5-----5-----5-----5-----5-----5-----5-----5-----5-----5-----5-----|-5---5---5---5---5---5-----|
E|-------------------------------------------------------------------------|---------------------------|


E|--------|--------|--------|--------|--------|--------|-----------------------------------------------------------------|
B|--------|--------|--------|--------|--------|--------|-----------------------------------------------------------------|
G|-4------|-4------|-2------|--------|--------|-6------|-----------------------------------------------------------------|
D|-4------|-5------|-2------|-7------|-5------|-5------|-----------------------------------------------------------------|
A|-2------|-2------|-0------|-9------|-5------|-5------|-4---5---4---2---4---5---4---2---4---5---4---2---4---5---4---2---|
E|--------|--------|--------|-5------|-3------|-3------|-2---3---2---0---2---3---2---0---2---3---2---0---2---3---2---0---|


E|-------------------------------------------------|-----------------------------------------------------------------|
B|-------------------------------------------------|-----------------------------------------------------------------|
G|-------------------------------------------------|-----------------------------------------------------------------|
D|-------------------------------------------------|---------------------------------0---------------4---2---0-------|
A|-4-----2-----4-----2-----4-----2-----4-----2-----|-4---2---0-------4---2---0-----------4---2---0---------------4---|
E|-2-----0-----2-----0-----2-----0-----2-----0-----|-------------3---------------3-----------------------------------|


E|-----------------------------------------------------------------|-----------------------------------------------------------------|
B|-----------------------------------------------------------------|-----------------------------------------------------------------|
G|-----------------------------------------------------------------|-----------------------------------------------------------------|
D|-----------------------------------------------------------------|-----------------------------------------------------------------|
A|-2---2---2---2---2---2---2---2---2---2---2---2---2---2---2---2---|-----------------------------------------------------------------|
E|-----------------------------------------------------------------|-3---3---3---3---3---3---3---3---3---3---3---3---3---3---3---3---|


E|-----------------------------------------------------------------|-----------------------------------------------------------------|
B|-----------------------------------------------------------------|-----------------------------------------------------------------|
G|-----------------------------------------------------------------|-----------------------------------------------------------------|
D|-----------------------------------------------------------------|-----------------------------------------------------------------|
A|-0---0---0---0---0---0---0---0---0---0---0---0---0---0---0---0---|-----------------------------------------------------------------|
E|-----------------------------------------------------------------|-2---2---2---2---2---2---2---2---2---2---2---2---2---2---2---2---|


E|-----------------------------------------------------------------|-----------------------------------------------------------------|
B|-----------------------------------------------------------------|-----------------------------------------------------------------|
G|-----------------------------------------------------------------|-----------------------------------------------------------------|
D|-----------------------------------------------------------------|-----------------------------------------------------------------|
A|-----------------------------------------------------------------|-----------------------------------------------------------------|
E|-3---3---3---3---3---3---3---3---3---3---3---3---3---3---3---3---|-0---0---0---0---0---0---0---0---0---0---0---0---0---0---0---0---|


E|-----------------------------------------------------------------|-----------------------------------------------------------------|
B|-----------------------------------------------------------------|-----------------------------------------------------------------|
G|-----------------------------------------------------------------|-----------------------------------------------------------------|
D|-----------------------------------------------------------------|-----------------------------------------------------------------|
A|-----------------------------------------------------------------|-----------------------------------------------------------------|
E|-2---2---2---2---2---2---2---2---2---2---2---2---2---2---2---2---|-2---2---2---2---2---2---2---2---2---2---2---2---2---2---2---2---|


E|-----------------------------------------------------------------|-----------------------------------------------------------------|
B|-----------------------------------------------------------------|-----------------------------------------------------------------|
G|-----------------------------------------------------------------|-----------------------------------------------------------------|
D|-----------------------------------------------------------------|-----------------------------------------------------------------|
A|-2---2---2---2---2---2---2---2---2---2---2---2---2---2---2---2---|-----------------------------------------------------------------|
E|-----------------------------------------------------------------|-3---3---3---3---3---3---3---3---3---3---3---3---3---3---3---3---|


E|-----------------------------------------------------------------|-----------------------------------------------------------------|
B|-----------------------------------------------------------------|-----------------------------------------------------------------|
G|-----------------------------------------------------------------|-----------------------------------------------------------------|
D|-----------------------------------------------------------------|-----------------------------------------------------------------|
A|-0---0---0---0---0---0---0---0---0---0---0---0---0---0---0---0---|-----------------------------------------------------------------|
E|-----------------------------------------------------------------|-2---2---2---2---2---2---2---2---2---2---2---2---2---2---2---2---|


E|-----------------------------------------------------------------|-----------------------------------------------------------------|
B|-----------------------------------------------------------------|-----------------------------------------------------------------|
G|-----------------------------------------------------------------|-----------------------------------------------------------------|
D|-----------------------------------------------------------------|-----------------------------------------------------------------|
A|-----------------------------------------------------------------|-----------------------------------------------------------------|
E|-3---3---3---3---3---3---3---3---3---3---3---3---3---3---3---3---|-0---0---0---0---0---0---0---0---0---0---0---0---0---0---0---0---|


E|-----------------------------------------------------|---------------------------------------|
B|-----------------------------------------------------|-2-----2-----2---2-----2---2-----------|
G|-----------------------------------------------------|---------------------------------------|
D|-4-----4-----4---4-----4---4-----4---4-----4-----4---|-4-----4-----4---4-----4---4-----------|
A|-4-----4-----4---4-----4---4-----4---4-----4-----4---|-4-----4-----4---4-----4---4-----------|
E|-2-----2-----2---2-----2---2-----2---2-----2-----2---|-2-----2-----2---2-----2---2-----------|


E|-------------------------------------------------------------|-------------------------------------------------|
B|-------------------------------------------------------------|-------------------------------------------------|
G|-------------------------------------------------------------|-------------------------------------------------|
D|-4-----------------------------------------------------------|-7-------------------7---7-------------------7---|
A|-2---2---2---2---2---2---2---2---2---2---2---2---2---2---2---|-5---5---5---5---5---5---4---4---4---4---4---4---|
E|-------------------------------------------------------------|-------------------------------------------------|


E|-------------------------------------------------------------|-----------------------------------|
B|-------------------------------------------------------------|-----------------------------------|
G|-------------------------------------------------------------|------------------------------2----|
D|-4-----------------------------------------------------------|-2-------------------2---6----2----|
A|-2---2---2---2---2---2---2---2---2---2---2---2---2---2---2---|-0---0---0---0---0---0---7----0----|
E|-------------------------------------------------------------|-------------------------4---------|


E|-------------------------------------------------------------|-------------------------------------------------|
B|-------------------------------------------------------------|-------------------------------------------------|
G|-------------------------------------------------------------|-------------------------------------------------|
D|-4-----------------------------------------------------------|-7-------------------7---7-------------------7---|
A|-2---2---2---2---2---2---2---2---2---2---2---2---2---2---2---|-5---5---5---5---5---5---4---4---4---4---4---4---|
E|-------------------------------------------------------------|-------------------------------------------------|


E|-------------------------------------------------|----------------------------|-------------------------------------------------------------|
B|-------------------------------------------------|----------------------------|-------------------------------------------------------------|
G|-------------------------------------------------|----------------------------|-------------------------------------------------------------|
D|-------------------------------------------------|-4-----------4----2----4----|-4-----------------------------------------------------------|
A|-5-------------------5-----------5-----------5---|-4-----------4--------------|-2---2---2---2---2---2---2---2---2---2---2---2---2---2---2---|
E|-3---3---3---3---3---3---3---3---3---3---3---3---|-2---2---2---2----0----2----|-------------------------------------------------------------|


E|-------------------------------------------------|-------------------------------------------------------------|
B|-------------------------------------------------|-------------------------------------------------------------|
G|-------------------------------------------------|-------------------------------------------------------------|
D|-7-------------------7---7-------------------7---|-4-----------------------------------------------------------|
A|-5---5---5---5---5---5---4---4---4---4---4---4---|-2---2---2---2---2---2---2---2---2---2---2---2---2---2---2---|
E|-------------------------------------------------|-------------------------------------------------------------|


E|-----------------------------------|-------------------------------------------------------------|
B|-----------------------------------|-------------------------------------------------------------|
G|------------------------------2----|-------------------------------------------------------------|
D|-2-------------------2---6----2----|-4-----------------------------------------------------------|
A|-0---0---0---0---0---0---7----0----|-2---2---2---2---2---2---2---2---2---2---2---2---2---2---2---|
E|-------------------------4---------|-------------------------------------------------------------|


E|-------------------------------------------------|-------------------------------------------------|
B|-------------------------------------------------|-------------------------------------------------|
G|-------------------------------------------------|-------------------------------------------------|
D|-7-------------------7---7-------------------7---|-------------------------------------------------|
A|-5---5---5---5---5---5---4---4---4---4---4---4---|-5-------------------5-----------5-----------5---|
E|-------------------------------------------------|-3---3---3---3---3---3---3---3---3---3---3---3---|


E|-----------------------------------------------------------------|-----------------------------------------------------|
B|-----------------------------------------------------------------|-----------------------------------------------------|
G|-----------------------------------------------------------------|-----------------------------------------------------|
D|-----------------------------------------------------------------|-7-------------------7---7---------------------------|
A|-----------------------------------------------------------------|-5---5---5---5---5---5---5---5---5---5---5---5---5---|
E|-2---2---2---2---2---2---2---2---2---2---2---2---2---2---2---2---|-----------------------------------------------------|


E|-----------------------------------------------------|-----------------------------------------------------|
B|-----------------------------------------------------|-----------------------------------------------------|
G|-----------------------------------------------------|-----------------------------------------------------|
D|-7-------------------7---7---------------------------|-9-------------------9---9---------------------------|
A|-4---4---4---4---4---4---4---4---4---4---4---4---4---|-7---7---7---7---7---7---7---7---7---7---7---7---7---|
E|-----------------------------------------------------|-----------------------------------------------------|


E|-------------------------------------------------|-------------------------------------------------|
B|-------------------------------------------------|-------------------------------------------------|
G|-------------------------------------------------|-------------------------------------------------|
D|-9-------------------9---9-------------------9---|-------------------------------------------------|
A|-6---6---6---6---6---6---6---6---6---6---6---6---|-5-------------------5---5-----5-----5-----5-----|
E|-------------------------------------------------|-3---3---3---3---3---3---3-----3-----3-----3-----|


E|-------------------------------------------------|-----------------------------------|
B|-------------------------------------------------|-----------------------------------|
G|-------------------------------------------------|-------------------------5-----5---|
D|-------------------------------------------------|-------------------------5---------|
A|-5-------------------5---5-----5-----5-----5-----|-3---3---3---3---3---3---3-----3---|
E|-3---3---3---3---3---3---3-----3-----3-----3-----|-----------------------------------|


E|-----------------------------------|-----------------------------------------------------|
B|-----------------------------------|-----------------------------------------------------|
G|-------------------------2-----2---|-----------------------------------------------------|
D|-------------------------2-----2---|-7-------------------7---7---------------------------|
A|-0---0---0---0---0---0---0-----0---|-5---5---5---5---5---5---5---5---5---5---5---5---5---|
E|-----------------------------------|-----------------------------------------------------|


E|-----------------------------------------------------|-----------------------------------------------------|
B|-----------------------------------------------------|-----------------------------------------------------|
G|-----------------------------------------------------|-----------------------------------------------------|
D|-7-------------------7---7---------------------------|-9-------------------9---9---------------------------|
A|-4---4---4---4---4---4---4---4---4---4---4---4---4---|-7---7---7---7---7---7---7---7---7---7---7---7---7---|
E|-----------------------------------------------------|-----------------------------------------------------|


E|-------------------------------------------------|-------------------------------------------------|
B|-------------------------------------------------|-------------------------------------------------|
G|-------------------------------------------------|-------------------------------------------------|
D|-9-------------------9---9-------------------9---|-------------------------------------------------|
A|-6---6---6---6---6---6---6---6---6---6---6---6---|-5-------------------5---5-----5-----5-----5-----|
E|-------------------------------------------------|-3---3---3---3---3---3---3-----3-----3-----3-----|


E|-------------------------------------------------|--------|----------------------|
B|-------------------------------------------------|--------|----------------------|
G|-------------------------------------------------|--------|----------------------|
D|-------------------------------------------------|-3------|-3----3----3----------|
A|-5-------------------5---5-----5-----5-----5-----|-3------|-3----3----3----------|
E|-3---3---3---3---3---3---3-----3-----3-----3-----|-1------|-1----1----1----------|


E|--------|--------|--------|-------------|--------|--------|--------|-----------------------------------------------------------------|
B|--------|--------|--------|-------------|--------|--------|--------|-----------------------------------------------------------------|
G|-2------|--------|-5------|-------------|-2------|--------|-3------|-----------------------------------------------------------------|
D|-2------|-3------|-5------|-5-----2-----|-2------|-3------|-3------|-3---3---3---3---2---2---2---2---0---0---0---0-------------------|
A|-0------|-3------|-3------|-5-----2-----|-0------|-3------|-1------|-------------------------------------------------3---3---3---3---|
E|--------|-1------|--------|-3-----0-----|--------|-1------|--------|-----------------------------------------------------------------|


E|--------|--------|--------|-------------|--------|--------|--------|-----------------------------|
B|--------|--------|--------|-------------|--------|--------|--------|-----------------------------|
G|-2------|--------|-5------|-------------|-2------|--------|-3------|-3-----3---7-----7-----7-----|
D|-2------|-3------|-5------|-5-----2-----|-2------|-3------|-3------|-3-----3---7-----7-----7-----|
A|-0------|-3------|-3------|-5-----2-----|-0------|-3------|-1------|-1-----1---5-----5-----5-----|
E|--------|-1------|--------|-3-----0-----|--------|-1------|--------|-----------------------------|


E|--------|--------|--------|---------------------------------------|--------|--------|
B|--------|--------|--------|---------------------------------------|--------|--------|
G|--------|--------|-7------|-2-------------------------------------|--------|--------|
D|-9------|-5------|-7------|-2-------------------------------------|-4------|-5------|
A|-9------|-5------|-5------|-0---------------------5---5---5---5---|-2------|-5------|
E|-7------|-3------|--------|-------2---2---2---2-------------------|--------|-3------|


E|--------|-------------------------------------------------|--------|--------|--------|
B|--------|-------------------------------------------------|--------|--------|--------|
G|-5------|-------------------------------------------------|--------|--------|-7------|
D|-5------|-------------------------------------------------|-4------|-5------|-7------|
A|-3------|-3--3--3--3--3--3--3--3--3--3--3--3--3--3--3--3--|-2------|-5------|-5------|
E|--------|-------------------------------------------------|--------|-3------|--------|


E|-------------|--------|--------|--------|---------------------------------------|
B|-------------|--------|--------|--------|---------------------------------------|
G|-2-----------|--------|--------|-5------|-5-------------------------------------|
D|-2-----4-----|-4------|-5------|-5------|-5-------------------------------------|
A|-0-----5-----|-2------|-5------|-3------|-3-------------------------------------|
E|-------2-----|--------|-3------|--------|-------------------------------------2-|


E|-----------------------------------------------------|-----------------------------------------------------|
B|-----------------------------------------------------|-----------------------------------------------------|
G|-----------------------------------------------------|-----------------------------------------------------|
D|-4-----4-----4---4-----4---4-----4---4-----4-----4---|-4-----4-----4---4-----4---4-----4---4-----4-----4---|
A|-2-----2-----2---2-----2---2-----2---2-----2-----2---|-2-----2-----2---2-----2---2-----2---2-----2-----2---|
E|-----------------------------------------------------|-----------------------------------------------------|


E|-----------------------------------------------------|-----------------------------------------------------|
B|-----------------------------------------------------|-----------------------------------------------------|
G|-----------------------------------------------------|-----------------------------------------------------|
D|-4-----4-----4---4-----4---4-----4---4-----4-----4---|-4-----4-----4---4-----4---4-----4---4-----4-----4---|
A|-2-----2-----2---2-----2---2-----2---2-----2-----2---|-2-----2-----2---2-----2---2-----2---2-----2-----2---|
E|-----------------------------------------------------|-----------------------------------------------------|


E|--------------------|----------------|----------------|
B|--------------------|----------------|----------------|
G|--------------------|----------------|----------------|
D|-4------------------|----------------|----------------|
A|-2------------------|----------------|----------------|
E|--------------------|----------------|----------------|









Track 3: Drums
Back to top
C|-45-----|---------------45|-45-43-----45---------|-------43--------|-40----40----40-40----40-40----40-40----40----40-|
C|-45-----|-----------------|----------------------|-----------------|-38----38----38-38----38-38----38-38----38----38-|
C|--------|-----------------|----------------------|-----------------|-------------------------------------------------|
C|--------|-----------------|----------------------|-----------------|-------------------------------------------------|
C|--------|-----------------|----------------------|-----------------|-------------------------------------------------|
C|--------|-----------------|----------------------|-----------------|-------------------------------------------------|


C|-36-36-36-36-36-36-36-36-36-36-36-36-36-36-36-36-|-36-36-36-36-36-36-36-36-36-36-36-36-36-38-36-36-|
C|-35-35-35-35-35-35-35-35-35-35-35-35-35-35-35-35-|-35-35-35-35-35-35-35-35-35-35-35-35-35-40-35-35-|
C|-40----40----40-40----40-40----40-40----40----40-|-40----40----40-40----40-40----40-40----36----40-|
C|-38----38----38-38----38-38----38-38----38----38-|-38----38----38-38----38-38----38-38----35----38-|
C|-------------------------------------------------|-------------------------------------------------|
C|-------------------------------------------------|-------------------------------------------------|


C|-36-36-36-36-36-36-36-36-36-36-36-36-36-36-40----|-57----42----36-36-40----36----40----36-36-40----|
C|-35-35-35-35-35-35-35-35-35-35-35-35-35-35-38----|-36----40----35-35-38----35----38----35-35-38----|
C|-40----40----40-40-48-48-45-45-45-42-43-43-57----|-35----38----42----42----42----42----42----42----|
C|-38----38----38-38-50-50-47-47-47----45-45-------|-------------------------------------------------|
C|-------------------------------------------------|-------------------------------------------------|
C|-------------------------------------------------|-------------------------------------------------|


C|-42----42----36-36-40----36----40----36-36-40----|-42----42----36-36-40----36----40----36-36-40----|
C|-36----40----35-35-38----35----38----35-35-38----|-36----40----35-35-38----35----38----35-35-38----|
C|-35----38----42----42----42----42----42----42----|-35----38----42----42----42----42----42----42----|
C|-------------------------------------------------|-------------------------------------------------|
C|-------------------------------------------------|-------------------------------------------------|
C|-------------------------------------------------|-------------------------------------------------|


C|-42----42----36-36-40----57----40----49----40----|-57----42----36-36-40----36----40----36-36-40----|
C|-36----40----35-35-38----36----38----36----38----|-36----40----35-35-38----35----38----35-35-38----|
C|-35----38----42----42----35----42----35----42----|-35----38----42----42----42----42----42----42----|
C|-------------------------------------------------|-------------------------------------------------|
C|-------------------------------------------------|-------------------------------------------------|
C|-------------------------------------------------|-------------------------------------------------|


C|-42----42----36-36-40----36----40----36-36-40----|-42----36-36-36-36-57----36----49----36----57----|
C|-36----40----35-35-38----35----38----35-35-38----|-------35-35-35-35-40----35----40----35----40----|
C|-35----38----42----42----42----42----42----42----|-------42----42----38----42----38----42----38----|
C|-------------------------------------------------|-------40----------------------------------------|
C|-------------------------------------------------|-------38----------------------------------------|
C|-------------------------------------------------|-------------------------------------------------|


C|-49----36-36-57----36-36-49----40-40-42-36-40-40-|-57----42----36-36-40----36----40----36-36-40----|
C|-36----35-35-40----35-35-36----38-38-36-35-38-38-|-36----40----35-35-38----35----38----35-35-38----|
C|-35----42----38----42----35----------35----------|-35----38----42----42----42----42----42----42----|
C|-------------------------------------------------|-------------------------------------------------|
C|-------------------------------------------------|-------------------------------------------------|
C|-------------------------------------------------|-------------------------------------------------|


C|-42----42----36-36-40----36----40----36-36-40----|-42----42----36-36-40----36----40----36-36-40----|
C|-36----40----35-35-38----35----38----35-35-38----|-36----40----35-35-38----35----38----35-35-38----|
C|-35----38----42----42----42----42----42----42----|-35----38----42----42----42----42----42----42----|
C|-------------------------------------------------|-------------------------------------------------|
C|-------------------------------------------------|-------------------------------------------------|
C|-------------------------------------------------|-------------------------------------------------|


C|-42----42----36-36-40----57----40----49----40----|-57----42----36-36-40----36----40----36-36-40----|
C|-36----40----35-35-38----36----38----36----38----|-36----40----35-35-38----35----38----35-35-38----|
C|-35----38----42----42----35----42----35----42----|-35----38----42----42----42----42----42----42----|
C|-------------------------------------------------|-------------------------------------------------|
C|-------------------------------------------------|-------------------------------------------------|
C|-------------------------------------------------|-------------------------------------------------|


C|-42----42----36-36-40----36----40----36-36-40----|-36-36-36-36-36-36-42-36-36-36-42-36-36-36-36-36-|
C|-36----40----35-35-38----35----38----35-35-38----|-35-35-35-35-35-35-36-35-35-35-36-35-35-35-35-35-|
C|-35----38----42----42----42----42----42----42----|-42----42----42----35----42----35----42----42----|
C|-------------------------------------------------|-------40----------40----------40----------40----|
C|-------------------------------------------------|-------38----------38----------38----------38----|
C|-------------------------------------------------|-------------------------------------------------|


C|-42-36-40-36-42-36-40-36-42-36-36-36-42-36-40-36-|-57----59-36-59-36-59----59----59-36-59-36-59----|
C|-36-35-38-35-36-35-38-35-36-35-42-35-36-35-38-35-|-36----40-35-36-35-40----36----40-35-36-35-40----|
C|-35----36----35----36----35----35----35----36----|-35----38----35----38----35----38----35----38----|
C|-------35----------35----------40----------42----|-------------------------------------------------|
C|-------42----------42----------38----------35----|-------------------------------------------------|
C|-------------------------------------------------|-------------------------------------------------|


C|-59----59-36-59-36-59----59----59-36-59-36-59----|-59----59-36-59-36-59----59----59-36-59-36-59----|
C|-36----40-35-36-35-40----36----40-35-36-35-40----|-36----40-35-36-35-40----36----40-35-36-35-40----|
C|-35----38----35----38----35----38----35----38----|-35----38----35----38----35----38----35----38----|
C|-------------------------------------------------|-------------------------------------------------|
C|-------------------------------------------------|-------------------------------------------------|
C|-------------------------------------------------|-------------------------------------------------|


C|-59----59-36-59-36-59----59----59-36-59-36-59----|-36----40----36-36-40----36----40----36----40----|
C|-36----40-35-36-35-40----36----40-35-36-35-40----|-59----38----35-35-38----35----38----35----38----|
C|-35----38----35----38----35----38----35----38----|-35----59----59----59----59----59----59----59----|
C|-------------------------------------------------|-------------------------------------------------|
C|-------------------------------------------------|-------------------------------------------------|
C|-------------------------------------------------|-------------------------------------------------|


C|-59----59-36-59-36-59----59-36-59----59----59----|-59-36-59-36-59-36-59----59-36-59----59----59----|
C|-36----38-35----35-40-------35-40----36----40----|-36-35-40-35-36-35-40-------35-40----36----40----|
C|-35----40----------38----------38----35----38----|-35----38----35----38----------38----35----38----|
C|-------------------------------------------------|-------------------------------------------------|
C|-------------------------------------------------|-------------------------------------------------|
C|-------------------------------------------------|-------------------------------------------------|


C|-59-36-59-36-59-36-59----59-36-59----59----59----|-57----59-36-59-36-59----59----59-36-59-36-59----|
C|-36-35-40-35-36-35-40-------35-40----36----40----|-36----40-35-36-35-40----36----40-35-36-35-40----|
C|-35----38----35----38----------38----35----38----|-35----38----35----38----35----38----35----38----|
C|-------------------------------------------------|-------------------------------------------------|
C|-------------------------------------------------|-------------------------------------------------|
C|-------------------------------------------------|-------------------------------------------------|


C|-59----59-36-59-36-59----59----59-36-59-36-59----|-59----59-36-59-36-59----59----59-36-59-36-59----|
C|-36----40-35-36-35-40----36----40-35-36-35-40----|-36----40-35-36-35-40----36----40-35-36-35-40----|
C|-35----38----35----38----35----38----35----38----|-35----38----35----38----35----38----35----38----|
C|-------------------------------------------------|-------------------------------------------------|
C|-------------------------------------------------|-------------------------------------------------|
C|-------------------------------------------------|-------------------------------------------------|


C|-59----59-36-59-36-59----59----59-36-59-36-59----|-36----40----36-36-40----36----40----36----40----|
C|-36----40-35-36-35-40----36----40-35-36-35-40----|-59----38----35-35-38----35----38----35----38----|
C|-35----38----35----38----35----38----35----38----|-35----59----59----59----59----59----59----59----|
C|-------------------------------------------------|-------------------------------------------------|
C|-------------------------------------------------|-------------------------------------------------|
C|-------------------------------------------------|-------------------------------------------------|


C|-36----40----36-36-40----36----40----36----40----|-36----40----36-36-40----36----40----36----4040---|
C|-59----38----35-35-38----35----38----35----38----|-59----38----35-35-38----35----38----35----3838---|
C|-35----59----59----59----59----59----59----59----|-35----59----59----59----59----59----59----59-----|
C|-------------------------------------------------|--------------------------------------------------|
C|-------------------------------------------------|--------------------------------------------------|
C|-------------------------------------------------|--------------------------------------------------|


C|-57--5749--49--57--5759--------|-57----42----36-36-40----36----40----36-36-40----|
C|-36--3636--36--36--3636--------|-36----40----35-35-38----35----38----35-35-38----|
C|-35--3535--35--35--3535--------|-35----38----42----42----42----42----42----42----|
C|-------------------------------|-------------------------------------------------|
C|-------------------------------|-------------------------------------------------|
C|-------------------------------|-------------------------------------------------|


C|-42----42----36-36-40----36----40----36-36-40----|-42----42----36-36-40----36----40----36-36-40----|
C|-36----40----35-35-38----35----38----35-35-38----|-36----40----35-35-38----35----38----35-35-38----|
C|-35----38----42----42----42----42----42----42----|-35----38----42----42----42----42----42----42----|
C|-------------------------------------------------|-------------------------------------------------|
C|-------------------------------------------------|-------------------------------------------------|
C|-------------------------------------------------|-------------------------------------------------|


C|-42----42----36-36-40----57----40----49----40----|-57----42----36-36-40----36----40----36-36-40----|
C|-36----40----35-35-38----36----38----36----38----|-36----40----35-35-38----35----38----35-35-38----|
C|-35----38----42----42----35----42----35----42----|-35----38----42----42----42----42----42----42----|
C|-------------------------------------------------|-------------------------------------------------|
C|-------------------------------------------------|-------------------------------------------------|
C|-------------------------------------------------|-------------------------------------------------|


C|-42----42----36-36-40----36----40----36-36-40----|-42----36-36-36-36-57----36----49----36----57----|
C|-36----40----35-35-38----35----38----35-35-38----|-------35-35-35-35-40----35----40----35----40----|
C|-35----38----42----42----42----42----42----42----|-------42----42----38----42----38----42----38----|
C|-------------------------------------------------|-------40----------------------------------------|
C|-------------------------------------------------|-------38----------------------------------------|
C|-------------------------------------------------|-------------------------------------------------|


C|-49----36-36-57----36-36-49----40-40-42-36-40-40-|-57----42----36-36-40----36----40----36-36-40----|
C|-36----35-35-40----35-35-36----38-38-36-35-38-38-|-36----40----35-35-38----35----38----35-35-38----|
C|-35----42----38----42----35----------35----------|-35----38----42----42----42----42----42----42----|
C|-------------------------------------------------|-------------------------------------------------|
C|-------------------------------------------------|-------------------------------------------------|
C|-------------------------------------------------|-------------------------------------------------|


C|-42----42----36-36-40----36----40----36-36-40----|-42----42----36-36-40----36----40----36-36-40----|
C|-36----40----35-35-38----35----38----35-35-38----|-36----40----35-35-38----35----38----35-35-38----|
C|-35----38----42----42----42----42----42----42----|-35----38----42----42----42----42----42----42----|
C|-------------------------------------------------|-------------------------------------------------|
C|-------------------------------------------------|-------------------------------------------------|
C|-------------------------------------------------|-------------------------------------------------|


C|-42----42----36-36-40----57----40----49----40----|-57----42----36-36-40----36----40----36-36-40----|
C|-36----40----35-35-38----36----38----36----38----|-36----40----35-35-38----35----38----35-35-38----|
C|-35----38----42----42----35----42----35----42----|-35----38----42----42----42----42----42----42----|
C|-------------------------------------------------|-------------------------------------------------|
C|-------------------------------------------------|-------------------------------------------------|
C|-------------------------------------------------|-------------------------------------------------|


C|-42----42----36-36-40----36----40----36-36-40----|-36-36-36-36-36-36-42-36-36-36-42-36-36-36-36-36-|
C|-36----40----35-35-38----35----38----35-35-38----|-35-35-35-35-35-35-36-35-35-35-36-35-35-35-35-35-|
C|-35----38----42----42----42----42----42----42----|-42----42----42----35----42----35----42----42----|
C|-------------------------------------------------|-------40----------40----------40----------40----|
C|-------------------------------------------------|-------38----------38----------38----------38----|
C|-------------------------------------------------|-------------------------------------------------|


C|-42-36-40-36-42-36-40-36-42-36-36-36-42-36-40-36-|-57----59-36-59-36-59----59----59-36-59-36-59----|
C|-36-35-38-35-36-35-38-35-36-35-42-35-36-35-38-35-|-36----40-35-36-35-40----36----40-35-36-35-40----|
C|-35----36----35----36----35----35----35----36----|-35----38----35----38----35----38----35----38----|
C|-------35----------35----------40----------42----|-------------------------------------------------|
C|-------42----------42----------38----------35----|-------------------------------------------------|
C|-------------------------------------------------|-------------------------------------------------|


C|-59----59-36-59-36-59----59----59-36-59-36-59----|-59----59-36-59-36-59----59----59-36-59-36-59----|
C|-36----40-35-36-35-40----36----40-35-36-35-40----|-36----40-35-36-35-40----36----40-35-36-35-40----|
C|-35----38----35----38----35----38----35----38----|-35----38----35----38----35----38----35----38----|
C|-------------------------------------------------|-------------------------------------------------|
C|-------------------------------------------------|-------------------------------------------------|
C|-------------------------------------------------|-------------------------------------------------|


C|-59----59-36-59-36-59----59----59-36-59-36-59----|-36----40----36-36-40----36----40----36----40----|
C|-36----40-35-36-35-40----36----40-35-36-35-40----|-59----38----35-35-38----35----38----35----38----|
C|-35----38----35----38----35----38----35----38----|-35----59----59----59----59----59----59----59----|
C|-------------------------------------------------|-------------------------------------------------|
C|-------------------------------------------------|-------------------------------------------------|
C|-------------------------------------------------|-------------------------------------------------|


C|-59----59-36-59-36-59----59-36-59----59----59----|-59-36-59-36-59-36-59----59-36-59----59----59----|
C|-36----38-35----35-40-------35-40----36----40----|-36-35-40-35-36-35-40-------35-40----36----40----|
C|-35----40----------38----------38----35----38----|-35----38----35----38----------38----35----38----|
C|-------------------------------------------------|-------------------------------------------------|
C|-------------------------------------------------|-------------------------------------------------|
C|-------------------------------------------------|-------------------------------------------------|


C|-59-36-59-36-59-36-59----59-36-59----59----59----|-57----59-36-59-36-59----59----59-36-59-36-59----|
C|-36-35-40-35-36-35-40-------35-40----36----40----|-36----40-35-36-35-40----36----40-35-36-35-40----|
C|-35----38----35----38----------38----35----38----|-35----38----35----38----35----38----35----38----|
C|-------------------------------------------------|-------------------------------------------------|
C|-------------------------------------------------|-------------------------------------------------|
C|-------------------------------------------------|-------------------------------------------------|


C|-59----59-36-59-36-59----59----59-36-59-36-59----|-59----59-36-59-36-59----59----59-36-59-36-59----|
C|-36----40-35-36-35-40----36----40-35-36-35-40----|-36----40-35-36-35-40----36----40-35-36-35-40----|
C|-35----38----35----38----35----38----35----38----|-35----38----35----38----35----38----35----38----|
C|-------------------------------------------------|-------------------------------------------------|
C|-------------------------------------------------|-------------------------------------------------|
C|-------------------------------------------------|-------------------------------------------------|


C|-59----59-36-59-36-59----59----59-36-59-36-59----|-36----40----36-36-40----36----40----36----40----|
C|-36----40-35-36-35-40----36----40-35-36-35-40----|-59----38----35-35-38----35----38----35----38----|
C|-35----38----35----38----35----38----35----38----|-35----59----59----59----59----59----59----59----|
C|-------------------------------------------------|-------------------------------------------------|
C|-------------------------------------------------|-------------------------------------------------|
C|-------------------------------------------------|-------------------------------------------------|


C|-36----40----36-36-40----36----40----36----40----|-57--36-36--40--36-36--59--36-36--40--36-36--|
C|-59----38----35-35-38----35----38----35----38----|-36--35-35--38--35-35--36--35-35--38--35-35--|
C|-35----59----59----59----59----59----59----59----|-35---------59---------35---------59---------|
C|-------------------------------------------------|------------6---------------------6----------|
C|-------------------------------------------------|---------------------------------------------|
C|-------------------------------------------------|---------------------------------------------|


C|-4038--49--49--57--57------|-57-36-40-36-59-36-40-36-59-36-40-36-59-36-40-36-|-59-36-40-36-59-36-40-36-59-36-40-36-59-36-40-36-|
C|-3840--36--36--36--36------|-36-35-38-35-36-35-38-35-36-35-38-35-36-35-38-35-|-36-35-38-35-36-35-38-35-36-35-38-35-36-35-38-35-|
C|-------35--35--35--35------|-35----59----35----59----35----59----35----59----|-35----59----35----59----35----59----35----59----|
C|---------------------------|-------------------------------------------------|-------------------------------------------------|
C|---------------------------|-------------------------------------------------|-------------------------------------------------|
C|---------------------------|-------------------------------------------------|-------------------------------------------------|


C|-59-36-40-36-59-36-40-36-59-36-40-36-59-36-40-36-|-59-36-40-36-59-36-40-36-59-36-40-36-59-36-40-36-|
C|-36-35-38-35-36-35-38-35-36-35-38-35-36-35-38-35-|-36-35-38-35-36-35-38-35-36-35-38-35-36-35-38-35-|
C|-35----59----35----59----35----59----35----59----|-35----59----35----59----35----59----35----59----|
C|-------------------------------------------------|-------------------------------------------------|
C|-------------------------------------------------|-------------------------------------------------|
C|-------------------------------------------------|-------------------------------------------------|


C|-59-36-40-36-59-36-40-36-59-36-40-36-59-36-40-36-|-59-36-40-36-59-36-40-36-59-36-40-36-59-36-40-36-|
C|-36-35-38-35-36-35-38-35-36-35-38-35-36-35-38-35-|-36-35-38-35-36-35-38-35-36-35-38-35-36-35-38-35-|
C|-35----59----35----59----35----59----35----59----|-35----59----35----59----35----59----35----59----|
C|-------------------------------------------------|-------------------------------------------------|
C|-------------------------------------------------|-------------------------------------------------|
C|-------------------------------------------------|-------------------------------------------------|


C|-59-36-40-36-59-36-40-36-59-36-40-36-59-36-40-36-|-59-36-40-36-59-36-40-36-59-36-57-36-59-36-57-36-|
C|-36-35-38-35-36-35-38-35-36-35-38-35-36-35-38-35-|-36-35-38-35-36-35-38-35-36-35-40-35-36-35-40-35-|
C|-35----59----35----59----35----59----35----59----|-35----59----35----59----35----38----35----38----|
C|-------------------------------------------------|-------------------------------------------------|
C|-------------------------------------------------|-------------------------------------------------|
C|-------------------------------------------------|-------------------------------------------------|


C|-57-36-40-36-59-36-40-36-59-36-40-36-59-36-40-36-|-59-36-40-36-59-36-40-36-59-36-40-36-59-36-40-36-|
C|-36-35-38-35-36-35-38-35-36-35-38-35-36-35-38-35-|-36-35-38-35-36-35-38-35-36-35-38-35-36-35-38-35-|
C|-35----59----35----59----35----59----35----59----|-35----59----35----59----35----59----35----59----|
C|-------------------------------------------------|-------------------------------------------------|
C|-------------------------------------------------|-------------------------------------------------|
C|-------------------------------------------------|-------------------------------------------------|


C|-59-36-40-36-59-36-40-36-59-36-40-36-59-36-40-36-|-59-36-40-36-59-36-40-36-59-36-40-36-59-36-40-36-|
C|-36-35-38-35-36-35-38-35-36-35-38-35-36-35-38-35-|-36-35-38-35-36-35-38-35-36-35-38-35-36-35-38-35-|
C|-35----59----35----59----35----59----35----59----|-35----59----35----59----35----59----35----59----|
C|-------------------------------------------------|-------------------------------------------------|
C|-------------------------------------------------|-------------------------------------------------|
C|-------------------------------------------------|-------------------------------------------------|


C|-59-36-40-36-59-36-40-36-59-36-40-36-59-36-40-36-|-59-36-40-36-59-36-40-36-59-36-40-36-59-36-40-36-|
C|-36-35-38-35-36-35-38-35-36-35-38-35-36-35-38-35-|-36-35-38-35-36-35-38-35-36-35-38-35-36-35-38-35-|
C|-35----59----35----59----35----59----35----59----|-35----59----35----59----35----59----35----59----|
C|-------------------------------------------------|-------------------------------------------------|
C|-------------------------------------------------|-------------------------------------------------|
C|-------------------------------------------------|-------------------------------------------------|


C|-59-36-40-36-59-36-40-36-59-36-40-36-59-36-40-36-|-59-36-40-36-59-36-40-36-57---40---|
C|-36-35-38-35-36-35-38-35-36-35-38-35-36-35-38-35-|-36-35-38-35-36-35-38-35-40---38---|
C|-35----59----35----59----35----59----35----59----|-35----59----35----59----38---49---|
C|-------------------------------------------------|-----------------------------------|
C|-------------------------------------------------|-----------------------------------|
C|-------------------------------------------------|-----------------------------------|


C|-49----------|--------|-57----------|-3535--3535-------3535--3535--------|-3535--3535------3535--3636-------3535--3535--|
C|-57----------|--------|-49----------|-4545--4545-------4545--4545--------|-3636--3636------3636--3535-------3636--3636--|
C|-36----------|--------|-35----------|------------------------------------|----------------------------------------------|
C|-35----------|--------|-36----------|-3636--3636-------3636--3636--------|-4545--4545------4545--4545-------4545--4545--|
C|-------------|--------|-------------|------------------------------------|----------------------------------------------|
C|-------------|--------|-------------|------------------------------------|----------------------------------------------|


C|-57----------|-3636----36----3657---------|-57----------|-3636--113611--36494---49-----4848--485048--484747--47|
C|-49----------|-3535----35----3536---------|-36----------|-3535----35----3557----57-----5050--504850--504545--45|
C|-36----------|-----------------35---------|-35----------|-----------------36----36-----------------------------|
C|-35----------|----------------------------|-------------|-----------------35----35-----------------------------|
C|-------------|----------------------------|-------------|------------------------------------------------------|
C|-------------|----------------------------|-------------|------------------------------------------------------|


C|-3636----369---3657---3636--9-369---3657---|-3636--13369---3657---3636--9-369---364916--434343--43|
C|-3535----35----3540---3535----35----3540---|-3535----35----3540---3535----35----3557----414141--41|
C|-----------------38-------------------38---|-----------------38-------------------40--------------|
C|-------------------------------------------|--------------------------------------38--------------|
C|-------------------------------------------|------------------------------------------------------|
C|-------------------------------------------|------------------------------------------------------|


C|-3636--13369---3657---3636--9-369---3657---|-3636--13369---3657--49-49--3636--9-369---3657---|
C|-3535----35----3540---3535----35----3540---|-3535----35----3540--40-57--3535----35----3540---|
C|-----------------38-------------------38---|-----------------38--38-40------------------38---|
C|-------------------------------------------|------------------------38-----------------------|
C|-------------------------------------------|-------------------------------------------------|
C|-------------------------------------------|-------------------------------------------------|


C|-5736--3636----49------5736--3636----57------|-5736--3636----49------5736--3636----57------|
C|-3635--3535----57------3635--3535----49------|-3635--3535----57------3635--3535----49------|
C|-35------------40------35------------40------|-35------------40------35------------40------|
C|---------------38--------------------38------|---------------38--------------------38------|
C|---------------------------------------------|---------------------------------------------|
C|---------------------------------------------|---------------------------------------------|


C|-5736--3636----49------5736--3636----57------|-49--36--36--42--36--42--36------40--36--36--|
C|-3635--3535----57------3635--3535----49------|-57--35--35--40--35--36--35------38--35--35--|
C|-35------------40------35------------40------|-36----------38------35----------42----------|
C|---------------38--------------------38------|-35------------------------------------------|
C|---------------------------------------------|---------------------------------------------|
C|---------------------------------------------|---------------------------------------------|


C|-42---42--36--36--42--36--42--36------|-42--36--36--40--36--42--36--7---40--36--36--|
C|-36---38--35--35------35--40--35------|-36--35--35--38--35--36--35------38--35--35--|
C|-35---40------------------38----------|-35----------42------35----------42----------|
C|--------------------------------------|---------------------------------7-----------|
C|--------------------------------------|---------------------------------------------|
C|--------------------------------------|---------------------------------------------|


C|-42---40--36--36--42--36--40--36------|-42--36--36--40--36--42--36--7---40--36--36--|
C|-36---38--35--35------35--38--35------|-36--35--35--38--35--36--35------38--35--35--|
C|-35---42------------------42----------|-35----------42------35----------42----------|
C|--------------------------4-----------|---------------------------------7-----------|
C|--------------------------------------|---------------------------------------------|
C|--------------------------------------|---------------------------------------------|


C|-42---40--36--36--42--36--40--36--2---|-50--47--45--36--36--40--49--11--11--40--40--|
C|-36---38--35--35------35--38--35------|-------------35--35--38--57----------38--38--|
C|-35---42------------------42----------|-------------------------36------------------|
C|--------------------------4-----------|-------------------------35------------------|
C|--------------------------------------|---------------------------------------------|
C|--------------------------------------|---------------------------------------------|


C|-57---1---36--49--1-------40--40--49--6---|-49--36--36--59--36--59--36--1---59--36--36--|
C|-49---40--35--57----------38--38--57--4---|-57--35--35--40--35--40--35------38--35--35--|
C|-36---38------40------------------36------|-38----------38------38----------40----------|
C|-35-----------38------------------35------|-40------------------36----------1-----------|
C|------------------------------------------|-36------------------35----------------------|
C|------------------------------------------|-35------------------------------------------|


C|-49---59--36--35--59--36--59--36--1---|-59--36--36--59--36--59--36--1---59--36--36--|
C|-57---40--35--36--40--35--40--35------|-40--35--35--40--35--40--35------40--35--35--|
C|-40---38----------38------38----------|-38----------38------38----------38----------|
C|-38-----------------------1-----------|-36------------------36----------------------|
C|-36-----------------------------------|-35------------------35----------------------|
C|-35-----------------------------------|---------------------------------------------|


C|-59---59--36--36--59--36--59--36--11--|-40--40-36-49------40--40--49--14--14--40--40--|
C|-40---40--35--35--40--35--40--35------|-38--38-35-57------38--38--57----------38--38--|
C|-38---38----------38------38----------|---------------------------40------------------|
C|-36-----------------------------------|---------------------------38------------------|
C|-35-----------------------------------|-----------------------------------------------|
C|--------------------------------------|-----------------------------------------------|


C|-49---40--40-36-49------40--40--57--16--|-49--36--36--59--36--36--59--36--36--59--36--36--|
C|-57---38--38-35-57------38--38--49------|-57--35--35--40--35--35--36--35--35--40--35--35--|
C|-36-----------------------------36------|-36----------38----------35----------38----------|
C|-35-----------------------------35------|-35----------36----------------------36----------|
C|----------------------------------------|-------------35----------------------35----------|
C|----------------------------------------|-------------------------------------------------|


C|-59--36--36--59--36--36--59--36--36--59--36--36--|-59--36--36--59--36--36--59--36--36--59--36--36--|
C|-36--35--35--40--35--35--36--35--35--40--35--35--|-36--35--35--40--35--35--36--35--35--40--35--35--|
C|-35----------38----------35----------38----------|-35----------38----------35----------38----------|
C|-------------36----------------------36----------|-------------36----------------------36----------|
C|-------------35----------------------35----------|-------------35----------------------35----------|
C|-------------------------------------------------|-------------------------------------------------|


C|-59--36--36--59--36--36--59--36--36--59--36--36--|-59--36--36--59--36--36--59--36--36--59--36--36--|
C|-36--35--35--40--35--35--36--35--35--40--35--35--|-36--35--35--40--35--35--36--35--35--40--35--35--|
C|-35----------38----------35----------38----------|-35----------38----------35----------38----------|
C|-------------36----------------------36----------|-------------36----------------------36----------|
C|-------------35----------------------35----------|-------------35----------------------35----------|
C|-------------------------------------------------|-------------------------------------------------|


C|-59--36--36--59--36--36--59--36--36--59--36--36--|-59--36--36--59--36--36--59--36--36--59--36--36--|
C|-36--35--35--40--35--35--36--35--35--40--35--35--|-36--35--35--40--35--35--36--35--35--40--35--35--|
C|-35----------38----------35----------38----------|-35----------38----------35----------38----------|
C|-------------36----------------------36----------|-------------36----------------------36----------|
C|-------------35----------------------35----------|-------------35----------------------35----------|
C|-------------------------------------------------|-------------------------------------------------|


C|-59--59--59--59--59--59--59--59--40--59--49--36--|-59--36--36--59--36--36--59--36--36--59--36--36--|
C|-36--36--36--40--36--36--36--36--38--36--57--35--|-36--35--35--40--35--35--36--35--35--40--35--35--|
C|-35--35--35--38--35--35--35--35--49--35--38------|-35----------38----------35----------38----------|
C|-------------36------------------57------40------|-------------36----------------------36----------|
C|-------------35------------------36------36------|-------------35----------------------35----------|
C|---------------------------------35------35------|-------------------------------------------------|


C|-59--36--36--59--36--36--59--36--36--59--36--36--|-59--36--36--59--36--36--59--36--36--59--36--36--|
C|-36--35--35--40--35--35--36--35--35--40--35--35--|-36--35--35--40--35--35--36--35--35--40--35--35--|
C|-35----------38----------35----------38----------|-35----------38----------35----------38----------|
C|-------------36----------------------36----------|-------------36----------------------36----------|
C|-------------35----------------------35----------|-------------35----------------------35----------|
C|-------------------------------------------------|-------------------------------------------------|


C|-59--36--36--59--36--36--59--36--36--59--36--36--|-59--36--36--59--36--36--59--36--36--59--36--36--|
C|-36--35--35--40--35--35--36--35--35--40--35--35--|-36--35--35--40--35--35--36--35--35--40--35--35--|
C|-35----------38----------35----------38----------|-35----------38----------35----------38----------|
C|-------------36----------------------36----------|-------------36----------------------36----------|
C|-------------35----------------------35----------|-------------35----------------------35----------|
C|-------------------------------------------------|-------------------------------------------------|


C|-59--36--36--59--36--36--59--36--36--59--36--36--|-59--36--36--59--36--36--59--36--36--38--36-40-36--|
C|-36--35--35--40--35--35--36--35--35--40--35--35--|-36--35--35--40--35--35--36--35--35--40--35-38-35--|
C|-35----------38----------35----------38----------|-35----------38----------35----------59------------|
C|-------------36----------------------36----------|-------------36----------------------36------------|
C|-------------35----------------------35----------|-------------35----------------------35------------|
C|-------------------------------------------------|---------------------------------------------------|


C|-40--40--48--50--47--47--47--47--47--47--47--47--|-36----42----40----57----36-36-57----40----57----|
C|-38--38--47--48--45--45--45--45--45--45--45--45--|-35----------38----------35-35-------38----------|
C|-------------------------------------------------|-57----------42----------42----------42----------|
C|-------------------------------------------------|-------------------------------------------------|
C|-------------------------------------------------|-------------------------------------------------|
C|-------------------------------------------------|-------------------------------------------------|


C|-36----57----42----57----42-36-57----42----57----|-36----57----42----57----42-36-57----42----57----|
C|-42----------40----------36-35-------40----------|-42----------40----------36-35-------40----------|
C|-35----------38----------35----------38----------|-35----------38----------35----------38----------|
C|-------------------------------------------------|-------------------------------------------------|
C|-------------------------------------------------|-------------------------------------------------|
C|-------------------------------------------------|-------------------------------------------------|


C|-36----57----42----57-363642-36-57----42-40-57----|-57----42----42----57----42-36-57----42----57----|
C|-42----------40-------353536-35-------40-38-------|-36----------40----------36-35-------40----------|
C|-35----------38-----------35----------38----------|-35----------38----------35----------38----------|
C|--------------------------------------------------|-------------------------------------------------|
C|--------------------------------------------------|-------------------------------------------------|
C|--------------------------------------------------|-------------------------------------------------|


C|-36----57----42----57-363642-36-57----42----57----|-57-36-36-36-57-36-36-36-57-36-36-36-57-36-36-36-|
C|-42----------40-------353536-35-------40----------|-40-35-35-35-40-35-35-35-40-35-35-35-40-35-35-35-|
C|-35----------38-----------35----------38----------|-38----------38----------38----------38----------|
C|--------------------------------------------------|-------------------------------------------------|
C|--------------------------------------------------|-------------------------------------------------|
C|--------------------------------------------------|-------------------------------------------------|


C|-57----36----57----36----57----36----57----36----|-36------40-40-40-40-40-40-40-40-38-38-38-38-|
C|-40----35----40----35----40----35----40----35----|-35------38-38-38-38-38-38-38-38-40-40-40-40-|
C|-38----------38----------38----------38----------|---------------------------------------------|
C|-------------------------------------------------|---------------------------------------------|
C|-------------------------------------------------|---------------------------------------------|
C|-------------------------------------------------|---------------------------------------------|


C|-49-36-59-36-40-36-59-36-38-36-59-36-40-36-59-36-|-40-36-59-36-40-36-59-36-38-36-59-36-40-36-59-36-|
C|-57-35-36-35-38-35-36-35-40-35-36-35-38-35-36-35-|-38-35-36-35-38-35-36-35-40-35-36-35-38-35-36-35-|
C|-40----35----59----35----59----35----59----35----|-59----35----59----35----59----35----59----35----|
C|-38----------36----------36----------36----------|-36----------36----------36----------36----------|
C|-36----------35----------35----------35----------|-35----------35----------35----------35----------|
C|-35----------------------------------------------|-------------------------------------------------|


C|-40-36-59-36-40-36-59-36-38-36-59-36-40-36-59-36-|-40-36-59-36-40-36-59-36-38-36-59-36-40-36-59-36-|
C|-38-35-36-35-38-35-36-35-40-35-36-35-38-35-36-35-|-38-35-36-35-38-35-36-35-40-35-36-35-38-35-36-35-|
C|-59----35----59----35----59----35----59----35----|-59----35----59----35----59----35----59----35----|
C|-36----------36----------36----------36----------|-36----------36----------36----------36----------|
C|-35----------35----------35----------35----------|-35----------35----------35----------35----------|
C|-------------------------------------------------|-------------------------------------------------|


C|-40-36-59-36-40-36-59-36-38-36-59-36-40-36-59-36-|-40-36-59-36-40-36-59-36-38-36-59-36-40-36-59-36-|
C|-38-35-36-35-38-35-36-35-40-35-36-35-38-35-36-35-|-38-35-36-35-38-35-36-35-40-35-36-35-38-35-36-35-|
C|-59----35----59----35----59----35----59----35----|-59----35----59----35----59----35----59----35----|
C|-36----------36----------36----------36----------|-36----------36----------36----------36----------|
C|-35----------35----------35----------35----------|-35----------35----------35----------35----------|
C|-------------------------------------------------|-------------------------------------------------|


C|-40-36-59-36-40-36-59-36-38-36-59-36-40-36-59-36-|-40-36-59-36-40-36-59-36-38-36-59-36-40-36-59-36-|
C|-38-35-36-35-38-35-36-35-40-35-36-35-38-35-36-35-|-38-35-36-35-38-35-36-35-40-35-36-35-38-35-36-35-|
C|-59----35----59----35----59----35----59----35----|-59----35----59----35----59----35----59----35----|
C|-36----------36----------36----------36----------|-36----------36----------36----------36----------|
C|-35----------35----------35----------35----------|-35----------35----------35----------35----------|
C|-------------------------------------------------|-------------------------------------------------|


C|-49-36-59-36-40-36-59-36-38-36-59-36-40-36-59-36-|-40-36-59-36-40-36-59-36-38-36-59-36-40-36-59-36-|
C|-57-35-36-35-38-35-36-35-40-35-36-35-38-35-36-35-|-38-35-36-35-38-35-36-35-40-35-36-35-38-35-36-35-|
C|-40----35----59----35----59----35----59----35----|-59----35----59----35----59----35----59----35----|
C|-38----------36----------36----------36----------|-36----------36----------36----------36----------|
C|-36----------35----------35----------35----------|-35----------35----------35----------35----------|
C|-35----------------------------------------------|-------------------------------------------------|


C|-49-36-59-36-40-36-59-36-38-36-59-36-40-36-59-36-|-40-36-59-36-40-36-59-36-38-36-59-36-40-36-59-36-|
C|-57-35-36-35-38-35-36-35-40-35-36-35-38-35-36-35-|-38-35-36-35-38-35-36-35-40-35-36-35-38-35-36-35-|
C|-40----35----59----35----59----35----59----35----|-59----35----59----35----59----35----59----35----|
C|-38----------36----------36----------36----------|-36----------36----------36----------36----------|
C|-36----------35----------35----------35----------|-35----------35----------35----------35----------|
C|-35----------------------------------------------|-------------------------------------------------|


C|-49-36-59-36-40-36-59-36-38-36-59-36-40-36-59-36-|-49-36-59-36-40-36-59-36-38-36-59-36-40-36-59-36-|
C|-57-35-36-35-38-35-36-35-40-35-36-35-38-35-36-35-|-57-35-36-35-38-35-36-35-40-35-36-35-38-35-36-35-|
C|-40----35----59----35----59----35----59----35----|-40----35----59----35----59----35----59----35----|
C|-38----------36----------36----------36----------|-38----------36----------36----------36----------|
C|-36----------35----------35----------35----------|-36----------35----------35----------35----------|
C|-35----------------------------------------------|-35----------------------------------------------|


C|-4040---40----40-40----40-40----40-40----40----40-|-40----40----40-40----40-4040---------|
C|-3838---38----38-38----38-38----38-38----38----38-|-38----38----38-38----38-3838---------|
C|--------------------------------------------------|--------------------------------------|
C|--------------------------------------------------|--------------------------------------|
C|--------------------------------------------------|--------------------------------------|
C|--------------------------------------------------|--------------------------------------|


C|-57----42----36-36-40----36----40----36-36-40----|-42----42----36-36-40----36----40----36-36-40----|
C|-36----40----35-35-38----35----38----35-35-38----|-36----40----35-35-38----35----38----35-35-38----|
C|-35----38----42----42----42----42----42----42----|-35----38----42----42----42----42----42----42----|
C|-------------------------------------------------|-------------------------------------------------|
C|-------------------------------------------------|-------------------------------------------------|
C|-------------------------------------------------|-------------------------------------------------|


C|-42----42----36-36-40----36----40----36-36-40----|-42----42----36-36-40----57----40----49----40----|
C|-36----40----35-35-38----35----38----35-35-38----|-36----40----35-35-38----36----38----36----38----|
C|-35----38----42----42----42----42----42----42----|-35----38----42----42----35----42----35----42----|
C|-------------------------------------------------|-------------------------------------------------|
C|-------------------------------------------------|-------------------------------------------------|
C|-------------------------------------------------|-------------------------------------------------|


C|-57----42----36-36-40----36----40----36-36-40----|-42----42----36-36-40----36----40----36-36-40----|
C|-36----40----35-35-38----35----38----35-35-38----|-36----40----35-35-38----35----38----35-35-38----|
C|-35----38----42----42----42----42----42----42----|-35----38----42----42----42----42----42----42----|
C|-------------------------------------------------|-------------------------------------------------|
C|-------------------------------------------------|-------------------------------------------------|
C|-------------------------------------------------|-------------------------------------------------|


C|-42----36-36-36-36-57----36----49----36----57----|-49----36-36-57----36-36-49----40-40-42-36-40-40-|
C|-------35-35-35-35-40----35----40----35----40----|-36----35-35-40----35-35-36----38-38-36-35-38-38-|
C|-------42----42----38----42----38----42----38----|-35----42----38----42----35----------35----------|
C|-------40----------------------------------------|-------------------------------------------------|
C|-------38----------------------------------------|-------------------------------------------------|
C|-------------------------------------------------|-------------------------------------------------|


C|-57----42----36-36-40----36----40----36-36-40----|-42----42----36-36-40----36----40----36-36-40----|
C|-36----40----35-35-38----35----38----35-35-38----|-36----40----35-35-38----35----38----35-35-38----|
C|-35----38----42----42----42----42----42----42----|-35----38----42----42----42----42----42----42----|
C|-------------------------------------------------|-------------------------------------------------|
C|-------------------------------------------------|-------------------------------------------------|
C|-------------------------------------------------|-------------------------------------------------|


C|-42----42----36-36-40----36----40----36-36-40----|-42----42----36-36-40----57----40----49----40----|
C|-36----40----35-35-38----35----38----35-35-38----|-36----40----35-35-38----36----38----36----38----|
C|-35----38----42----42----42----42----42----42----|-35----38----42----42----35----42----35----42----|
C|-------------------------------------------------|-------------------------------------------------|
C|-------------------------------------------------|-------------------------------------------------|
C|-------------------------------------------------|-------------------------------------------------|


C|-57----42----36-36-40----36----40----36-36-40----|-42----42----36-36-40----36----40----36-36-40----|
C|-36----40----35-35-38----35----38----35-35-38----|-36----40----35-35-38----35----38----35-35-38----|
C|-35----38----42----42----42----42----42----42----|-35----38----42----42----42----42----42----42----|
C|-------------------------------------------------|-------------------------------------------------|
C|-------------------------------------------------|-------------------------------------------------|
C|-------------------------------------------------|-------------------------------------------------|


C|-36-36-36-36-36-36-42-36-36-36-42-36-36-36-36-36-|-42-36-40-36-42-36-40-36-42-36-36-36-42-36-40-36-|
C|-35-35-35-35-35-35-36-35-35-35-36-35-35-35-35-35-|-36-35-38-35-36-35-38-35-36-35-42-35-36-35-38-35-|
C|-42----42----42----35----42----35----42----42----|-35----36----35----36----35----35----35----36----|
C|-------40----------40----------40----------40----|-------35----------35----------40----------42----|
C|-------38----------38----------38----------38----|-------42----------42----------38----------35----|
C|-------------------------------------------------|-------------------------------------------------|


C|-57----59-36-59-36-59----59----59-36-59-36-59----|-59----59-36-59-36-59----59----59-36-59-36-59----|
C|-36----40-35-36-35-40----36----40-35-36-35-40----|-36----40-35-36-35-40----36----40-35-36-35-40----|
C|-35----38----35----38----35----38----35----38----|-35----38----35----38----35----38----35----38----|
C|-------------------------------------------------|-------------------------------------------------|
C|-------------------------------------------------|-------------------------------------------------|
C|-------------------------------------------------|-------------------------------------------------|


C|-59----59-36-59-36-59----59----59-36-59-36-59----|-59----59-36-59-36-59----59----59-36-59-36-59----|
C|-36----40-35-36-35-40----36----40-35-36-35-40----|-36----40-35-36-35-40----36----40-35-36-35-40----|
C|-35----38----35----38----35----38----35----38----|-35----38----35----38----35----38----35----38----|
C|-------------------------------------------------|-------------------------------------------------|
C|-------------------------------------------------|-------------------------------------------------|
C|-------------------------------------------------|-------------------------------------------------|


C|-36----40----36-36-40----36----40----36----40----|-59----59-36-59-36-59----59-36-59----59----59----|
C|-59----38----35-35-38----35----38----35----38----|-36----38-35----35-40-------35-40----36----40----|
C|-35----59----59----59----59----59----59----59----|-35----40----------38----------38----35----38----|
C|-------------------------------------------------|-------------------------------------------------|
C|-------------------------------------------------|-------------------------------------------------|
C|-------------------------------------------------|-------------------------------------------------|


C|-59-36-59-36-59-36-59----59-36-59----59----59----|-59-36-59-36-59-36-59----59-36-59----59----59----|
C|-36-35-40-35-36-35-40-------35-40----36----40----|-36-35-40-35-36-35-40-------35-40----36----40----|
C|-35----38----35----38----------38----35----38----|-35----38----35----38----------38----35----38----|
C|-------------------------------------------------|-------------------------------------------------|
C|-------------------------------------------------|-------------------------------------------------|
C|-------------------------------------------------|-------------------------------------------------|


C|-57----59-36-59-36-59----59----59-36-59-36-59----|-59----59-36-59-36-59----59----59-36-59-36-59----|
C|-36----40-35-36-35-40----36----40-35-36-35-40----|-36----40-35-36-35-40----36----40-35-36-35-40----|
C|-35----38----35----38----35----38----35----38----|-35----38----35----38----35----38----35----38----|
C|-------------------------------------------------|-------------------------------------------------|
C|-------------------------------------------------|-------------------------------------------------|
C|-------------------------------------------------|-------------------------------------------------|


C|-59----59-36-59-36-59----59----59-36-59-36-59----|-59----59-36-59-36-59----59----59-36-59-36-59----|
C|-36----40-35-36-35-40----36----40-35-36-35-40----|-36----40-35-36-35-40----36----40-35-36-35-40----|
C|-35----38----35----38----35----38----35----38----|-35----38----35----38----35----38----35----38----|
C|-------------------------------------------------|-------------------------------------------------|
C|-------------------------------------------------|-------------------------------------------------|
C|-------------------------------------------------|-------------------------------------------------|


C|-36----40----36-36-40----36----40----36----40----|-36----40----36-36-40----36----40----36----40----|
C|-59----38----35-35-38----35----38----35----38----|-59----38----35-35-38----35----38----35----38----|
C|-35----59----59----59----59----59----59----59----|-35----59----59----59----59----59----59----59----|
C|-------------------------------------------------|-------------------------------------------------|
C|-------------------------------------------------|-------------------------------------------------|
C|-------------------------------------------------|-------------------------------------------------|


C|-57--36--36--40--36--36--46--36--36--46--36--36--|-4040--57--57--57--57------|-57-36-40-36-59-36-40-36-59-36-40-36-59-36-40-36-|
C|-36--35--35--38--35--35--36--35--35--40--35--35--|-3838--36--36--49--49------|-36-35-38-35-36-35-38-35-36-35-38-35-36-35-38-35-|
C|-35----------46----------35----------38----------|-------35--35--36--36------|-35----59----35----59----35----59----35----59----|
C|-------------11----------------------9-----------|---------------35--35------|-------------------------------------------------|
C|-------------------------------------9-----------|---------------------------|-------------------------------------------------|
C|-------------------------------------------------|---------------------------|-------------------------------------------------|


C|-59-36-40-36-59-36-40-36-59-36-40-36-59-36-40-36-|-59-36-40-36-59-36-40-36-59-36-40-36-59-36-40-36-|
C|-36-35-38-35-36-35-38-35-36-35-38-35-36-35-38-35-|-36-35-38-35-36-35-38-35-36-35-38-35-36-35-38-35-|
C|-35----59----35----59----35----59----35----59----|-35----59----35----59----35----59----35----59----|
C|-------------------------------------------------|-------------------------------------------------|
C|-------------------------------------------------|-------------------------------------------------|
C|-------------------------------------------------|-------------------------------------------------|


C|-59-36-40-36-59-36-40-36-59-36-40-36-59-36-40-36-|-59-36-40-36-59-36-40-36-59-36-40-36-59-36-40-36-|
C|-36-35-38-35-36-35-38-35-36-35-38-35-36-35-38-35-|-36-35-38-35-36-35-38-35-36-35-38-35-36-35-38-35-|
C|-35----59----35----59----35----59----35----59----|-35----59----35----59----35----59----35----59----|
C|-------------------------------------------------|-------------------------------------------------|
C|-------------------------------------------------|-------------------------------------------------|
C|-------------------------------------------------|-------------------------------------------------|


C|-59-36-40-36-59-36-40-36-59-36-40-36-59-36-40-36-|-59-36-40-36-59-36-40-36-59-36-40-36-59-36-40-36-|
C|-36-35-38-35-36-35-38-35-36-35-38-35-36-35-38-35-|-36-35-38-35-36-35-38-35-36-35-38-35-36-35-38-35-|
C|-35----59----35----59----35----59----35----59----|-35----59----35----59----35----59----35----59----|
C|-------------------------------------------------|-------------------------------------------------|
C|-------------------------------------------------|-------------------------------------------------|
C|-------------------------------------------------|-------------------------------------------------|


C|-59-36-40-36-59-36-40-36-59-36-57-36-59-36-57-36-|-57-36-40-36-59-36-40-36-59-36-40-36-59-36-40-36-|
C|-36-35-38-35-36-35-38-35-36-35-40-35-36-35-40-35-|-36-35-38-35-36-35-38-35-36-35-38-35-36-35-38-35-|
C|-35----59----35----59----35----38----35----38----|-35----59----35----59----35----59----35----59----|
C|-------------------------------------------------|-------------------------------------------------|
C|-------------------------------------------------|-------------------------------------------------|
C|-------------------------------------------------|-------------------------------------------------|


C|-59-36-40-36-59-36-40-36-59-36-40-36-59-36-40-36-|-59-36-40-36-59-36-40-36-59-36-40-36-59-36-40-36-|
C|-36-35-38-35-36-35-38-35-36-35-38-35-36-35-38-35-|-36-35-38-35-36-35-38-35-36-35-38-35-36-35-38-35-|
C|-35----59----35----59----35----59----35----59----|-35----59----35----59----35----59----35----59----|
C|-------------------------------------------------|-------------------------------------------------|
C|-------------------------------------------------|-------------------------------------------------|
C|-------------------------------------------------|-------------------------------------------------|


C|-59-36-40-36-59-36-40-36-59-36-40-36-59-36-40-36-|-59-36-40-36-59-36-40-36-59-36-40-36-59-36-40-36-|
C|-36-35-38-35-36-35-38-35-36-35-38-35-36-35-38-35-|-36-35-38-35-36-35-38-35-36-35-38-35-36-35-38-35-|
C|-35----59----35----59----35----59----35----59----|-35----59----35----59----35----59----35----59----|
C|-------------------------------------------------|-------------------------------------------------|
C|-------------------------------------------------|-------------------------------------------------|
C|-------------------------------------------------|-------------------------------------------------|


C|-59-36-40-36-59-36-40-36-59-36-40-36-59-36-40-36-|-59-36-40-36-59-36-40-36-59-36-40-36-59-36-40-36-|
C|-36-35-38-35-36-35-38-35-36-35-38-35-36-35-38-35-|-36-35-38-35-36-35-38-35-36-35-38-35-36-35-38-35-|
C|-35----59----35----59----35----59----35----59----|-35----59----35----59----35----59----35----59----|
C|-------------------------------------------------|-------------------------------------------------|
C|-------------------------------------------------|-------------------------------------------------|
C|-------------------------------------------------|-------------------------------------------------|


C|-59-36-40-36-59-36-40-36-59-36-57-36-59-36-57-36-|-57-36-40-36-59-36-40-36-59-36-40-36-59-36-40-36-|
C|-36-35-38-35-36-35-38-35-36-35-40-35-36-35-40-35-|-36-35-38-35-36-35-38-35-36-35-38-35-36-35-38-35-|
C|-35----59----35----59----35----38----35----38----|-35----59----35----59----35----59----35----59----|
C|-------------------------------------------------|-------------------------------------------------|
C|-------------------------------------------------|-------------------------------------------------|
C|-------------------------------------------------|-------------------------------------------------|


C|-59-36-40-36-59-36-40-36-59-36-40-36-59-36-40-36-|-59-36-40-36-59-36-40-36-59-36-40-36-59-36-40-36-|
C|-36-35-38-35-36-35-38-35-36-35-38-35-36-35-38-35-|-36-35-38-35-36-35-38-35-36-35-38-35-36-35-38-35-|
C|-35----59----35----59----35----59----35----59----|-35----59----35----59----35----59----35----59----|
C|-------------------------------------------------|-------------------------------------------------|
C|-------------------------------------------------|-------------------------------------------------|
C|-------------------------------------------------|-------------------------------------------------|


C|-59-36-40-36-59-36-40-36-59-36-40-36-59-36-40-36-|-59-36-40-36-59-36-40-36-59-36-40-36-59-36-40-36-|
C|-36-35-38-35-36-35-38-35-36-35-38-35-36-35-38-35-|-36-35-38-35-36-35-38-35-36-35-38-35-36-35-38-35-|
C|-35----59----35----59----35----59----35----59----|-35----59----35----59----35----59----35----59----|
C|-------------------------------------------------|-------------------------------------------------|
C|-------------------------------------------------|-------------------------------------------------|
C|-------------------------------------------------|-------------------------------------------------|


C|-59-36-40-36-59-36-40-36-59-36-40-36-59-36-40-36-|-59-36-40-36-59-36-40-36-59-36-40-36-59-36-40-36-|
C|-36-35-38-35-36-35-38-35-36-35-38-35-36-35-38-35-|-36-35-38-35-36-35-38-35-36-35-38-35-36-35-38-35-|
C|-35----59----35----59----35----59----35----59----|-35----59----35----59----35----59----35----59----|
C|-------------------------------------------------|-------------------------------------------------|
C|-------------------------------------------------|-------------------------------------------------|
C|-------------------------------------------------|-------------------------------------------------|


C|-57-36-36-36-36-36-57-36-36-36-35-36-38-36-36-36-|-57-36-40-36-59-36-40-36-59-36-40-36-59-36-40-36-|
C|-36-35-35-35-35-35-38-35-35-35-36-35-40-35-35-35-|-36-35-38-35-36-35-38-35-36-35-38-35-36-35-38-35-|
C|-35----------------35----------------57----------|-35----59----35----59----35----59----35----59----|
C|-40----------------36----------------36----------|-------------------------------------------------|
C|-38----------------40----------------35----------|-------------------------------------------------|
C|-------------------------------------------------|-------------------------------------------------|


C|-59-36-40-36-59-36-40-36-59-36-40-36-59-36-40-36-|-59-36-40-36-59-36-40-36-59-36-40-36-59-36-40-36-|
C|-36-35-38-35-36-35-38-35-36-35-38-35-36-35-38-35-|-36-35-38-35-36-35-38-35-36-35-38-35-36-35-38-35-|
C|-35----59----35----59----35----59----35----59----|-35----59----35----59----35----59----35----59----|
C|-------------------------------------------------|-------------------------------------------------|
C|-------------------------------------------------|-------------------------------------------------|
C|-------------------------------------------------|-------------------------------------------------|


C|-59-36-40-36-59-36-40-36-59-36-40-36-59-36-40-36-|-59-36-40-36-59-36-40-36-59-36-40-36-59-36-40-36-|
C|-36-35-38-35-36-35-38-35-36-35-38-35-36-35-38-35-|-36-35-38-35-36-35-38-35-36-35-38-35-36-35-38-35-|
C|-35----59----35----59----35----59----35----59----|-35----59----35----59----35----59----35----59----|
C|-------------------------------------------------|-------------------------------------------------|
C|-------------------------------------------------|-------------------------------------------------|
C|-------------------------------------------------|-------------------------------------------------|


C|-59-36-40-36-59-36-40-36-59-36-40-36-59-36-40-36-|-59-36-40-36-59-36-40-36-59-36-40-36-59-36-40-36-|
C|-36-35-38-35-36-35-38-35-36-35-38-35-36-35-38-35-|-36-35-38-35-36-35-38-35-36-35-38-35-36-35-38-35-|
C|-35----59----35----59----35----59----35----59----|-35----59----35----59----35----59----35----59----|
C|-------------------------------------------------|-------------------------------------------------|
C|-------------------------------------------------|-------------------------------------------------|
C|-------------------------------------------------|-------------------------------------------------|


C|-59-36-40-36-59-36-40-36-57------49------|-40-36-40-36-40-38-36-40-40-36-40-40-36-40-36-40-|
C|-36-35-38-35-36-35-38-35-40------40------|-38-35-38-35-38-40-35-38-38-35-38-38-35-38-35-38-|
C|-35----59----35----59----38------38------|-36----36----36-36----36-36----36-36----36----36-|
C|-----------------------------------------|-35----35----35-35----35-35----35-35----35----35-|
C|-----------------------------------------|-------------------------------------------------|
C|-----------------------------------------|-------------------------------------------------|


C|-40-36-40-36-40-38-36-40-40-36-40-40-36-40-36-40-|-40-36-40-36-40-38-36-40-40-36-40-40-36-40-36-40-|
C|-38-35-38-35-38-40-35-38-38-35-38-38-35-38-35-38-|-38-35-38-35-38-40-35-38-38-35-38-38-35-38-35-38-|
C|-36----36----36-36----36-36----36-36----36----36-|-36----36----36-36----36-36----36-36----36----36-|
C|-35----35----35-35----35-35----35-35----35----35-|-35----35----35-35----35-35----35-35----35----35-|
C|-------------------------------------------------|-------------------------------------------------|
C|-------------------------------------------------|-------------------------------------------------|


C|-40-36-40-36-40-38-36-40-40-36-40-40-36-40-36-40-|-40--------------|--------|--------|
C|-38-35-38-35-38-40-35-38-38-35-38-38-35-38-35-38-|-38--------------|--------|--------|
C|-36----36----36-36----36-36----36-36----36----36-|-36--------------|--------|--------|
C|-35----35----35-35----35-35----35-35----35----35-|-35--------------|--------|--------|
C|-------------------------------------------------|-----------------|--------|--------|
C|-------------------------------------------------|-----------------|--------|--------|









Track 4: Lead
Back to top
E|-7--8--7--8--7--8--7--8--7--8--7--8--7--8--7--8--|-7--8--7--8--7--8--7--8--7--8--7--8--7--8--7--5--|
B|-------------------------------------------------|-------------------------------------------------|
G|-------------------------------------------------|-------------------------------------------------|
D|-------------------------------------------------|-------------------------------------------------|
A|-------------------------------------------------|-------------------------------------------------|
E|-------------------------------------------------|-------------------------------------------------|


E|-13-14-13-14-13-14-13-14-13-14-13-14-13-14-13-14-|-13-14-13-14-13-14-13-14-13-14-13-14-13-14-13-11-|
B|-12-13-12-13-12-13-12-13-12-13-12-13-12-13-12-13-|-12-13-12-13-12-13-12-13-12-13-12-13-12-13-12-10-|
G|-------------------------------------------------|-------------------------------------------------|
D|-------------------------------------------------|-------------------------------------------------|
A|-------------------------------------------------|-------------------------------------------------|
E|-------------------------------------------------|-------------------------------------------------|


E|-------------------------------------------------|-------------------------------------------------|
B|-12-13-12-13-12-13-12-13-12-13-12-13-12-13-12-13-|-12-13-12-13-12-13-12-13-12-13-12-13-12-13-12-10-|
G|-------------------------------------------------|-------------------------------------------------|
D|-------------------------------------------------|-------------------------------------------------|
A|-------------------------------------------------|-------------------------------------------------|
E|-------------------------------------------------|-------------------------------------------------|


E|-13-14-13-14-13-14-13-14-13-14-13-14-13-14-13-14-|-13-14-13-14-13-14-13-14-13-14-13-14-13-14-13-11-|
B|-12-13-12-13-12-13-12-13-12-13-12-13-12-13-12-13-|-12-13-12-13-12-13-12-13-12-13-12-13-12-13-12-10-|
G|-------------------------------------------------|-------------------------------------------------|
D|-------------------------------------------------|-------------------------------------------------|
A|-------------------------------------------------|-------------------------------------------------|
E|-------------------------------------------------|-------------------------------------------------|


E|--------|--------|--------|--------|--------|--------|--------|--------|--------|
B|--------|--------|--------|--------|--------|--------|--------|--------|--------|
G|--------|--------|--------|--------|--------|--------|--------|--------|--------|
D|--------|--------|--------|--------|--------|--------|--------|--------|--------|
A|--------|--------|--------|--------|--------|--------|--------|--------|--------|
E|--------|--------|--------|--------|--------|--------|--------|--------|--------|


E|--------|--------|--------|--------|--------|--------|--------|--------|--------|
B|--------|--------|--------|--------|--------|--------|--------|--------|--------|
G|--------|--------|--------|--------|--------|--------|--------|--------|--------|
D|--------|--------|--------|--------|--------|--------|--------|--------|--------|
A|--------|--------|--------|--------|--------|--------|--------|--------|--------|
E|--------|--------|--------|--------|--------|--------|--------|--------|--------|


E|--------|--------|--------|--------|--------|--------|--------|--------|--------|
B|--------|--------|--------|--------|--------|--------|--------|--------|--------|
G|--------|--------|--------|--------|--------|--------|--------|--------|--------|
D|--------|--------|--------|--------|--------|--------|--------|--------|--------|
A|--------|--------|--------|--------|--------|--------|--------|--------|--------|
E|--------|--------|--------|--------|--------|--------|--------|--------|--------|


E|--------|--------|--------|--------|--------|--------|--------|--------|--------|
B|--------|--------|--------|--------|--------|--------|--------|--------|--------|
G|--------|--------|--------|--------|--------|--------|--------|--------|--------|
D|--------|--------|--------|--------|--------|--------|--------|--------|--------|
A|--------|--------|--------|--------|--------|--------|--------|--------|--------|
E|--------|--------|--------|--------|--------|--------|--------|--------|--------|


E|--------|--------|--------|--------|--------|--------|--------|--------|--------|
B|--------|--------|--------|--------|--------|--------|--------|--------|--------|
G|--------|--------|--------|--------|--------|--------|--------|--------|--------|
D|--------|--------|--------|--------|--------|--------|--------|--------|--------|
A|--------|--------|--------|--------|--------|--------|--------|--------|--------|
E|--------|--------|--------|--------|--------|--------|--------|--------|--------|


E|--------|--------|--------|--------|--------|--------|--------|--------|--------|
B|--------|--------|--------|--------|--------|--------|--------|--------|--------|
G|--------|--------|--------|--------|--------|--------|--------|--------|--------|
D|--------|--------|--------|--------|--------|--------|--------|--------|--------|
A|--------|--------|--------|--------|--------|--------|--------|--------|--------|
E|--------|--------|--------|--------|--------|--------|--------|--------|--------|


E|--------|--------|--------|--------|--------|--------|--------|--------|--------|
B|--------|--------|--------|--------|--------|--------|--------|--------|--------|
G|--------|--------|--------|--------|--------|--------|--------|--------|--------|
D|--------|--------|--------|--------|--------|--------|--------|--------|--------|
A|--------|--------|--------|--------|--------|--------|--------|--------|--------|
E|--------|--------|--------|--------|--------|--------|--------|--------|--------|


E|--------|--------|--------|--------|--------|--------|--------|--------|--------|
B|--------|--------|--------|--------|--------|--------|--------|--------|--------|
G|--------|--------|--------|--------|--------|--------|--------|--------|--------|
D|--------|--------|--------|--------|--------|--------|--------|--------|--------|
A|--------|--------|--------|--------|--------|--------|--------|--------|--------|
E|--------|--------|--------|--------|--------|--------|--------|--------|--------|


E|--------|--------|--------|--------|--------|--------|--------|--------|--------|
B|--------|--------|--------|--------|--------|--------|--------|--------|--------|
G|--------|--------|--------|--------|--------|--------|--------|--------|--------|
D|--------|--------|--------|--------|--------|--------|--------|--------|--------|
A|--------|--------|--------|--------|--------|--------|--------|--------|--------|
E|--------|--------|--------|--------|--------|--------|--------|--------|--------|


E|--------|--------|--------|--------|--------|--------|--------|--------|--------|
B|--------|--------|--------|--------|--------|--------|--------|--------|--------|
G|--------|--------|--------|--------|--------|--------|--------|--------|--------|
D|--------|--------|--------|--------|--------|--------|--------|--------|--------|
A|--------|--------|--------|--------|--------|--------|--------|--------|--------|
E|--------|--------|--------|--------|--------|--------|--------|--------|--------|


E|--------|--------|--------|--------|--------|--------|--------|--------|--------|
B|--------|--------|--------|--------|--------|--------|--------|--------|--------|
G|--------|--------|--------|--------|--------|--------|--------|--------|--------|
D|--------|--------|--------|--------|--------|--------|--------|--------|--------|
A|--------|--------|--------|--------|--------|--------|--------|--------|--------|
E|--------|--------|--------|--------|--------|--------|--------|--------|--------|


E|--------|--------|--------|--------|--------|--------|--------|--------|--------|
B|--------|--------|--------|--------|--------|--------|--------|--------|--------|
G|--------|--------|--------|--------|--------|--------|--------|--------|--------|
D|--------|--------|--------|--------|--------|--------|--------|--------|--------|
A|--------|--------|--------|--------|--------|--------|--------|--------|--------|
E|--------|--------|--------|--------|--------|--------|--------|--------|--------|


E|--------|--------|--------|--------|--------|--------|--------|--------|--------|
B|--------|--------|--------|--------|--------|--------|--------|--------|--------|
G|--------|--------|--------|--------|--------|--------|--------|--------|--------|
D|--------|--------|--------|--------|--------|--------|--------|--------|--------|
A|--------|--------|--------|--------|--------|--------|--------|--------|--------|
E|--------|--------|--------|--------|--------|--------|--------|--------|--------|


E|--------|--------|--------|--------|--------|--------|--------|--------|--------|
B|--------|--------|--------|--------|--------|--------|--------|--------|--------|
G|--------|--------|--------|--------|--------|--------|--------|--------|--------|
D|--------|--------|--------|--------|--------|--------|--------|--------|--------|
A|--------|--------|--------|--------|--------|--------|--------|--------|--------|
E|--------|--------|--------|--------|--------|--------|--------|--------|--------|


E|-7-----------|-15---14---12---10---|-10---9----7--------14-15-|-17---15---14---12---|
B|-------7-----|-----------0----12---|-10-------------10--------|---------------------|
G|-7-----7-----|-12------------------|--------------------------|----------------14---|
D|-------------|-12------------------|-----------9--------------|-16------------------|
A|-------------|---------------------|-12-----------------------|---------------------|
E|-------------|---------------------|--------------------------|-17------------------|


E|--------------------14--|-15---14---12---10---|-9-----------|-14-----|-18----21----|
B|-15---------------------|---------------------|--------8----|--------|-------------|
G|-18---16---15---12------|----------------12---|-11----------|-11-----|-------------|
D|-17---------------------|-14---14---14--------|-------------|--------|-16----------|
A|------------------------|-16------------------|-------------|--------|-------------|
E|------------------------|---------------------|-------------|--------|-------------|


E|--------|--------|--------|--------|--------|--------|--------|--------|--------|
B|--------|--------|--------|--------|--------|--------|--------|--------|--------|
G|--------|--------|--------|--------|--------|--------|--------|--------|--------|
D|--------|--------|--------|--------|--------|--------|--------|--------|--------|
A|--------|--------|--------|--------|--------|--------|--------|--------|--------|
E|--------|--------|--------|--------|--------|--------|--------|--------|--------|


E|--------|--------|--------|--------|--------|--------|--------|--------|--------|
B|--------|--------|--------|--------|--------|--------|--------|--------|--------|
G|--------|--------|--------|--------|--------|--------|--------|--------|--------|
D|--------|--------|--------|--------|--------|--------|--------|--------|--------|
A|--------|--------|--------|--------|--------|--------|--------|--------|--------|
E|--------|--------|--------|--------|--------|--------|--------|--------|--------|


E|--------|--------|--------|--------|--------|--------|--------|--------|--------|
B|--------|--------|--------|--------|--------|--------|--------|--------|--------|
G|--------|--------|--------|--------|--------|--------|--------|--------|--------|
D|--------|--------|--------|--------|--------|--------|--------|--------|--------|
A|--------|--------|--------|--------|--------|--------|--------|--------|--------|
E|--------|--------|--------|--------|--------|--------|--------|--------|--------|


E|--------|--------|--------|--------|--------|--------|--------|--------|--------|
B|--------|--------|--------|--------|--------|--------|--------|--------|--------|
G|--------|--------|--------|--------|--------|--------|--------|--------|--------|
D|--------|--------|--------|--------|--------|--------|--------|--------|--------|
A|--------|--------|--------|--------|--------|--------|--------|--------|--------|
E|--------|--------|--------|--------|--------|--------|--------|--------|--------|


E|--------|--------|--------|--------|--------|--------|--------|--------|--------|
B|--------|--------|--------|--------|--------|--------|--------|--------|--------|
G|--------|--------|--------|--------|--------|--------|--------|--------|--------|
D|--------|--------|--------|--------|--------|--------|--------|--------|--------|
A|--------|--------|--------|--------|--------|--------|--------|--------|--------|
E|--------|--------|--------|--------|--------|--------|--------|--------|--------|


E|--------|--------|--------|--------|--------|--------|--------|--------|--------|
B|--------|--------|--------|--------|--------|--------|--------|--------|--------|
G|--------|--------|--------|--------|--------|--------|--------|--------|--------|
D|--------|--------|--------|--------|--------|--------|--------|--------|--------|
A|--------|--------|--------|--------|--------|--------|--------|--------|--------|
E|--------|--------|--------|--------|--------|--------|--------|--------|--------|


E|--------|--------|--------|--------|--------|--------|--------|--------|--------|
B|--------|--------|--------|--------|--------|--------|--------|--------|--------|
G|--------|--------|--------|--------|--------|--------|--------|--------|--------|
D|--------|--------|--------|--------|--------|--------|--------|--------|--------|
A|--------|--------|--------|--------|--------|--------|--------|--------|--------|
E|--------|--------|--------|--------|--------|--------|--------|--------|--------|


E|--------|--------|--------|--------|--------|--------|--------|--------|--------|
B|--------|--------|--------|--------|--------|--------|--------|--------|--------|
G|--------|--------|--------|--------|--------|--------|--------|--------|--------|
D|--------|--------|--------|--------|--------|--------|--------|--------|--------|
A|--------|--------|--------|--------|--------|--------|--------|--------|--------|
E|--------|--------|--------|--------|--------|--------|--------|--------|--------|


E|--------|--------|--------|--------|--------|--------|--------|--------|--------|
B|--------|--------|--------|--------|--------|--------|--------|--------|--------|
G|--------|--------|--------|--------|--------|--------|--------|--------|--------|
D|--------|--------|--------|--------|--------|--------|--------|--------|--------|
A|--------|--------|--------|--------|--------|--------|--------|--------|--------|
E|--------|--------|--------|--------|--------|--------|--------|--------|--------|


E|--------|--------|--------|--------|--------|--------|
B|--------|--------|--------|--------|--------|--------|
G|--------|--------|--------|--------|--------|--------|
D|--------|--------|--------|--------|--------|--------|
A|--------|--------|--------|--------|--------|--------|
E|--------|--------|--------|--------|--------|--------|









Track 5: Trombone
Back to top
E|--------|--------|--------|-------------|--------|-------2-----|--------|--------|
B|--------|--------|--------|-------------|-0------|-0-----------|-0------|-0------|
G|--------|--------|--------|--------2----|--------|-------------|--------|--------|
D|--------|--------|--------|-------------|--------|-------4-----|--------|--------|
A|--------|--------|--------|--------0----|-2------|-2-----------|-2------|-2------|
E|--------|--------|--------|-------------|--------|-------------|--------|--------|


E|--------|--------|--------|--------|--------|--------|--------|--------|--------|
B|--------|--------|--------|--------|--------|--------|--------|--------|--------|
G|--------|--------|--------|--------|--------|--------|--------|--------|--------|
D|--------|--------|--------|--------|--------|--------|--------|--------|--------|
A|--------|--------|--------|--------|--------|--------|--------|--------|--------|
E|--------|--------|--------|--------|--------|--------|--------|--------|--------|


E|--------|--------|--------|--------|--------|--------|--------|--------|--------|
B|--------|--------|--------|--------|--------|--------|--------|--------|--------|
G|--------|--------|--------|--------|--------|--------|--------|--------|--------|
D|--------|--------|--------|--------|--------|--------|--------|--------|--------|
A|--------|--------|--------|--------|--------|--------|--------|--------|--------|
E|--------|--------|--------|--------|--------|--------|--------|--------|--------|


E|--------|--------|--------|--------|--------|--------|--------|--------|--------|
B|--------|--------|--------|--------|--------|--------|--------|--------|--------|
G|--------|--------|--------|--------|--------|--------|--------|--------|--------|
D|--------|--------|--------|--------|--------|--------|--------|--------|--------|
A|--------|--------|--------|--------|--------|--------|--------|--------|--------|
E|--------|--------|--------|--------|--------|--------|--------|--------|--------|


E|--------|--------|--------|--------|--------|--------|--------|--------|--------|
B|--------|--------|--------|--------|--------|--------|--------|--------|--------|
G|--------|--------|--------|--------|--------|--------|--------|--------|--------|
D|--------|--------|--------|--------|--------|--------|--------|--------|--------|
A|--------|--------|--------|--------|--------|--------|--------|--------|--------|
E|--------|--------|--------|--------|--------|--------|--------|--------|--------|


E|--------|--------|--------|--------|--------|--------|--------|--------|--------|
B|--------|--------|--------|--------|--------|--------|--------|--------|--------|
G|--------|--------|--------|--------|--------|--------|--------|--------|--------|
D|--------|--------|--------|--------|--------|--------|--------|--------|--------|
A|--------|--------|--------|--------|--------|--------|--------|--------|--------|
E|--------|--------|--------|--------|--------|--------|--------|--------|--------|


E|--------|--------|--------|--------|--------|--------|--------|--------|--------|
B|--------|--------|--------|--------|--------|--------|--------|--------|--------|
G|--------|--------|--------|--------|--------|--------|--------|--------|--------|
D|--------|--------|--------|--------|--------|--------|--------|--------|--------|
A|--------|--------|--------|--------|--------|--------|--------|--------|--------|
E|--------|--------|--------|--------|--------|--------|--------|--------|--------|


E|--------|--------|--------|--------|--------|--------|--------|--------|--------|
B|--------|--------|--------|--------|--------|--------|--------|--------|--------|
G|--------|--------|--------|--------|--------|--------|--------|--------|--------|
D|--------|--------|--------|--------|--------|--------|--------|--------|--------|
A|--------|--------|--------|--------|--------|--------|--------|--------|--------|
E|--------|--------|--------|--------|--------|--------|--------|--------|--------|


E|--------|--------|--------|--------|--------|--------|--------|--------|--------|
B|--------|--------|--------|--------|--------|--------|--------|--------|--------|
G|--------|--------|--------|--------|--------|--------|--------|--------|--------|
D|--------|--------|--------|--------|--------|--------|--------|--------|--------|
A|--------|--------|--------|--------|--------|--------|--------|--------|--------|
E|--------|--------|--------|--------|--------|--------|--------|--------|--------|


E|--------|--------|--------|--------|--------|--------|--------|--------|--------|
B|--------|--------|--------|--------|--------|--------|--------|--------|--------|
G|--------|--------|--------|--------|--------|--------|--------|--------|--------|
D|--------|--------|--------|--------|--------|--------|--------|--------|--------|
A|--------|--------|--------|--------|--------|--------|--------|--------|--------|
E|--------|--------|--------|--------|--------|--------|--------|--------|--------|


E|--------|--------|--------|--------|--------|--------|--------|--------|--------|
B|--------|--------|--------|--------|--------|--------|--------|--------|--------|
G|--------|--------|--------|--------|--------|--------|--------|--------|--------|
D|--------|--------|--------|--------|--------|--------|--------|--------|--------|
A|--------|--------|--------|--------|--------|--------|--------|--------|--------|
E|--------|--------|--------|--------|--------|--------|--------|--------|--------|


E|--------|--------|--------|--------|--------|--------|--------|--------|--------|
B|--------|--------|--------|--------|--------|--------|--------|--------|--------|
G|--------|--------|--------|--------|--------|--------|--------|--------|--------|
D|--------|--------|--------|--------|--------|--------|--------|--------|--------|
A|--------|--------|--------|--------|--------|--------|--------|--------|--------|
E|--------|--------|--------|--------|--------|--------|--------|--------|--------|


E|--------|--------|--------|--------|--------|--------|--------|--------|--------|
B|--------|--------|--------|--------|--------|--------|--------|--------|--------|
G|--------|--------|--------|--------|--------|--------|--------|--------|--------|
D|--------|--------|--------|--------|--------|--------|--------|--------|--------|
A|--------|--------|--------|--------|--------|--------|--------|--------|--------|
E|--------|--------|--------|--------|--------|--------|--------|--------|--------|


E|--------|--------|--------|--------|--------|--------|--------|--------|--------|
B|--------|--------|--------|--------|--------|--------|--------|--------|--------|
G|--------|--------|--------|--------|--------|--------|--------|--------|--------|
D|--------|--------|--------|--------|--------|--------|--------|--------|--------|
A|--------|--------|--------|--------|--------|--------|--------|--------|--------|
E|--------|--------|--------|--------|--------|--------|--------|--------|--------|


E|--------|--------|--------|--------|--------|--------|--------|--------|--------|
B|--------|--------|--------|--------|--------|--------|--------|--------|--------|
G|--------|--------|--------|--------|--------|--------|--------|--------|--------|
D|--------|--------|--------|--------|--------|--------|--------|--------|--------|
A|--------|--------|--------|--------|--------|--------|--------|--------|--------|
E|--------|--------|--------|--------|--------|--------|--------|--------|--------|


E|--------|--------|--------|--------|--------|--------|--------|--------|--------|
B|--------|--------|--------|--------|--------|--------|--------|--------|--------|
G|--------|--------|--------|--------|--------|--------|--------|--------|--------|
D|--------|--------|--------|--------|--------|--------|--------|--------|--------|
A|--------|--------|--------|--------|--------|--------|--------|--------|--------|
E|--------|--------|--------|--------|--------|--------|--------|--------|--------|


E|--------|--------|--------|--------|--------|--------|--------|--------|--------|
B|--------|--------|--------|--------|--------|--------|--------|--------|--------|
G|--------|--------|--------|--------|--------|--------|--------|--------|--------|
D|--------|--------|--------|--------|--------|--------|--------|--------|--------|
A|--------|--------|--------|--------|--------|--------|--------|--------|--------|
E|--------|--------|--------|--------|--------|--------|--------|--------|--------|


E|--------|--------|--------|--------|--------|--------|--------|--------|--------|
B|--------|--------|--------|--------|--------|--------|--------|--------|--------|
G|--------|--------|--------|--------|--------|--------|--------|--------|--------|
D|--------|--------|--------|--------|--------|--------|--------|--------|--------|
A|--------|--------|--------|--------|--------|--------|--------|--------|--------|
E|--------|--------|--------|--------|--------|--------|--------|--------|--------|


E|--------|--------|--------|--------|--------|--------|--------|--------|--------|
B|--------|--------|--------|--------|--------|--------|--------|--------|--------|
G|--------|--------|--------|--------|--------|--------|--------|--------|--------|
D|--------|--------|--------|--------|--------|--------|--------|--------|--------|
A|--------|--------|--------|--------|--------|--------|--------|--------|--------|
E|--------|--------|--------|--------|--------|--------|--------|--------|--------|


E|--------|--------|--------|--------|--------|--------|--------|--------|--------|
B|--------|--------|--------|--------|--------|--------|--------|--------|--------|
G|--------|--------|--------|--------|--------|--------|--------|--------|--------|
D|--------|--------|--------|--------|--------|--------|--------|--------|--------|
A|--------|--------|--------|--------|--------|--------|--------|--------|--------|
E|--------|--------|--------|--------|--------|--------|--------|--------|--------|


E|--------|--------|--------|--------|--------|--------|--------|--------|--------|
B|--------|--------|--------|--------|--------|--------|--------|--------|--------|
G|--------|--------|--------|--------|--------|--------|--------|--------|--------|
D|--------|--------|--------|--------|--------|--------|--------|--------|--------|
A|--------|--------|--------|--------|--------|--------|--------|--------|--------|
E|--------|--------|--------|--------|--------|--------|--------|--------|--------|


E|--------|--------|--------|--------|--------|--------|--------|--------|--------|
B|--------|--------|--------|--------|--------|--------|--------|--------|--------|
G|--------|--------|--------|--------|--------|--------|--------|--------|--------|
D|--------|--------|--------|--------|--------|--------|--------|--------|--------|
A|--------|--------|--------|--------|--------|--------|--------|--------|--------|
E|--------|--------|--------|--------|--------|--------|--------|--------|--------|


E|--------|--------|--------|--------|--------|--------|--------|--------|--------|
B|--------|--------|--------|--------|--------|--------|--------|--------|--------|
G|--------|--------|--------|--------|--------|--------|--------|--------|--------|
D|--------|--------|--------|--------|--------|--------|--------|--------|--------|
A|--------|--------|--------|--------|--------|--------|--------|--------|--------|
E|--------|--------|--------|--------|--------|--------|--------|--------|--------|


E|--------|--------|--------|--------|--------|--------|--------|--------|--------|
B|--------|--------|--------|--------|--------|--------|--------|--------|--------|
G|--------|--------|--------|--------|--------|--------|--------|--------|--------|
D|--------|--------|--------|--------|--------|--------|--------|--------|--------|
A|--------|--------|--------|--------|--------|--------|--------|--------|--------|
E|--------|--------|--------|--------|--------|--------|--------|--------|--------|


E|--------|--------|--------|--------|--------|--------|--------|--------|--------|
B|--------|--------|--------|--------|--------|--------|--------|--------|--------|
G|--------|--------|--------|--------|--------|--------|--------|--------|--------|
D|--------|--------|--------|--------|--------|--------|--------|--------|--------|
A|--------|--------|--------|--------|--------|--------|--------|--------|--------|
E|--------|--------|--------|--------|--------|--------|--------|--------|--------|


E|--------|--------|--------|--------|--------|--------|
B|--------|--------|--------|--------|--------|--------|
G|--------|--------|--------|--------|--------|--------|
D|--------|--------|--------|--------|--------|--------|
A|--------|--------|--------|--------|--------|--------|
E|--------|--------|--------|--------|--------|--------|









Track 6: Timpani
Back to top
E|-------------------------------------------------|--------------------------------------------------|
B|-------------------------------------------------|--------------------------------------------------|
G|-------------------------------------------------|--------------------------------------------------|
D|-------------------------------------------------|--------------------------------------------------|
A|-2--2--2--2--2--2--2--2--2--2--2--2--2--2--2--2--|-2--2--2--2--2--2--2--2--2--2--2--2--2--2--2--2-2-|
E|-------------------------------------------------|--------------------------------------------------|


E|---------------------------------------------|-------------------------------|--------|
B|---------------------------------------------|-------------------------------|--------|
G|---------------------------------------------|-------------------------------|--------|
D|---------------------------------------------|-------------------------------|--------|
A|-2--2----2--2--2--2--2--2--2--2--2--2--2--2--|-2--2--2--2--2--2--2--2--0-----|--------|
E|---------------------------------------------|-------------------------------|--------|


E|--------|--------|--------|--------|--------|--------|--------|--------|--------|
B|--------|--------|--------|--------|--------|--------|--------|--------|--------|
G|--------|--------|--------|--------|--------|--------|--------|--------|--------|
D|--------|--------|--------|--------|--------|--------|--------|--------|--------|
A|--------|--------|--------|--------|--------|--------|--------|--------|--------|
E|--------|--------|--------|--------|--------|--------|--------|--------|--------|


E|--------|--------|--------|--------|--------|--------|--------|--------|--------|
B|--------|--------|--------|--------|--------|--------|--------|--------|--------|
G|--------|--------|--------|--------|--------|--------|--------|--------|--------|
D|--------|--------|--------|--------|--------|--------|--------|--------|--------|
A|--------|--------|--------|--------|--------|--------|--------|--------|--------|
E|--------|--------|--------|--------|--------|--------|--------|--------|--------|


E|--------|--------|--------|--------|--------|--------|--------|--------|--------|
B|--------|--------|--------|--------|--------|--------|--------|--------|--------|
G|--------|--------|--------|--------|--------|--------|--------|--------|--------|
D|--------|--------|--------|--------|--------|--------|--------|--------|--------|
A|--------|--------|--------|--------|--------|--------|--------|--------|--------|
E|--------|--------|--------|--------|--------|--------|--------|--------|--------|


E|--------|--------|--------|--------|--------|--------|--------|--------|--------|
B|--------|--------|--------|--------|--------|--------|--------|--------|--------|
G|--------|--------|--------|--------|--------|--------|--------|--------|--------|
D|--------|--------|--------|--------|--------|--------|--------|--------|--------|
A|--------|--------|--------|--------|--------|--------|--------|--------|--------|
E|--------|--------|--------|--------|--------|--------|--------|--------|--------|


E|--------|--------|--------|--------|--------|--------|--------|--------|--------|
B|--------|--------|--------|--------|--------|--------|--------|--------|--------|
G|--------|--------|--------|--------|--------|--------|--------|--------|--------|
D|--------|--------|--------|--------|--------|--------|--------|--------|--------|
A|--------|--------|--------|--------|--------|--------|--------|--------|--------|
E|--------|--------|--------|--------|--------|--------|--------|--------|--------|


E|--------|--------|--------|--------|--------|--------|--------|--------|--------|
B|--------|--------|--------|--------|--------|--------|--------|--------|--------|
G|--------|--------|--------|--------|--------|--------|--------|--------|--------|
D|--------|--------|--------|--------|--------|--------|--------|--------|--------|
A|--------|--------|--------|--------|--------|--------|--------|--------|--------|
E|--------|--------|--------|--------|--------|--------|--------|--------|--------|


E|--------|--------|--------|--------|--------|--------|--------|--------|--------|
B|--------|--------|--------|--------|--------|--------|--------|--------|--------|
G|--------|--------|--------|--------|--------|--------|--------|--------|--------|
D|--------|--------|--------|--------|--------|--------|--------|--------|--------|
A|--------|--------|--------|--------|--------|--------|--------|--------|--------|
E|--------|--------|--------|--------|--------|--------|--------|--------|--------|


E|--------|--------|--------|--------|--------|--------|--------|--------|--------|
B|--------|--------|--------|--------|--------|--------|--------|--------|--------|
G|--------|--------|--------|--------|--------|--------|--------|--------|--------|
D|--------|--------|--------|--------|--------|--------|--------|--------|--------|
A|--------|--------|--------|--------|--------|--------|--------|--------|--------|
E|--------|--------|--------|--------|--------|--------|--------|--------|--------|


E|--------|--------|--------|--------|--------|--------|--------|--------|--------|
B|--------|--------|--------|--------|--------|--------|--------|--------|--------|
G|--------|--------|--------|--------|--------|--------|--------|--------|--------|
D|--------|--------|--------|--------|--------|--------|--------|--------|--------|
A|--------|--------|--------|--------|--------|--------|--------|--------|--------|
E|--------|--------|--------|--------|--------|--------|--------|--------|--------|


E|--------|--------|--------|--------|--------|--------|--------|--------|--------|
B|--------|--------|--------|--------|--------|--------|--------|--------|--------|
G|--------|--------|--------|--------|--------|--------|--------|--------|--------|
D|--------|--------|--------|--------|--------|--------|--------|--------|--------|
A|--------|--------|--------|--------|--------|--------|--------|--------|--------|
E|--------|--------|--------|--------|--------|--------|--------|--------|--------|


E|--------|--------|--------|--------|--------|--------|--------|--------|--------|
B|--------|--------|--------|--------|--------|--------|--------|--------|--------|
G|--------|--------|--------|--------|--------|--------|--------|--------|--------|
D|--------|--------|--------|--------|--------|--------|--------|--------|--------|
A|--------|--------|--------|--------|--------|--------|--------|--------|--------|
E|--------|--------|--------|--------|--------|--------|--------|--------|--------|


E|--------|--------|--------|--------|--------|--------|--------|--------|--------|
B|--------|--------|--------|--------|--------|--------|--------|--------|--------|
G|--------|--------|--------|--------|--------|--------|--------|--------|--------|
D|--------|--------|--------|--------|--------|--------|--------|--------|--------|
A|--------|--------|--------|--------|--------|--------|--------|--------|--------|
E|--------|--------|--------|--------|--------|--------|--------|--------|--------|


E|--------|--------|--------|--------|--------|--------|--------|--------|--------|
B|--------|--------|--------|--------|--------|--------|--------|--------|--------|
G|--------|--------|--------|--------|--------|--------|--------|--------|--------|
D|--------|--------|--------|--------|--------|--------|--------|--------|--------|
A|--------|--------|--------|--------|--------|--------|--------|--------|--------|
E|--------|--------|--------|--------|--------|--------|--------|--------|--------|


E|--------|--------|--------|--------|--------|--------|--------|--------|--------|
B|--------|--------|--------|--------|--------|--------|--------|--------|--------|
G|--------|--------|--------|--------|--------|--------|--------|--------|--------|
D|--------|--------|--------|--------|--------|--------|--------|--------|--------|
A|--------|--------|--------|--------|--------|--------|--------|--------|--------|
E|--------|--------|--------|--------|--------|--------|--------|--------|--------|


E|--------|--------|--------|--------|--------|--------|--------|--------|--------|
B|--------|--------|--------|--------|--------|--------|--------|--------|--------|
G|--------|--------|--------|--------|--------|--------|--------|--------|--------|
D|--------|--------|--------|--------|--------|--------|--------|--------|--------|
A|--------|--------|--------|--------|--------|--------|--------|--------|--------|
E|--------|--------|--------|--------|--------|--------|--------|--------|--------|


E|--------|--------|--------|--------|--------|--------|--------|--------|--------|
B|--------|--------|--------|--------|--------|--------|--------|--------|--------|
G|--------|--------|--------|--------|--------|--------|--------|--------|--------|
D|--------|--------|--------|--------|--------|--------|--------|--------|--------|
A|--------|--------|--------|--------|--------|--------|--------|--------|--------|
E|--------|--------|--------|--------|--------|--------|--------|--------|--------|


E|--------|--------|--------|--------|--------|--------|--------|--------|--------|
B|--------|--------|--------|--------|--------|--------|--------|--------|--------|
G|--------|--------|--------|--------|--------|--------|--------|--------|--------|
D|--------|--------|--------|--------|--------|--------|--------|--------|--------|
A|--------|--------|--------|--------|--------|--------|--------|--------|--------|
E|--------|--------|--------|--------|--------|--------|--------|--------|--------|


E|--------|--------|--------|--------|--------|--------|--------|--------|--------|
B|--------|--------|--------|--------|--------|--------|--------|--------|--------|
G|--------|--------|--------|--------|--------|--------|--------|--------|--------|
D|--------|--------|--------|--------|--------|--------|--------|--------|--------|
A|--------|--------|--------|--------|--------|--------|--------|--------|--------|
E|--------|--------|--------|--------|--------|--------|--------|--------|--------|


E|--------|--------|--------|--------|--------|--------|--------|--------|--------|
B|--------|--------|--------|--------|--------|--------|--------|--------|--------|
G|--------|--------|--------|--------|--------|--------|--------|--------|--------|
D|--------|--------|--------|--------|--------|--------|--------|--------|--------|
A|--------|--------|--------|--------|--------|--------|--------|--------|--------|
E|--------|--------|--------|--------|--------|--------|--------|--------|--------|


E|--------|--------|--------|--------|--------|--------|--------|--------|--------|
B|--------|--------|--------|--------|--------|--------|--------|--------|--------|
G|--------|--------|--------|--------|--------|--------|--------|--------|--------|
D|--------|--------|--------|--------|--------|--------|--------|--------|--------|
A|--------|--------|--------|--------|--------|--------|--------|--------|--------|
E|--------|--------|--------|--------|--------|--------|--------|--------|--------|


E|--------|--------|--------|--------|--------|--------|--------|--------|--------|
B|--------|--------|--------|--------|--------|--------|--------|--------|--------|
G|--------|--------|--------|--------|--------|--------|--------|--------|--------|
D|--------|--------|--------|--------|--------|--------|--------|--------|--------|
A|--------|--------|--------|--------|--------|--------|--------|--------|--------|
E|--------|--------|--------|--------|--------|--------|--------|--------|--------|


E|--------|--------|--------|--------|--------|--------|--------|--------|--------|
B|--------|--------|--------|--------|--------|--------|--------|--------|--------|
G|--------|--------|--------|--------|--------|--------|--------|--------|--------|
D|--------|--------|--------|--------|--------|--------|--------|--------|--------|
A|--------|--------|--------|--------|--------|--------|--------|--------|--------|
E|--------|--------|--------|--------|--------|--------|--------|--------|--------|


E|--------|--------|--------|--------|--------|--------|--------|--------|--------|
B|--------|--------|--------|--------|--------|--------|--------|--------|--------|
G|--------|--------|--------|--------|--------|--------|--------|--------|--------|
D|--------|--------|--------|--------|--------|--------|--------|--------|--------|
A|--------|--------|--------|--------|--------|--------|--------|--------|--------|
E|--------|--------|--------|--------|--------|--------|--------|--------|--------|


E|--------|--------|--------|--------|--------|--------|--------|--------|--------|
B|--------|--------|--------|--------|--------|--------|--------|--------|--------|
G|--------|--------|--------|--------|--------|--------|--------|--------|--------|
D|--------|--------|--------|--------|--------|--------|--------|--------|--------|
A|--------|--------|--------|--------|--------|--------|--------|--------|--------|
E|--------|--------|--------|--------|--------|--------|--------|--------|--------|


E|--------|--------|--------|--------|--------|--------|--------|--------|--------|
B|--------|--------|--------|--------|--------|--------|--------|--------|--------|
G|--------|--------|--------|--------|--------|--------|--------|--------|--------|
D|--------|--------|--------|--------|--------|--------|--------|--------|--------|
A|--------|--------|--------|--------|--------|--------|--------|--------|--------|
E|--------|--------|--------|--------|--------|--------|--------|--------|--------|









Track 7: Strings 1
Back to top
E|--------|--------|--------|--------|-22-------------|--------|------22------------|
B|--------|--------|--------|--------|-24-------------|--------|------24------------|
G|--------|--------|--------|--------|-19-------------|--------|------19------------|
D|--------|--------|--------|--------|-21-------------|--------|------21------------|
A|--------|--------|--------|--------|----------------|--------|--------------------|
E|--------|--------|--------|--------|----------------|--------|--------------------|


E|--------21--21--|-22-------------|--------|--------|--------|--------|--------|-19----------15--19------15------|
B|--------22--22--|-24-------------|--------|--------|--------|--------|--------|-----20--------------15------15--|
G|----------------|-19-------------|--------|--------|--------|--------|--------|---------19------16--------------|
D|--------23--23--|-21-------------|--------|--------|--------|--------|--------|-21----------17----------17------|
A|--------24--24--|----------------|--------|--------|--------|--------|--------|-----22--17----------17------17--|
E|----------------|----------------|--------|--------|--------|--------|--------|---------------------------------|


E|-21--18--21--24--27--26--22--21--|-------------|--------|--------|--------|--------|
B|---------------------------------|-------------|--------|--------|--------|--------|
G|-18----------21--24--23----------|-23----------|--------|--------|--------|--------|
D|-----20--23--------------24--23--|-------------|--------|--------|--------|--------|
A|---------------------------------|-21----------|--------|--------|--------|--------|
E|---------------------------------|-------------|--------|--------|--------|--------|


E|--------|-19-------15-19----15-19-22-19----19-27--27--|-26-27-26-24-26-24-22-24-26----|
B|--------|----20----------15-------------20------------|-------------------------------|
G|--------|-------19----16-------16-19----------24--24--|-23-24-23-21-23-21----21-23----|
D|--------|-21-------17-------17-------21----21---------|-------------------24----------|
A|--------|----22-17-------17-------------22------------|-------------------------------|
E|--------|---------------------------------------------|-------------------------------|


E|--------|-0-----0---17--0---14--|-0------|-----------19--17------|-17--17--17--17--17--19--19--22--|
B|--------|-----------19--20------|-20-----|-19----19--20--19--19--|-19--19--19--19--19--20--20--24--|
G|-23-----|-21----21--14--21--11--|-21-----|-20----20----------19--|---------------------------------|
D|-24-----|-23----23------17------|--------|-----------21--19--16--|-19--19--19--19--19--21--21--23--|
A|-21-----|-----------21--22--17--|-22-----|-21----21--22--21--17--|-21--21--21--21--21--22--22--24--|
E|-22-----|-21----21--------------|--------|-23----23--------------|---------------------------------|


E|-21--22--22--22--22-20-19-20-22-20-19-17-|-17-15-14----0-----15-------15---|-17171717171717171717171717171717--17----17------|
B|-22--24--24--24--------------------------|----------15-17-15------15-------|-------------------------------------17------17--|
G|-----19--19--19--------------------------|---------------------------------|-------------------------------------------------|
D|-23--21--21--21--24-22-21-22-24-22-21-19-|-19-17-16----------17-------17---|-19191919191919191919191919191919--19----19------|
A|-24--------------------------------------|----------17----17------17-------|-------------------------------------19------19--|
E|-----------------------------------------|---------------------------------|-------------------------------------------------|


E|--------|-0-----0-------0---14--|-0------|-----------19--17------|-19---17--0---0---19----17-15-14-15-|
B|-19-----|-17----17--22--20--15--|-20-----|-19----19--20--19--19--|-20---19--20--20-----20-------------|
G|-19-----|-18----18------21------|-21-----|-20----20----------19--|----------21--21--------------------|
D|-16-----|-----------19--17--16--|--------|-----------21--19--16--|-21---19----------21----19-17-16-17-|
A|-17-----|-16----16--------------|-22-----|-21----21--22--21--17--|-22---21--22--22-----22-------------|
E|--------|-----------26--24--22--|--------|-23----23--------------|------------------------------------|


E|-19-15----15-17-15----15-0-----------------------|-0-------6---9---0---6---9----|
B|-------15----------15----17-0-----0--15-0-----0--|-17--14--8---11--17--8---11---|
G|-16-------------------------16-0--16----16-0--16-|-18--15--0-------18--0--------|
D|----17----17-19-17----17-------17----------17----|---------8---11------8---11---|
A|-------17----------17----------------17----------|-16--16------13--16------13---|
E|-------------------------------------------------|-----18-----------------------|


E|-18---21---24---24--------|-22-------------|--------|--------|--------|--------|
B|-11---14---5----20--------|-24-------------|--------|--------|--------|--------|
G|-12---15---21---21--------|-19-------------|--------|--------|--------|--------|
D|-5----11---23-------------|-21-------------|--------|--------|--------|--------|
A|-13---13---16---22--------|----------------|--------|--------|--------|--------|
E|--------------------------|----------------|--------|--------|--------|--------|


E|--------|-19----------15--19------15------|-21--18--21--24--27--26--22--21--|-------------|
B|--------|-----20--------------15------15--|---------------------------------|-------------|
G|--------|---------19------16--------------|-18----------21--24--23----------|-23----------|
D|--------|-21----------17----------17------|-----20--23--------------24--23--|-------------|
A|--------|-----22--17----------17------17--|---------------------------------|-21----------|
E|--------|---------------------------------|---------------------------------|-------------|


E|--------|--------|--------|--------|--------|-19-------15-19----15-19-22-19----19-27--27--|
B|--------|--------|--------|--------|--------|----20----------15-------------20------------|
G|--------|--------|--------|--------|--------|-------19----16-------16-19----------24--24--|
D|--------|--------|--------|--------|--------|-21-------17-------17-------21----21---------|
A|--------|--------|--------|--------|--------|----22-17-------17-------------22------------|
E|--------|--------|--------|--------|--------|---------------------------------------------|


E|-26-27-26-24-26-24-22-24-26----|--------|-0-----0---17--0---14--|-0------|-----------19--17------|
B|-------------------------------|--------|-----------19--20--19--|-20-----|-19----19--20--19--19--|
G|-23-24-23-21-23-21----21-23----|-23-----|-21----21------21--11--|-21-----|-20----20----------19--|
D|-------------------24----------|-24-----|-23----23--19--17------|--------|-----------21--19--16--|
A|-------------------------------|-21-----|-----------21------17--|-22-----|-21----21--22--21--17--|
E|-------------------------------|-22-----|-21----21------24------|--------|-23----23--------------|


E|-17--17--17--17--17--19--19--22--|-21--22--22--22--22-20-19-20-22-20-19-17-|-17-15-14----0-----15-------15---|
B|-19--19--19--19--19--20--20--24--|-22--24--24--24--------------------------|----------15-17-15------15-------|
G|---------------------------------|-----19--19--19--------------------------|---------------------------------|
D|-19--19--19--19--19--21--21--23--|-23--21--21--21--24-22-21-22-24-22-21-19-|-19-17-16----------17-------17---|
A|-21--21--21--21--21--22--22--24--|-24--------------------------------------|----------17----17------17-------|
E|---------------------------------|-----------------------------------------|---------------------------------|


E|-17171717171717171717171717171717--17----17------|--------|-0-----0---17--0---14--|
B|-------------------------------------17------17--|-19-----|-17----17--22--20--15--|
G|-------------------------------------------------|-19-----|-18----18--14--21--11--|
D|-19191919191919191919191919191919--19----19------|-16-----|-----------19--17--16--|
A|-------------------------------------19------19--|-17-----|-16----16--21--22--17--|
E|-------------------------------------------------|--------|-----------26--24--22--|


E|-0------|-----------19--17------|-19---17--0---0---19----17-15-14-15-|-19-15----15-17-15----15-0-----------------------|
B|-20-----|-19----19--20--19--19--|-20---19--20--20-----20-------------|-------15----------15----17-0-----0--15-0-----0--|
G|-21-----|-20----20----------19--|----------21--21--------------------|-16-------------------------16-0--16----16-0--16-|
D|--------|-----------21--19--16--|-21---19----------21----19-17-16-17-|----17----17-19-17----17-------17----------17----|
A|-22-----|-21----21--22--21--17--|-22---21--22--22-----22-------------|-------17----------17----------------17----------|
E|--------|-23----23--------------|------------------------------------|-------------------------------------------------|


E|-17-----|-18---17---17---------|-------------|--------|-----------------|-----------------|
B|-18-----|-18---18---18---------|-------------|--------|-----------------|-----------------|
G|-17-----|-17---17---17---------|-------------|--------|-----------------|-----------------|
D|--------|----------------------|-19----------|--------|-17----19---17---|-15----17--17----|
A|--------|----------------------|-19----19----|-20-----|-19----20---19---|-17----19--19----|
E|--------|----------------------|-------------|-20-----|-----------------|-----------------|


E|-------------|--------|--------|-----------6-----|-20----0-----|--------|-20---------------|
B|-------------|--------|-15-----|-12--------3-----|-------------|-18-----|------------------|
G|-------------|-17-----|-15-----|-14---12---7-----|-------------|--------|------------------|
D|-19----------|-15-----|-15-----|-12---10---------|-19----------|--------|-17----15----14---|
A|-19-----19---|--------|--------|-----------------|-19----------|-20-----|-19----17----15---|
E|-------------|--------|--------|-----------------|-------------|-20-----|------------------|


E|-22----0-----|-0------|--------|-25--30--30--30--29--30--30--30--|-22--------------|
B|-0-----17----|-22-----|--------|---------------------------------|-----------------|
G|-------0-----|--------|-22-----|---------------------------------|-----------------|
D|-------------|--------|--------|-20------------------------------|-20--------------|
A|-------------|--------|-20-----|-20------25------25------25------|-----------------|
E|-22----------|-20-----|-20-----|---------24------25------24------|-22---20---22----|


E|--------|--------|-19-----|-19-----|-19-----|--------|-1919----19----1919------------|
B|-22-----|-22-----|--------|--------|--------|--------|-1919----19----1919------------|
G|-21-----|-21-----|-21-----|-21-----|-21-----|--------|-------------------------------|
D|--------|--------|--------|--------|--------|-21-----|-2121----21----2121------------|
A|--------|--------|--------|--------|--------|-21-----|-2121----21----2121------------|
E|--------|--------|--------|--------|--------|--------|-------------------------------|


E|--------|-1919----19----1919----19----------|------25--------25------|------25--------25------|
B|--------|-1919----19----1919----19----------|------26--------26------|------26--------26------|
G|--------|-----------------------------------|------22--------22------|------22--------22------|
D|-21-----|-2121----21----2121----21----------|------23--------23------|------23--------23------|
A|-21-----|-2121----21----2121----21----------|------------------------|------------------------|
E|--------|-----------------------------------|------------------------|------------------------|


E|------25--------25------|------25--------25--19262221|-19---25--------25------|------24----24-21-22-24-|
B|------26--------26------|------26--------26----------|------26--------26------|------25----27----------|
G|------22--------22------|------22--------22----23----|------22--------23------|------21----29-------21-|
D|------23--------23------|------23--------23--21--2423|-21---23--------23------|------22----24-23-24----|
A|------------------------|----------------------21----|------------------------|------------27----------|
E|------------------------|------------------------2221|-19---------------------|------------22-21-22-24-|


E|-26---21--------21------|--------|--------|--------|--------|-4------|-4-----7-----|
B|------23--------23------|--------|--------|-0------|-0------|-6------|-6-----9-----|
G|-23---18--------18------|--------|--------|-10-----|-10-----|-7------|-7-----10----|
D|------20--------20------|--------|--------|-11-----|-11-----|--------|-------------|
A|-21---------------------|-17-----|-17-----|--------|--------|--------|-------------|
E|------------------------|-19-----|-19-----|--------|--------|--------|-------------|


E|-7------|-------------|-4------|-4-----7-----|-7-----8-----|-8-----------|-9------9---0---|
B|-7------|-7-----7-----|-6------|-6-----9-----|-8-----------|-------------|-8------8---11--|
G|--------|-7-----7-----|-7------|-7-----10----|-9-----------|-------------|-9------9---11--|
D|--------|-------------|--------|-------------|-------------|-------------|----------------|
A|--------|-------------|--------|-------------|-------------|-------------|----------------|
E|--------|-------------|--------|-------------|-------------|-------------|----------------|


E|-0-----0-----0---|--------|--------|-7------|-7------|-8------|-8------|-7------|
B|-11--------------|-10-----|-10-----|-9------|-9------|-10-----|-8------|-8------|
G|-11----11----11--|-11-----|-11-----|-9------|-9------|-10-----|-9------|-7------|
D|-----------------|-12-----|-12-----|--------|--------|--------|--------|--------|
A|-----------------|--------|--------|--------|--------|--------|--------|--------|
E|-----------------|--------|--------|--------|--------|--------|--------|--------|


E|-7------|-10-----|-10-----|-12-----|-12-----|-13-----|-15-----|-14-----|-14-----|
B|-8------|-10-----|-10-----|-12-----|-12-----|-13-----|-17-----|-15-----|-15-----|
G|-7------|-11-----|-11-----|-13-----|-13-----|-14-----|-17-----|--------|--------|
D|--------|--------|--------|--------|--------|--------|--------|--------|--------|
A|--------|--------|--------|--------|--------|--------|--------|--------|--------|
E|--------|--------|--------|--------|--------|--------|--------|--------|--------|


E|-2-----2-----|-3----3----3----3----|-0--------------0---0--0--|-5----5----5----5----|
B|-12----7-----|-20---19---17---15---|-15---14---12---10--19-20-|-22---20---19---17---|
G|-4-----7-----|-12--------4----16---|-14-----------------------|----------------14---|
D|-12----------|-12------------------|-----------9--------------|-16------------------|
A|-------------|---------------------|-12-----------------------|---------------------|
E|-------------|---------------------|--------------------------|-17------------------|


E|--------------------14--|-0----0----0----0----|-9-----------|-14-----|-18----21----|
B|-3----3----3----3---3---|-20---19---17---15---|--------8----|--------|-------------|
G|-11---16---15---12------|----------------12---|-11----------|-11-----|-------------|
D|-23---------------------|-14---14---14--------|-------------|--------|-16----------|
A|-22---------------------|-16------------------|-------------|--------|-------------|
E|------------------------|---------------------|-------------|--------|-------------|


E|-19-----|-19-----|-17-----|-17-----|-19-----|--------|-19-----|-19----18----|-19-----|
B|-19-----|-20-----|-17-----|-19-----|-20-----|-20-----|-19-----|-19----19----|-19-----|
G|--------|--------|--------|--------|--------|-21-----|--------|-------------|--------|
D|--------|--------|--------|--------|--------|--------|--------|-------------|--------|
A|--------|--------|--------|--------|--------|--------|--------|-------------|--------|
E|--------|--------|--------|--------|--------|--------|--------|-------------|--------|


E|-19-----|-17-----|-17-----|-15-----|-15-----|-17----17----17--17----17--18----18---------|
B|-20-----|-17-----|-19-----|-17-----|-17-----|-19----19----19--19----19--19----19---------|
G|--------|--------|--------|--------|--------|--------------------------------------------|
D|--------|--------|--------|--------|--------|--------------------------------------------|
A|--------|--------|--------|--------|--------|--------------------------------------------|
E|--------|--------|--------|--------|--------|--------------------------------------------|


E|----19----19--19----19----18--------|-22-------------|--------|--------|--------|
B|----19----19--19----19----19--------|-24-------------|--------|--------|--------|
G|------------------------------------|-19-------------|--------|--------|--------|
D|------------------------------------|-21-------------|--------|--------|--------|
A|------------------------------------|----------------|--------|--------|--------|
E|------------------------------------|----------------|--------|--------|--------|


E|--------|--------|-19----------15--19------15------|-21--18--21--24--27--26--22--21--|
B|--------|--------|-----20--------------15------15--|---------------------------------|
G|--------|--------|---------19------16--------------|-18----------21--24--23----------|
D|--------|--------|-21----------17----------17------|-----20--23--------------24--23--|
A|--------|--------|-----22--17----------17------17--|---------------------------------|
E|--------|--------|---------------------------------|---------------------------------|


E|-------------|--------|--------|--------|--------|--------|-19-------15-19----15-19-22-19----19-27--27--|
B|-------------|--------|--------|--------|--------|--------|----20----------15-------------20------------|
G|-23----------|--------|--------|--------|--------|--------|-------19----16-------16-19----------24--24--|
D|-------------|--------|--------|--------|--------|--------|-21-------17-------17-------21----21---------|
A|-21----------|--------|--------|--------|--------|--------|----22-17-------17-------------22------------|
E|-------------|--------|--------|--------|--------|--------|---------------------------------------------|


E|-26-27-26-24-26-24-22-24-26----|--------|-0-----0---17--0-------|-0------|-----------19--17------|
B|-------------------------------|--------|-----------19--20--19--|-20-----|-19----19--20--19--19--|
G|-23-24-23-21-23-21----21-23----|-23-----|-21----21------21------|-21-----|-20----20----------19--|
D|-------------------24----------|-24-----|-23----23--19--17--16--|--------|-----------21--19--16--|
A|-------------------------------|-21-----|-----------21--22--17--|-22-----|-21----21--22--21--17--|
E|-------------------------------|-22-----|-21----21------24------|--------|-23----23--------------|


E|-17--17--17--17--17--19--19--22--|-21--22--22--22--22-20-19-20-22-20-19-17-|-17-15-14----0-----15-------15---|
B|-19--19--19--19--19--20--20--24--|-22--24--24--24--------------------------|----------15-17-15------15-------|
G|---------------------------------|-----19--19--19--------------------------|---------------------------------|
D|-19--19--19--19--19--21--21--23--|-23--21--21--21--24-22-21-22-24-22-21-19-|-19-17-16----------17-------17---|
A|-21--21--21--21--21--22--22--24--|-24--------------------------------------|----------17----17------17-------|
E|---------------------------------|-----------------------------------------|---------------------------------|


E|-17171717171717171717171717171717--17----17------|--------|-0-----0---17--0---14--|
B|-------------------------------------17------17--|-19-----|-17----17------20------|
G|-------------------------------------------------|-19-----|-18----18--14--21--11--|
D|-19191919191919191919191919191919--19----19------|-16-----|---------------17------|
A|-------------------------------------19------19--|-17-----|-16----16--21------17--|
E|-------------------------------------------------|--------|---------------24------|


E|-0------|-----------19--17------|-19---17--0---0---19----17-15-14-15-|-19-15----15-17-15----15-0-----------------------|
B|-20-----|-19----19--20--19--19--|-20---19--20--20-----20-------------|-------15----------15----17-0-----0--15-0-----0--|
G|-21-----|-20----20----------19--|----------21--21--------------------|-16-------------------------16-0--16----16-0--16-|
D|--------|-----------21--19--16--|-21---19----------21----19-17-16-17-|----17----17-19-17----17-------17----------17----|
A|-22-----|-21----21--22--21--17--|-22---21--22--22-----22-------------|-------17----------17----------------17----------|
E|--------|-23----23--------------|------------------------------------|-------------------------------------------------|


E|-------13----|-13---13---13--------25---25--25---|-------------|--------|-----------------|
B|-------13----|-13---13---13--------25---25--25---|-------------|--------|-----------------|
G|-------------|---------------------22---22--22---|-------------|--------|-----------------|
D|-------15----|-15---15---15--------22---22--22---|-------------|--------|-17----19---17---|
A|-------15----|-15---15---15--------20---20--20---|-24----------|-20-----|-19----20---19---|
E|-------------|-----------------------------------|-24----24----|-20-----|-----------------|


E|-----------------|-------------|--------|--------|-----------6-----|-20----0-----|
B|-----------------|-------------|--------|-15-----|-11--------3-----|-------------|
G|-----------------|-------------|-17-----|-15-----|-14---12---7-----|-------------|
D|-15----17--17----|-19----------|-15-----|-15-----|-12---10---------|-19----------|
A|-17----19--19----|-19-----19---|--------|--------|-----------------|-19----------|
E|-----------------|-------------|--------|--------|-----------------|-------------|


E|--------|-20---------------|-22----0-----|-0------|--------|-25--30--30--30--29--30--30--30--|
B|-18-----|------------------|-0-----17----|-22-----|--------|---------------------------------|
G|--------|------------------|-------0-----|--------|-22-----|---------------------------------|
D|--------|-17----15----14---|-------------|--------|--------|-20------------------------------|
A|-20-----|-19----17----15---|-------------|--------|-20-----|-20------25------25------25------|
E|-20-----|------------------|-22----------|-20-----|-20-----|---------24------25------24------|


E|-------------------------------|-19----22--21--22--22--|-19---21---22--21--22--22--|
B|-------------------------------|-----------------------|---------------------------|
G|-------------------------------|-----------------------|---------------------------|
D|-24---23---24--2424--24--24--24|-21----24--23--24--24--|-21---23---24--23--24--24--|
A|-22----------------------------|-----------------------|---------------------------|
E|------24---22--2222--22--22--22|-19----22--21--22--22--|-19---21---22--21--22--22--|


E|-17----21--22--22--22--22--|-17--17--17--17--21--21--22--22--|-19----22--21--22--22--|
B|---------------------------|---------------------------------|-----------------------|
G|---------------------------|-----------------18--------------|-----------------------|
D|-19----23--24--24--24--24--|-19--19--19--19------23--24--24--|-21----24--23--24--24--|
A|---------------------------|---------------------------------|-----------------------|
E|-17----21--22--22--22--22--|-17--17--17--17--21--21--22--22--|-19----22--21--22--22--|


E|-19---21---22--21--22--22--|-20---20---19---19---|-----------14-------|-19----22--21--22--22--|
B|---------------------------|---------------------|---------------15---|-24--------------------|
G|---------------------------|-17------------------|--------------------|-16----19--------------|
D|-21---23---24--23--24--24--|------22---21---21---|-----------16--0----|-9---------23--24--24--|
A|---------------------------|-15------------------|---------------17---|-14--------------------|
E|-19---21---22--21--22--22--|-8---------19---19---|-----------14-------|-7-----22--21--22--22--|


E|-19---21---22--21--22--22--|-17----21--22--22--22--22--|-17--17--17--17--21--21--22--22--|
B|-20------------------------|-22------------------------|-22--------------19--------------|
G|-0-------------------------|-14------------------------|-14--------------11--18----------|
D|-17---23---24--23--24--24--|-7-----23--24--24--24--24--|-7---19--19--19--4-------24--24--|
A|-14------------------------|-0-------------------------|-0---------------16--------------|
E|-3----21---22--21--22--22--|-17----21--22--22--22--22--|-17--17--17--17--2---21--22--22--|


E|-19----22--21--22--22--|-19---21---22--21--22--22--|-20-----|-20----------0--13-14--20----|
B|-24--------------------|-20------------------------|--------|-------15-16-17--------20----|
G|-16--------------------|-0-------------------------|-17-----|-17-18-----------------17----|
D|-9-----24--23--24--24--|-17---23---24--23--24--24--|--------|----------------15-16--17----|
A|-14--------------------|-14------------------------|-15-----|-15-16-17-18-----------------|
E|-7-----22--21--22--22--|-3----21---22--21--22--22--|-8------|-20--------------------20----|


E|---------------------|-----------22----22--22----22----22--|-26----26----26--26----26--26----26--26----26----26--|
B|-19------------------|-19--------24----24--24----24----24--|-27----27----27--27----27--27----27--27----27----27--|
G|-19--------19--------|-19--------23----23--23----23----19--|-28----28----28--28----28--28----28--28----28----28--|
D|-21--------21--------|-21--------24----24--24----24----21--|-28----28----28--28----28--28----28--28----28----28--|
A|-----------21--------|-----------26----26--26----26----21--|-----------------------------------------------------|
E|---------------------|-----------26----26--26----26--------|-----------------------------------------------------|


E|-26----26----26--26----26--26----26--26----26----26-|-26-----------------|--------|
B|-27----27----27--27----27--27----27--27----27----27-|--------------------|--------|
G|-28----28----28--28----28--28----28--28----28----28-|-19-----------------|--------|
D|-28----28----28--28----28--28----28--28----28----28-|-21-----------------|--------|
A|----------------------------------------------------|-21-----------------|--------|
E|----------------------------------------------------|--------------------|--------|


E|--------|
B|--------|
G|--------|
D|--------|
A|--------|
E|--------|









Track 8: Strings 2
Back to top
E|--------|--------|--------|--------|--------|--------|--------|--------|-2-----2-----|
B|--------|--------|--------|--------|--------|--------|--------|--------|-3-----3-----|
G|--------|--------|--------|--------|--------|--------|--------|--------|-4-----4-----|
D|--------|--------|--------|--------|--------|--------|--------|--------|-------------|
A|--------|--------|--------|--------|--------|--------|--------|--------|-------------|
E|--------|--------|--------|--------|--------|--------|--------|--------|-------------|


E|-2-----0-----|-2-----2-----|-0-----0-----|-2-----2-----|-2-----0-----|-------------|
B|-3-----2-----|-3-----3-----|-2-----0-----|-3-----3-----|-3-----2-----|-3-----0-----|
G|-2-----2-----|-4-----4-----|-2-----1-----|-4-----4-----|-2-----2-----|-4-----0-----|
D|-------------|-------------|-------------|-------------|-------------|-5-----------|
A|-------------|-------------|-------------|-------------|-------------|-------------|
E|-------------|-------------|-------------|-------------|-------------|-------------|


E|--------|-2-----2-----|-2-----0-----|-2-----2-----|-0-----0-----|-2-----2-----|-2-----0-----|
B|-2------|-3-----3-----|-3-----2-----|-3-----3-----|-2-----0-----|-3-----3-----|-3-----2-----|
G|-3------|-4-----4-----|-2-----2-----|-4-----4-----|-2-----1-----|-4-----4-----|-2-----2-----|
D|-4------|-------------|-------------|-------------|-------------|-------------|-------------|
A|--------|-------------|-------------|-------------|-------------|-------------|-------------|
E|--------|-------------|-------------|-------------|-------------|-------------|-------------|


E|-------------|--------|--------|--------|-0------|--------|--------|-5-----------|
B|-3-----0-----|-2------|-3------|-2------|-0------|-4------|-3------|-7-----3-----|
G|-4-----0-----|-3------|-2------|-2------|--------|-4------|-4------|-------4-----|
D|-5-----------|-4------|--------|--------|--------|--------|--------|-------------|
A|-------------|--------|--------|--------|--------|--------|--------|-------------|
E|-------------|--------|--------|--------|--------|--------|--------|-------------|


E|-0--------3------------0---|-9---0---9---0---12--10--9-------|--------|--------|
B|-2----3---5----2---3-------|-10------10------14--12--10------|--------|--------|
G|---------------------------|-----------------------------9---|-7------|-6------|
D|---------------------------|---------------------------------|-7------|-7------|
A|---------------------------|---------------------------------|--------|--------|
E|---------------------------|---------------------------------|--------|--------|


E|-0------|--------|--------|-5-----------|--------|------0----3----6---------|-------------|
B|-0------|-4------|-3------|-5-----3-----|-2------|-2----2----5----8---------|-7-----7-----|
G|--------|-4------|-4------|-------4-----|-3------|-3------------------------|-7-----7-----|
D|--------|--------|--------|-------------|--------|--------------------------|-9-----9-----|
A|--------|--------|--------|-------------|--------|--------------------------|-------------|
E|--------|--------|--------|-------------|--------|--------------------------|-------------|


E|-------0-----|-------------|-0-----0-----|-2-----2-----|-2-----0-----|-------------|
B|-7-----------|-7-----7-----|-------0-----|-3-----3-----|-3-----2-----|-3-----0-----|
G|-7-----6-----|-7-----7-----|-6-----------|-4-----4-----|-2-----2-----|-4-----0-----|
D|-7-----7-----|-9-----9-----|-7-----6-----|-------------|-------------|-5-----------|
A|-------------|-------------|-------------|-------------|-------------|-------------|
E|-------------|-------------|-------------|-------------|-------------|-------------|


E|--------|-2-----2-----|-2-----0-----|-2-----2-----|-0-----0-----|-2-----2-----|-2-----0-----|
B|-2------|-3-----3-----|-3-----2-----|-3-----3-----|-2-----0-----|-3-----3-----|-3-----2-----|
G|-3------|-4-----4-----|-2-----2-----|-4-----4-----|-2-----1-----|-4-----4-----|-2-----2-----|
D|-4------|-------------|-------------|-------------|-------------|-------------|-------------|
A|--------|-------------|-------------|-------------|-------------|-------------|-------------|
E|--------|-------------|-------------|-------------|-------------|-------------|-------------|


E|-------------|--------|--------|--------|-0------|--------|--------|-5-----------|
B|-3-----0-----|-2------|-3------|-2------|-0------|-4------|-3------|-7-----3-----|
G|-4-----0-----|-3------|-2------|-2------|--------|-4------|-4------|-------4-----|
D|-5-----------|-4------|--------|--------|--------|--------|--------|-------------|
A|-------------|--------|--------|--------|--------|--------|--------|-------------|
E|-------------|--------|--------|--------|--------|--------|--------|-------------|


E|-0--------3------------0---|-9---0---9---0---12--10--9-------|--------|--------|
B|-2----3---5----2---3-------|-10------10------14--12--10------|--------|--------|
G|---------------------------|-----------------------------9---|-7------|-6------|
D|---------------------------|---------------------------------|-7------|-7------|
A|---------------------------|---------------------------------|--------|--------|
E|---------------------------|---------------------------------|--------|--------|


E|-0------|--------|--------|-5-----------|-1------|-1----1----1----------|--------|
B|-0------|-4------|-3------|-5-----3-----|-1------|-1----1----1----------|--------|
G|--------|-4------|-4------|-------4-----|--------|----------------------|--------|
D|--------|--------|--------|-------------|--------|----------------------|--------|
A|--------|--------|--------|-------------|--------|----------------------|--------|
E|--------|--------|--------|-------------|--------|----------------------|--------|


E|--------|--------|--------|--------|--------|--------|--------|--------|--------|
B|--------|--------|--------|--------|--------|--------|--------|--------|--------|
G|--------|--------|--------|--------|--------|--------|--------|--------|--------|
D|--------|--------|--------|--------|--------|--------|--------|--------|--------|
A|--------|--------|--------|--------|--------|--------|--------|--------|--------|
E|--------|--------|--------|--------|--------|--------|--------|--------|--------|


E|--------|--------|--------|--------|--------|--------|--------|--------|--------|
B|--------|--------|--------|--------|--------|--------|--------|--------|--------|
G|--------|--------|--------|--------|--------|--------|--------|--------|--------|
D|--------|--------|--------|--------|--------|--------|--------|--------|--------|
A|--------|--------|--------|--------|--------|--------|--------|--------|--------|
E|--------|--------|--------|--------|--------|--------|--------|--------|--------|


E|--------|--------|--------|--------|--------|--------|--------|--------|--------|
B|--------|--------|--------|--------|--------|--------|--------|--------|--------|
G|--------|--------|--------|--------|--------|--------|--------|--------|--------|
D|--------|--------|--------|--------|--------|--------|--------|--------|--------|
A|--------|--------|--------|--------|--------|--------|--------|--------|--------|
E|--------|--------|--------|--------|--------|--------|--------|--------|--------|


E|--------|--------|--------|--------|--------|--------|--------|--------|--------|
B|--------|--------|--------|--------|--------|--------|--------|--------|--------|
G|--------|--------|--------|--------|--------|--------|--------|--------|--------|
D|--------|--------|--------|--------|--------|--------|--------|--------|--------|
A|--------|--------|--------|--------|--------|--------|--------|--------|--------|
E|--------|--------|--------|--------|--------|--------|--------|--------|--------|


E|--------|--------|--------|--------|--------|--------|--------|--------|--------|
B|--------|--------|--------|--------|--------|--------|--------|--------|--------|
G|--------|--------|--------|--------|--------|--------|--------|--------|--------|
D|--------|--------|--------|--------|--------|--------|--------|--------|--------|
A|--------|--------|--------|--------|--------|--------|--------|--------|--------|
E|--------|--------|--------|--------|--------|--------|--------|--------|--------|


E|--------|--------|--------|--------|--------|--------|--------|--------|--------|
B|--------|--------|--------|--------|--------|--------|--------|--------|--------|
G|--------|--------|--------|--------|--------|--------|--------|--------|--------|
D|--------|--------|--------|--------|--------|--------|--------|--------|--------|
A|--------|--------|--------|--------|--------|--------|--------|--------|--------|
E|--------|--------|--------|--------|--------|--------|--------|--------|--------|


E|--------|--------|--------|--------|--------|--------|--------|-7-----------|-15---14---12---10---|
B|--------|--------|--------|--------|--------|--------|--------|-------7-----|-----------0----12---|
G|--------|--------|--------|--------|--------|--------|--------|-7-----7-----|-12------------------|
D|--------|--------|--------|--------|--------|--------|--------|-------------|-12------------------|
A|--------|--------|--------|--------|--------|--------|--------|-------------|---------------------|
E|--------|--------|--------|--------|--------|--------|--------|-------------|---------------------|


E|-10---9----7--------14-15-|-17---15---14---12---|--------------------14--|-15---14---12---10---|
B|-10-------------10--------|---------------------|-15---------------------|---------------------|
G|--------------------------|----------------14---|-18---16---15---12------|----------------12---|
D|-----------9--------------|-16------------------|-17---------------------|-14---14---14--------|
A|-12-----------------------|---------------------|------------------------|-16------------------|
E|--------------------------|-17------------------|------------------------|---------------------|


E|-9-----------|-14-----|-18----21----|-19-----|-19-----|-17-----|-17-----|-19-----|
B|--------8----|--------|-------------|-19-----|-20-----|-17-----|-19-----|-20-----|
G|-11----------|-11-----|-------------|--------|--------|--------|--------|--------|
D|-------------|--------|-16----------|--------|--------|--------|--------|--------|
A|-------------|--------|-------------|--------|--------|--------|--------|--------|
E|-------------|--------|-------------|--------|--------|--------|--------|--------|


E|--------|-19-----|-19----18----|-19-----|-19-----|-17-----|-17-----|-15-----|-15-----|
B|-20-----|-19-----|-19----19----|-19-----|-20-----|-17-----|-19-----|-17-----|-17-----|
G|-21-----|--------|-------------|--------|--------|--------|--------|--------|--------|
D|--------|--------|-------------|--------|--------|--------|--------|--------|--------|
A|--------|--------|-------------|--------|--------|--------|--------|--------|--------|
E|--------|--------|-------------|--------|--------|--------|--------|--------|--------|


E|-17----17----17--17----17--18----18---------|----19----19--19----19----18--------|
B|-19----19----19--19----19--19----19---------|----19----19--19----19----19--------|
G|--------------------------------------------|------------------------------------|
D|--------------------------------------------|------------------------------------|
A|--------------------------------------------|------------------------------------|
E|--------------------------------------------|------------------------------------|


E|-------------|-------0-----|-------------|-0-----0-----|-------------|-------0-----|
B|-0-----0-----|-------------|-0-----0-----|-------0-----|-0-----0-----|-------------|
G|-------------|-------------|-------------|-------------|-------------|-------------|
D|-16----16----|-16----------|-16----16----|-------------|-16----16----|-16----------|
A|-17----17----|-17----16----|-17----17----|-16----------|-17----17----|-17----16----|
E|-------------|-17----17----|-------------|-17----16----|-------------|-17----17----|


E|-------------|--------|-2-----2-----|-2-----0-----|-2-----2-----|-0-----0-----|-2-----2-----|
B|-0-----0-----|-2------|-3-----3-----|-3-----2-----|-3-----3-----|-2-----0-----|-3-----3-----|
G|-0-----0-----|-3------|-4-----4-----|-2-----2-----|-4-----4-----|-2-----1-----|-4-----4-----|
D|-------------|-4------|-------------|-------------|-------------|-------------|-------------|
A|-17----------|--------|-------------|-------------|-------------|-------------|-------------|
E|-------------|--------|-------------|-------------|-------------|-------------|-------------|


E|-2-----0-----|-------------|--------|--------|--------|-0------|--------|--------|
B|-3-----2-----|-3-----0-----|-2------|-3------|-2------|-0------|-4------|-3------|
G|-2-----2-----|-4-----0-----|-3------|-2------|-2------|--------|-4------|-4------|
D|-------------|-5-----------|-4------|--------|--------|--------|--------|--------|
A|-------------|-------------|--------|--------|--------|--------|--------|--------|
E|-------------|-------------|--------|--------|--------|--------|--------|--------|


E|-5-----------|-0--------3------------0---|-9---0---9---0---12--10--9-------|--------|
B|-7-----3-----|-2----3---5----2---3-------|-10------10------14--12--10------|--------|
G|-------4-----|---------------------------|-----------------------------9---|-7------|
D|-------------|---------------------------|---------------------------------|-7------|
A|-------------|---------------------------|---------------------------------|--------|
E|-------------|---------------------------|---------------------------------|--------|


E|--------|-0------|--------|--------|-5-----------|-17-----|-25---25---25--------20--20--20--|
B|--------|-0------|-4------|-3------|-5-----3-----|-18-----|-25---25---25--------------------|
G|-6------|--------|-4------|-4------|-------4-----|-17-----|-26---26---26--------22--22--22--|
D|-7------|--------|--------|--------|-------------|--------|---------------------22--22--22--|
A|--------|--------|--------|--------|-------------|--------|---------------------------------|
E|--------|--------|--------|--------|-------------|--------|---------------------20--20--20--|


E|--------|--------|--------|--------|--------|--------|--------|--------|--------|
B|--------|--------|--------|--------|--------|--------|--------|--------|--------|
G|--------|--------|--------|--------|--------|--------|--------|--------|--------|
D|--------|--------|--------|--------|--------|--------|--------|--------|--------|
A|--------|--------|--------|--------|--------|--------|--------|--------|--------|
E|--------|--------|--------|--------|--------|--------|--------|--------|--------|


E|--------|--------|--------|--------|--------|--------|--------|--------|--------|
B|--------|--------|--------|--------|--------|--------|--------|--------|--------|
G|--------|--------|--------|--------|--------|--------|--------|--------|--------|
D|--------|--------|--------|--------|--------|--------|--------|--------|--------|
A|--------|--------|--------|--------|--------|--------|--------|--------|--------|
E|--------|--------|--------|--------|--------|--------|--------|--------|--------|


E|--------|--------|--------|--------|--------|--------|--------|--------|--------|
B|--------|--------|--------|--------|--------|--------|--------|--------|--------|
G|--------|--------|--------|--------|--------|--------|--------|--------|--------|
D|--------|--------|--------|--------|--------|--------|--------|--------|--------|
A|--------|--------|--------|--------|--------|--------|--------|--------|--------|
E|--------|--------|--------|--------|--------|--------|--------|--------|--------|


E|--------|--------|--------|--------|--------|--------|--------|--------|--------|
B|--------|--------|--------|--------|--------|--------|--------|--------|--------|
G|--------|--------|--------|--------|--------|--------|--------|--------|--------|
D|--------|--------|--------|--------|--------|--------|--------|--------|--------|
A|--------|--------|--------|--------|--------|--------|--------|--------|--------|
E|--------|--------|--------|--------|--------|--------|--------|--------|--------|


E|--------|--------|--------|
B|--------|--------|--------|
G|--------|--------|--------|
D|--------|--------|--------|
A|--------|--------|--------|
E|--------|--------|--------|









Track 9: Brass
Back to top
E|--------|--------|--------|--------|--------|--------|--------|--------|--------|
B|--------|--------|--------|--------|--------|--------|--------|--------|--------|
G|--------|--------|--------|--------|--------|--------|--------|--------|--------|
D|--------|--------|--------|--------|--------|--------|--------|--------|--------|
A|--------|--------|--------|--------|--------|--------|--------|--------|--------|
E|--------|--------|--------|--------|--------|--------|--------|--------|--------|


E|--------|--------|--------|--------|--------|--------|--------|--------|--------|
B|--------|--------|--------|--------|--------|--------|--------|--------|--------|
G|--------|--------|--------|--------|--------|--------|--------|--------|--------|
D|--------|--------|--------|--------|--------|--------|--------|--------|--------|
A|--------|--------|--------|--------|--------|--------|--------|--------|--------|
E|--------|--------|--------|--------|--------|--------|--------|--------|--------|


E|--------|--------|--------|--------|--------|--------|--------|--------|--------|
B|--------|--------|--------|--------|--------|--------|--------|--------|--------|
G|--------|--------|--------|--------|--------|--------|--------|--------|--------|
D|--------|--------|--------|--------|--------|--------|--------|--------|--------|
A|--------|--------|--------|--------|--------|--------|--------|--------|--------|
E|--------|--------|--------|--------|--------|--------|--------|--------|--------|


E|--------|--------|--------|--------|--------|--------|--------|--------|--------|
B|--------|--------|--------|--------|--------|--------|--------|--------|--------|
G|--------|--------|--------|--------|--------|--------|--------|--------|--------|
D|--------|--------|--------|--------|--------|--------|--------|--------|--------|
A|--------|--------|--------|--------|--------|--------|--------|--------|--------|
E|--------|--------|--------|--------|--------|--------|--------|--------|--------|


E|--------|--------|--------|--------|--------|--------|--------|--------|--------|
B|--------|--------|--------|--------|--------|--------|--------|--------|--------|
G|--------|--------|--------|--------|--------|--------|--------|--------|--------|
D|--------|--------|--------|--------|--------|--------|--------|--------|--------|
A|--------|--------|--------|--------|--------|--------|--------|--------|--------|
E|--------|--------|--------|--------|--------|--------|--------|--------|--------|


E|--------|--------|--------|--------|--------|--------|--------|--------|--------|
B|--------|--------|--------|--------|--------|--------|--------|--------|--------|
G|--------|--------|--------|--------|--------|--------|--------|--------|--------|
D|--------|--------|--------|--------|--------|--------|--------|--------|--------|
A|--------|--------|--------|--------|--------|--------|--------|--------|--------|
E|--------|--------|--------|--------|--------|--------|--------|--------|--------|


E|--------|--------|--------|--------|--------|--------|--------|--------|--------|
B|--------|--------|--------|--------|--------|--------|--------|--------|--------|
G|--------|--------|--------|--------|--------|--------|--------|--------|--------|
D|--------|--------|--------|--------|--------|--------|--------|--------|--------|
A|--------|--------|--------|--------|--------|--------|--------|--------|--------|
E|--------|--------|--------|--------|--------|--------|--------|--------|--------|


E|--------|--------|--------|--------|--------|--------|--------|--------|--------|
B|--------|--------|--------|--------|--------|--------|--------|--------|--------|
G|--------|--------|--------|--------|--------|--------|--------|--------|--------|
D|--------|--------|--------|--------|--------|--------|--------|--------|--------|
A|--------|--------|--------|--------|--------|--------|--------|--------|--------|
E|--------|--------|--------|--------|--------|--------|--------|--------|--------|


E|-8----7---8----12--12--12--|--------|------8---8-------12--12--12--|-10----------|
B|---------------------------|--------|-8------------8---------------|-------------|
G|---------------------------|-10-----|------------------------------|-------9-----|
D|---------------------------|--------|------------------------------|-------------|
A|---------------------------|--------|------------------------------|-------------|
E|---------------------------|--------|------------------------------|-------------|


E|-8--------8----12--12--12--|------------------|-10--10--10--10--10--10----------|
B|------6--------------------|-------10---------|-11--11--11--11--10--10--10--10--|
G|---------------------------|-10----------10---|-------------------------9---9---|
D|---------------------------|------------------|---------------------------------|
A|---------------------------|------------------|---------------------------------|
E|---------------------------|------------------|---------------------------------|


E|--------|-8----7---8----12--12--12--|--------|------8---8-------12--12--12--|-10----------|
B|-11-----|---------------------------|--------|-8------------8---------------|-------------|
G|-10-----|---------------------------|-10-----|------------------------------|-------9-----|
D|--------|---------------------------|--------|------------------------------|-------------|
A|--------|---------------------------|--------|------------------------------|-------------|
E|--------|---------------------------|--------|------------------------------|-------------|


E|-8--------8----12--12--12--|------------------|-10--10--10--10--10--10----------|
B|---------------------------|-------10---------|-11--11--11--11--10--10--10--10--|
G|------9--------------------|-10----------10---|-------------------------9---9---|
D|---------------------------|------------------|---------------------------------|
A|---------------------------|------------------|---------------------------------|
E|---------------------------|------------------|---------------------------------|


E|--------|-20----0--19-------15----0--19-------20-------19-------15----0--19-------|
B|-11-----|----15-17-------17----15-17-------17-------17-------17----15-17-------17-|
G|-10-----|-17----------19----------------19----17-19-------19----------------19----|
D|--------|----------21-------17-------21----------------21-------17-------21-------|
A|--------|----17-------17-19----17-------17-19----17-19----17-19----17-------17-19-|
E|--------|-------------------------------------------------------------------------|


E|-20----0--19-------15----0--19-------20-------19-------15----0--19-------|-20----0--19-------15----0--19-------20-------19-------15----0--19-------|
B|----15-17-------17----15-17-------17-------17-------17----15-17-------17-|----15-17-------17----15-17-------17-------17-------17----15-17-------17-|
G|-17----------19----------------19----17-19-------19----------------19----|-17----------19----------------19----17-19-------19----------------19----|
D|----------21-------17-------21----------------21-------17-------21-------|----------21-------17-------21----------------21-------17-------21-------|
A|----17-------17-19----17-------17-19----17-19----17-19----17-------17-19-|----17-------17-19----17-------17-19----17-19----17-19----17-------17-19-|
E|-------------------------------------------------------------------------|-------------------------------------------------------------------------|


E|-20----0--19-------15----0--19-------20-------19-------15----0--19-------|-20----0--19-------15----0--19-------20-------19-------15----0--19-------|
B|----15-17-------17----15-17-------17-------17-------17----15-17-------17-|----15-17-------17----15-17-------17-------17-------17----15-17-------17-|
G|-17----------19----------------19----17-19-------19----------------19----|-17----------19----------------19----17-19-------19----------------19----|
D|----------21-------17-------21----------------21-------17-------21-------|----------21-------17-------21----------------21-------17-------21-------|
A|----17-------17-19----17-------17-19----17-19----17-19----17-------17-19-|----17-------17-19----17-------17-19----17-19----17-19----17-------17-19-|
E|-------------------------------------------------------------------------|-------------------------------------------------------------------------|


E|-------------------------------------12-------10----7--9-----7--10----7--|-7-----7--9-----7--10----7--9-----7--12----7--10----7--9-----7--10----7--|
B|-0--------14-------15-------14-------------12-------------7--0-----7--0--|-0--7--0-----7--0-----7--0-----7--0-----7--0-----7--0-----7--0-----7--0--|
G|-16----16-------16-------16-------16-------------11-------------7--------|-------------------7-----------------9--------7-----------------7--------|
D|----16-------16-------16-------16----14-16----12----9--11----------------|----------11----------------11-------------------------11----------------|
A|-------14-16----14-17----14-16----14-------14----9--------9--------9-----|----9--------9--------9--------9--------9--------9--------9--------9-----|
E|----14-------14-------14-------14-------14-------------------------------|-------------------------------------------------------------------------|


E|-7-----7--9-----7--10----7--9-----7--12----7--10----7--9-----7--10----7--|-7-----7--9-----7--10----7--9-----7--12----7--10----7--9-----7--10----7--|
B|-0--7--0-----7--0-----7--0-----7--0-----7--0-----7--0-----7--0-----7--0--|-0--7--0-----7--0-----7--0-----7--0-----7--0-----7--0-----7--0-----7--0--|
G|-------------------7-----------------9--------7-----------------7--------|-------------------7-----------------9--------7-----------------7--------|
D|----------11----------------11-------------------------11----------------|----------11----------------11-------------------------11----------------|
A|----9--------9--------9--------9--------9--------9--------9--------9-----|----9--------9--------9--------9--------9--------9--------9--------9-----|
E|-------------------------------------------------------------------------|-------------------------------------------------------------------------|


E|-7-----7--9-----7--10----7--9-----7--12----7--10----7--9-----7--10----7--|-7-----7--9-----7--10----7--9-----7--12----7--10----7--9-----7--10----7--|
B|-0--7--0-----7--0-----7--0-----7--0-----7--0-----7--0-----7--0-----7--0--|-0--7--0-----7--0-----7--0-----7--0-----7--0-----7--0-----7--0-----7--0--|
G|-------------------7-----------------9--------7-----------------7--------|-------------------7-----------------9--------7-----------------7--------|
D|----------11----------------11-------------------------11----------------|----------11----------------11-------------------------11----------------|
A|----9--------9--------9--------9--------9--------9--------9--------9-----|----9--------9--------9--------9--------9--------9--------9--------9-----|
E|-------------------------------------------------------------------------|-------------------------------------------------------------------------|


E|-7-----7--9-----7--10----7--9-----7--12----7--10----7--9-----7--10----7--|-7-----7--9-----7--10----7--9-----7--12----7--10----7--9-----7--10----7--|
B|-0--6--0--------0--------0--------0--------0--------0--------0--------0--|-0--7--0-----7--0-----7--0-----7--0-----7--0-----7--0-----7--0-----7--0--|
G|-------------10-------10-------10----9--10-------10-------10-------10----|-------------------7-----------------9--------7-----------------7--------|
D|----------11-------12-------11----------------12-------11-------12-------|----------11----------------11-------------------------11----------------|
A|----8--------8--------8--------8--------8--------8--------8--------8-----|----9--------9--------9--------9--------9--------9--------9--------9-----|
E|-------------------------------------------------------------------------|-------------------------------------------------------------------------|


E|-7-----7--9-----7--10----7--9-----7--12----7--10----7--9-----7--10----7--|-7--0--3--8--0--3--10-0-----8--0-----12-0-----10-0-----8--0-----10-0-----|
B|-0--6--0--------0--------0--------0--------0--------0--------0--------0--|-0-----------------------8--------8--------8--------8--------8--------8--|
G|-------------10-------10-------10----9--10-------10-------10-------10----|-------0--5-----0--7-----0--------0--9-----0--------0--------0--------0--|
D|----------11-------12-------11----------------12-------11-------12-------|-------------2--------------10----------------12-------10-------12-------|
A|----8--------8--------8--------8--------8--------8--------8--------8-----|----7-----------------7--------7--------7--------7--------7--------7-----|
E|-------------------------------------------------------------------------|-------------------------------------------------------------------------|


E|-7-----7--9-----7--10----7--9-----7--12----7--10----7--9-----7--10----7--|--------|
B|-0--7--0-----7--0-----7--0-----7--0-----7--0-----7--0-----7--0-----7--0--|--------|
G|-------------------7-----------------9--------7-----------------7--------|--------|
D|----------11----------------11-------------------------11----------------|--------|
A|----9--------9--------9--------9--------9--------9--------9--------9-----|--------|
E|-------------------------------------------------------------------------|--------|


E|--------|--------|--------|--------|--------|--------|--------|--------|--------|
B|--------|--------|--------|--------|--------|--------|--------|--------|--------|
G|--------|--------|--------|--------|--------|--------|--------|--------|--------|
D|--------|--------|--------|--------|--------|--------|--------|--------|--------|
A|--------|--------|--------|--------|--------|--------|--------|--------|--------|
E|--------|--------|--------|--------|--------|--------|--------|--------|--------|


E|--------|--------|--------|--------|--------|--------|--------|--------|--------|
B|--------|--------|--------|--------|--------|--------|--------|--------|--------|
G|--------|--------|--------|--------|--------|--------|--------|--------|--------|
D|--------|--------|--------|--------|--------|--------|--------|--------|--------|
A|--------|--------|--------|--------|--------|--------|--------|--------|--------|
E|--------|--------|--------|--------|--------|--------|--------|--------|--------|


E|--------|--------|--------|--------|--------|--------|--------|--------|--------|
B|--------|--------|--------|--------|--------|--------|--------|--------|--------|
G|--------|--------|--------|--------|--------|--------|--------|--------|--------|
D|--------|--------|--------|--------|--------|--------|--------|--------|--------|
A|--------|--------|--------|--------|--------|--------|--------|--------|--------|
E|--------|--------|--------|--------|--------|--------|--------|--------|--------|


E|--------|--------|-7--10-9--10-9--10-12-10-9--10-9--10-7--10-9--10-9--10-12-10-9--10-9--10-|
B|--------|--------|-0-----------------------------------0-----------------------------------|
G|--------|--------|----7--------------------------------------------------------------------|
D|--------|--------|-------11-12-11-12-14-12-11-12-11-12----12-11-12-11-12-14-12-11-12-11-12-|
A|--------|--------|-------------------------------------------------------------------------|
E|--------|--------|-------------------------------------------------------------------------|


E|-7--10-9--10-9--10-12-10-9--10-9--10-7--10-9--10-9--10-12-10-9--10-9--10-|----10-9--10-9--10-12-10-9--10-9--10----10-9--10-9--10-12-10-9--10-9--10-|
B|-0-----------------------------------0-----------------------------------|-10----------------------------------10----------------------------------|
G|----7--------------------------------------------------------------------|-------------------------------------------------------------------------|
D|-------11-12-11-12-14-12-11-12-11-12----12-11-12-11-12-14-12-11-12-11-12-|----12-11-12-11-12-14-12-11-12-11-12----12-11-12-11-12-14-12-11-12-11-12-|
A|-------------------------------------------------------------------------|-12----------------------------------12----------------------------------|
E|-------------------------------------------------------------------------|-------------------------------------------------------------------------|


E|----10-9--10-9--10-12-10-9--10-9--10----10-9--10-9--10-12-10-9--10-9--10-|----7--6--7--6--7--9--7--6--7--6--7-----7--6--7--6--7--9--7--6--7--6--7--|
B|-10----------------------------------10----------------------------------|----0-----0-----0-----0-----0-----0--8--0-----0-----0-----0-----0-----0--|
G|-------------------------------------------------------------------------|-12----------------------------------0-----------------------------------|
D|----12-11-12-11-12-14-12-11-12-11-12----12-11-12-11-12-14-12-11-12-11-12-|-------8-----8-----11----8-----8-----------8-----8-----11----8-----8-----|
A|-12----------------------------------12----------------------------------|-10----------------------------------------------------------------------|
E|-------------------------------------------------------------------------|-------------------------------------------------------------------------|


E|----9--8--9--8--9--12-9--8--9--8--9-----9--8--9--8--9--12-9--8--9--8--9--|---7-6-7-9-7-6-7---7-6-7-9-7-6-7---7-6-7-9-7-6-7---7-6-7-9-7-6-7-|
B|-8-----------------------------------8-----------------------------------|---0---0---0---0-7-0---0---0---0-7-0---0---0---0-8-0---0---0---0-|
G|-0-----------------9-----------------0-----------------9-----------------|-11----------------------------------------------0---------------|
D|----11-10-11-10-11----11-10-11-10-11----11-10-11-10-11----11-10-11-10-11-|-----8---11--8-------8---11--8-------8---11--8-------8---11--8---|
A|-------------------------------------------------------------------------|-9---------------9---------------9-------------------------------|
E|-------------------------------------------------------------------------|-----------------------------------------------------------------|


E|----9--8--9--12-9--8--9--12-9--8--9--12-9--8--9--|-12-9--8--9--12-9--8--9--12-9--8--9--12-9--8--9--|
B|-8-----------------------------------------------|-------------------------------------------------|
G|-0-----------9-----------9-----------9-----------|-9-----------9-----------9-----------9-----------|
D|----11-10-11----11-10-11----11-10-11----11-10-11-|----11-10-11----11-10-11----11-10-11----11-10-11-|
A|-------------------------------------------------|-------------------------------------------------|
E|-------------------------------------------------|-------------------------------------------------|


E|-19-----|-15-----|-17-----|-17-----|-15-----|-15-----|-14-----|-18-----|-19-----|
B|--------|--------|--------|--------|--------|--------|--------|--------|--------|
G|-16-----|--------|--------|--------|--------|--------|--------|-15-----|-16-----|
D|--------|-17-----|-19-----|-19-----|-17-----|-17-----|-16-----|--------|--------|
A|--------|--------|--------|--------|--------|--------|--------|--------|--------|
E|--------|--------|--------|--------|--------|--------|--------|--------|--------|


E|-15-----|-17-----|-17-----|-15-----|-15-----|-18-----|-18----18----------|--------|
B|--------|--------|--------|--------|--------|--------|-------------------|--------|
G|--------|--------|--------|--------|--------|--------|-------------------|--------|
D|-17-----|-19-----|-19-----|-17-----|-17-----|-20-----|-20----20----------|--------|
A|--------|--------|--------|--------|--------|--------|-------------------|--------|
E|--------|--------|--------|--------|--------|--------|-------------------|--------|


E|--------|--------|--------|--------|--------|--------|--------|--------|--------|
B|--------|--------|--------|--------|--------|--------|--------|--------|--------|
G|--------|--------|--------|--------|--------|--------|--------|--------|--------|
D|--------|--------|--------|--------|--------|--------|--------|--------|--------|
A|--------|--------|--------|--------|--------|--------|--------|--------|--------|
E|--------|--------|--------|--------|--------|--------|--------|--------|--------|


E|--------|--------|--------|--------|--------|--------|--------|--------|--------|
B|--------|--------|--------|--------|--------|--------|--------|--------|--------|
G|--------|--------|--------|--------|--------|--------|--------|--------|--------|
D|--------|--------|--------|--------|--------|--------|--------|--------|--------|
A|--------|--------|--------|--------|--------|--------|--------|--------|--------|
E|--------|--------|--------|--------|--------|--------|--------|--------|--------|


E|--------|--------|--------|--------|--------|--------|--------|--------|--------|
B|--------|--------|--------|--------|--------|--------|--------|--------|--------|
G|--------|--------|--------|--------|--------|--------|--------|--------|--------|
D|--------|--------|--------|--------|--------|--------|--------|--------|--------|
A|--------|--------|--------|--------|--------|--------|--------|--------|--------|
E|--------|--------|--------|--------|--------|--------|--------|--------|--------|


E|--------|--------|--------|--------|-8----7---8----12--12--12--|--------|------8---8-------12--12--12--|
B|--------|--------|--------|--------|---------------------------|--------|-8------------8---------------|
G|--------|--------|--------|--------|---------------------------|-10-----|------------------------------|
D|--------|--------|--------|--------|---------------------------|--------|------------------------------|
A|--------|--------|--------|--------|---------------------------|--------|------------------------------|
E|--------|--------|--------|--------|---------------------------|--------|------------------------------|


E|-10----------|-8--------8----12--12--12--|------------------|-10--10--10--10--10--10----------|
B|-------------|------6--------------------|-------10---------|-11--11--11--11--10--10--10--10--|
G|-------9-----|---------------------------|-10----------10---|-------------------------9---9---|
D|-------------|---------------------------|------------------|---------------------------------|
A|-------------|---------------------------|------------------|---------------------------------|
E|-------------|---------------------------|------------------|---------------------------------|


E|--------|-8----7---8----12--12--12--|--------|------8---8-------12--12--12--|-10----------|
B|-11-----|---------------------------|--------|-8------------8---------------|-------------|
G|-10-----|---------------------------|-10-----|------------------------------|-------9-----|
D|--------|---------------------------|--------|------------------------------|-------------|
A|--------|---------------------------|--------|------------------------------|-------------|
E|--------|---------------------------|--------|------------------------------|-------------|


E|-8--------8----12--12--12--|------------------|-10--10--10--10--10--10----------|
B|---------------------------|-------10---------|-11--11--11--11--10--10--10--10--|
G|------9--------------------|-10----------10---|-------------------------9---9---|
D|---------------------------|------------------|---------------------------------|
A|---------------------------|------------------|---------------------------------|
E|---------------------------|------------------|---------------------------------|


E|-10---9----10---10---10---|-14-----|-15----10----10--|-----17----0---------|-0---------------|
B|-8------------------------|--------|-----------------|-----19----20---19---|-------19----19--|
G|------9-------------------|-11-----|-12--------------|-----------21---19---|-21----19----19--|
D|-----------12---12---12---|--------|-------12----12--|-----19--------------|-23--------------|
A|--------------------------|--------|-----------------|-----21----22---21---|-------21----21--|
E|--------------------------|--------|-----------------|----------------22---|-21----22----22--|


E|--------|--------|--------|-------------------------------------------21-22-|-19----21---22---|
B|-19-----|--------|--------|-------------------------------21-22-23-24-------|-----------------|
G|--------|-19-----|-17-----|-17-16-17-18-19-20-21-22-23-24-------------------|-----------------|
D|--------|--------|--------|-------------------------------------------------|-----------------|
A|-21-----|-17-----|-15-----|-------------------------------------------------|-21--------------|
E|--------|--------|--------|-------------------------------------------------|-----------------|


E|-----------------|-------0----------|-0-----------|------------------|------------------|
B|-24--------------|-22----22----22---|-22----------|-------------19---|-20----19---------|
G|-----------24----|------------------|-------------|-19----21---------|-------------21---|
D|-----------------|-19---------------|-------------|------------------|------------------|
A|-22--------------|-21----22----21---|-------21----|-21---------------|------------------|
E|-------22--22----|-------------22---|-21----22----|------------------|-22---------------|


E|------20---24---24---|-24---24---22--------|--------|--------|--------|-19-----|
B|---------------------|----------------24---|--------|--------|--------|--------|
G|---------------------|---------------------|--------|--------|--------|--------|
D|-22------------------|---------------------|-21-----|--------|-21-----|--------|
A|---------------------|---------------------|--------|-21-----|--------|--------|
E|-20------------------|---------------------|-19-----|--------|--------|--------|


E|-19-----------------|--------|--------|
B|--------------------|--------|--------|
G|--------------------|--------|--------|
D|--------------------|--------|--------|
A|--------------------|--------|--------|
E|--------------------|--------|--------|









Track 10: Recorder
Back to top
E|--------|--------|--------|--------|--------|--------|--------|--------|--------|
B|--------|--------|--------|--------|--------|--------|--------|--------|--------|
G|--------|--------|--------|--------|--------|--------|--------|--------|--------|
D|--------|--------|--------|--------|--------|--------|--------|--------|--------|
A|--------|--------|--------|--------|--------|--------|--------|--------|--------|
E|--------|--------|--------|--------|--------|--------|--------|--------|--------|


E|--------|--------|--------|--------|--------|--------|--------|--------|--------|
B|--------|--------|--------|--------|--------|--------|--------|--------|--------|
G|--------|--------|--------|--------|--------|--------|--------|--------|--------|
D|--------|--------|--------|--------|--------|--------|--------|--------|--------|
A|--------|--------|--------|--------|--------|--------|--------|--------|--------|
E|--------|--------|--------|--------|--------|--------|--------|--------|--------|


E|--------|--------|--------|--------|--------|--------|--------|--------|--------|
B|--------|--------|--------|--------|--------|--------|--------|--------|--------|
G|--------|--------|--------|--------|--------|--------|--------|--------|--------|
D|--------|--------|--------|--------|--------|--------|--------|--------|--------|
A|--------|--------|--------|--------|--------|--------|--------|--------|--------|
E|--------|--------|--------|--------|--------|--------|--------|--------|--------|


E|--------|--------|--------|--------|--------|--------|--------|--------|--------|
B|--------|--------|--------|--------|--------|--------|--------|--------|--------|
G|--------|--------|--------|--------|--------|--------|--------|--------|--------|
D|--------|--------|--------|--------|--------|--------|--------|--------|--------|
A|--------|--------|--------|--------|--------|--------|--------|--------|--------|
E|--------|--------|--------|--------|--------|--------|--------|--------|--------|


E|--------|--------|--------|--------|--------|--------|--------|--------|--------|
B|--------|--------|--------|--------|--------|--------|--------|--------|--------|
G|--------|--------|--------|--------|--------|--------|--------|--------|--------|
D|--------|--------|--------|--------|--------|--------|--------|--------|--------|
A|--------|--------|--------|--------|--------|--------|--------|--------|--------|
E|--------|--------|--------|--------|--------|--------|--------|--------|--------|


E|--------|--------|--------|--------|--------|--------|--------|--------|--------|
B|--------|--------|--------|--------|--------|--------|--------|--------|--------|
G|--------|--------|--------|--------|--------|--------|--------|--------|--------|
D|--------|--------|--------|--------|--------|--------|--------|--------|--------|
A|--------|--------|--------|--------|--------|--------|--------|--------|--------|
E|--------|--------|--------|--------|--------|--------|--------|--------|--------|


E|--------|--------|--------|--------|--------|--------|--------|--------|--------|
B|--------|--------|--------|--------|--------|--------|--------|--------|--------|
G|--------|--------|--------|--------|--------|--------|--------|--------|--------|
D|--------|--------|--------|--------|--------|--------|--------|--------|--------|
A|--------|--------|--------|--------|--------|--------|--------|--------|--------|
E|--------|--------|--------|--------|--------|--------|--------|--------|--------|


E|--------|--------|--------|--------|--------|--------|--------|--------|--------|
B|--------|--------|--------|--------|--------|--------|--------|--------|--------|
G|--------|--------|--------|--------|--------|--------|--------|--------|--------|
D|--------|--------|--------|--------|--------|--------|--------|--------|--------|
A|--------|--------|--------|--------|--------|--------|--------|--------|--------|
E|--------|--------|--------|--------|--------|--------|--------|--------|--------|


E|--------|--------|-----15--15--13----12---|-13----15--15----|--------|--------|--------|
B|--------|--------|-----17--17--15----13---|-15----17--17----|--------|--------|--------|
G|--------|--------|------------------------|-----------------|--------|--------|--------|
D|--------|--------|------------------------|-----------------|--------|--------|--------|
A|--------|--------|------------------------|-----------------|--------|--------|--------|
E|--------|--------|------------------------|-----------------|--------|--------|--------|


E|--------|--------|-------------|------------------|-------15----|-------------|--------|
B|--------|--------|--------17---|-20----18----17---|-18----17----|-17----------|--------|
G|--------|--------|--------21---|-21----19----17---|-19----------|-17----------|--------|
D|--------|--------|-------------|------------------|-------------|-------------|--------|
A|--------|--------|-------------|------------------|-------------|-------------|--------|
E|--------|--------|-------------|------------------|-------------|-------------|--------|


E|--------|--------|--------|--------|--------|--------|--------|--------|--------|
B|--------|--------|--------|--------|--------|--------|--------|--------|--------|
G|--------|--------|--------|--------|--------|--------|--------|--------|--------|
D|--------|--------|--------|--------|--------|--------|--------|--------|--------|
A|--------|--------|--------|--------|--------|--------|--------|--------|--------|
E|--------|--------|--------|--------|--------|--------|--------|--------|--------|


E|--------|--------|--------|--------|--------|--------|--------|--------|--------|
B|--------|--------|--------|--------|--------|--------|--------|--------|--------|
G|--------|--------|--------|--------|--------|--------|--------|--------|--------|
D|--------|--------|--------|--------|--------|--------|--------|--------|--------|
A|--------|--------|--------|--------|--------|--------|--------|--------|--------|
E|--------|--------|--------|--------|--------|--------|--------|--------|--------|


E|--------|--------|--------|--------|--------|--------|--------|--------|--------|
B|--------|--------|--------|--------|--------|--------|--------|--------|--------|
G|--------|--------|--------|--------|--------|--------|--------|--------|--------|
D|--------|--------|--------|--------|--------|--------|--------|--------|--------|
A|--------|--------|--------|--------|--------|--------|--------|--------|--------|
E|--------|--------|--------|--------|--------|--------|--------|--------|--------|


E|--------|--------|--------|--------|--------|--------|--------|--------|--------|
B|--------|--------|--------|--------|--------|--------|--------|--------|--------|
G|--------|--------|--------|--------|--------|--------|--------|--------|--------|
D|--------|--------|--------|--------|--------|--------|--------|--------|--------|
A|--------|--------|--------|--------|--------|--------|--------|--------|--------|
E|--------|--------|--------|--------|--------|--------|--------|--------|--------|


E|--------|--------|--------|--------|--------|--------|--------|--------|--------|
B|--------|--------|--------|--------|--------|--------|--------|--------|--------|
G|--------|--------|--------|--------|--------|--------|--------|--------|--------|
D|--------|--------|--------|--------|--------|--------|--------|--------|--------|
A|--------|--------|--------|--------|--------|--------|--------|--------|--------|
E|--------|--------|--------|--------|--------|--------|--------|--------|--------|


E|--------|--------|--------|--------|--------|--------|--------|--------|--------|
B|--------|--------|--------|--------|--------|--------|--------|--------|--------|
G|--------|--------|--------|--------|--------|--------|--------|--------|--------|
D|--------|--------|--------|--------|--------|--------|--------|--------|--------|
A|--------|--------|--------|--------|--------|--------|--------|--------|--------|
E|--------|--------|--------|--------|--------|--------|--------|--------|--------|


E|--------|--------|--------|--------|--------|--------|--------|--------|--------|
B|--------|--------|--------|--------|--------|--------|--------|--------|--------|
G|--------|--------|--------|--------|--------|--------|--------|--------|--------|
D|--------|--------|--------|--------|--------|--------|--------|--------|--------|
A|--------|--------|--------|--------|--------|--------|--------|--------|--------|
E|--------|--------|--------|--------|--------|--------|--------|--------|--------|


E|--------|--------|--------|--------|--------|--------|--------|--------|--------|
B|--------|--------|--------|--------|--------|--------|--------|--------|--------|
G|--------|--------|--------|--------|--------|--------|--------|--------|--------|
D|--------|--------|--------|--------|--------|--------|--------|--------|--------|
A|--------|--------|--------|--------|--------|--------|--------|--------|--------|
E|--------|--------|--------|--------|--------|--------|--------|--------|--------|


E|--------|--------|--------|--------|--------|--------|--------|--------|--------|
B|--------|--------|--------|--------|--------|--------|--------|--------|--------|
G|--------|--------|--------|--------|--------|--------|--------|--------|--------|
D|--------|--------|--------|--------|--------|--------|--------|--------|--------|
A|--------|--------|--------|--------|--------|--------|--------|--------|--------|
E|--------|--------|--------|--------|--------|--------|--------|--------|--------|


E|--------|--------|--------|--------|--------|--------|--------|--------|--------|
B|--------|--------|--------|--------|--------|--------|--------|--------|--------|
G|--------|--------|--------|--------|--------|--------|--------|--------|--------|
D|--------|--------|--------|--------|--------|--------|--------|--------|--------|
A|--------|--------|--------|--------|--------|--------|--------|--------|--------|
E|--------|--------|--------|--------|--------|--------|--------|--------|--------|


E|--------|--------|--------|--------|--------|--------|--------|--------|--------|
B|--------|--------|--------|--------|--------|--------|--------|--------|--------|
G|--------|--------|--------|--------|--------|--------|--------|--------|--------|
D|--------|--------|--------|--------|--------|--------|--------|--------|--------|
A|--------|--------|--------|--------|--------|--------|--------|--------|--------|
E|--------|--------|--------|--------|--------|--------|--------|--------|--------|


E|--------|--------|--------|--------|--------|--------|--------|--------|-----15--15--13----12---|
B|--------|--------|--------|--------|--------|--------|--------|--------|-----17--17--15----13---|
G|--------|--------|--------|--------|--------|--------|--------|--------|------------------------|
D|--------|--------|--------|--------|--------|--------|--------|--------|------------------------|
A|--------|--------|--------|--------|--------|--------|--------|--------|------------------------|
E|--------|--------|--------|--------|--------|--------|--------|--------|------------------------|


E|-13----15--15----|--------|--------|--------|--------|--------|-------------|------------------|
B|-15----17--17----|--------|--------|--------|--------|--------|--------17---|-20----18----17---|
G|-----------------|--------|--------|--------|--------|--------|--------21---|-21----19----17---|
D|-----------------|--------|--------|--------|--------|--------|-------------|------------------|
A|-----------------|--------|--------|--------|--------|--------|-------------|------------------|
E|-----------------|--------|--------|--------|--------|--------|-------------|------------------|


E|-------15----|-------------|--------|--------|--------|--------|--------|-----17--17--15----14---|
B|-18----17----|-17----------|--------|--------|--------|--------|--------|-----19--19--17----15---|
G|-19----------|-17----------|--------|--------|--------|--------|--------|------------------------|
D|-------------|-------------|--------|--------|--------|--------|--------|------------------------|
A|-------------|-------------|--------|--------|--------|--------|--------|------------------------|
E|-------------|-------------|--------|--------|--------|--------|--------|------------------------|


E|-15----17--17----|--------|--------|--------|--------|--------|--------14---|-17----15----14---|
B|-17----19--19----|--------|--------|--------|--------|--------|-------------|-19----17----15---|
G|-----------------|--------|--------|--------|--------|--------|-------------|------------------|
D|-----------------|--------|--------|--------|--------|--------|-------------|------------------|
A|-----------------|--------|--------|--------|--------|--------|-------------|------------------|
E|-----------------|--------|--------|--------|--------|--------|-------------|------------------|


E|-15----17----|-----------------|--------|--------|--------|--------|--------|--------|
B|-17----19----|-19--------------|--------|--------|--------|--------|--------|--------|
G|-------------|-19--------------|--------|--------|--------|--------|--------|--------|
D|-------------|-----------------|--------|--------|--------|--------|--------|--------|
A|-------------|-----------------|--------|--------|--------|--------|--------|--------|
E|-------------|-----------------|--------|--------|--------|--------|--------|--------|


E|--------|--------|--------|--------|
B|--------|--------|--------|--------|
G|--------|--------|--------|--------|
D|--------|--------|--------|--------|
A|--------|--------|--------|--------|
E|--------|--------|--------|--------|









Track 11: Guitar Solo 1
Back to top
E|--------|--------|--------|--------|--------|--------|--------|--------|--------|
B|--------|--------|--------|--------|--------|--------|--------|--------|--------|
G|--------|--------|--------|--------|--------|--------|--------|--------|--------|
D|--------|--------|--------|--------|--------|--------|--------|--------|--------|
A|--------|--------|--------|--------|--------|--------|--------|--------|--------|
E|--------|--------|--------|--------|--------|--------|--------|--------|--------|


E|--------|--------|--------|--------|--------|--------|--------|--------|--------|
B|--------|--------|--------|--------|--------|--------|--------|--------|--------|
G|--------|--------|--------|--------|--------|--------|--------|--------|--------|
D|--------|--------|--------|--------|--------|--------|--------|--------|--------|
A|--------|--------|--------|--------|--------|--------|--------|--------|--------|
E|--------|--------|--------|--------|--------|--------|--------|--------|--------|


E|--------|--------|--------|--------|--------|--------|--------|--------|--------|
B|--------|--------|--------|--------|--------|--------|--------|--------|--------|
G|--------|--------|--------|--------|--------|--------|--------|--------|--------|
D|--------|--------|--------|--------|--------|--------|--------|--------|--------|
A|--------|--------|--------|--------|--------|--------|--------|--------|--------|
E|--------|--------|--------|--------|--------|--------|--------|--------|--------|


E|--------|--------|--------|--------|--------|--------|--------|--------|--------|
B|--------|--------|--------|--------|--------|--------|--------|--------|--------|
G|--------|--------|--------|--------|--------|--------|--------|--------|--------|
D|--------|--------|--------|--------|--------|--------|--------|--------|--------|
A|--------|--------|--------|--------|--------|--------|--------|--------|--------|
E|--------|--------|--------|--------|--------|--------|--------|--------|--------|


E|--------|--------|--------|--------|--------|--------|--------|--------|--------|
B|--------|--------|--------|--------|--------|--------|--------|--------|--------|
G|--------|--------|--------|--------|--------|--------|--------|--------|--------|
D|--------|--------|--------|--------|--------|--------|--------|--------|--------|
A|--------|--------|--------|--------|--------|--------|--------|--------|--------|
E|--------|--------|--------|--------|--------|--------|--------|--------|--------|


E|--------|--------|--------|--------|--------|--------|--------|--------|--------|
B|--------|--------|--------|--------|--------|--------|--------|--------|--------|
G|--------|--------|--------|--------|--------|--------|--------|--------|--------|
D|--------|--------|--------|--------|--------|--------|--------|--------|--------|
A|--------|--------|--------|--------|--------|--------|--------|--------|--------|
E|--------|--------|--------|--------|--------|--------|--------|--------|--------|


E|--------|--------|--------|--------|--------|--------|--------|--------|--------|
B|--------|--------|--------|--------|--------|--------|--------|--------|--------|
G|--------|--------|--------|--------|--------|--------|--------|--------|--------|
D|--------|--------|--------|--------|--------|--------|--------|--------|--------|
A|--------|--------|--------|--------|--------|--------|--------|--------|--------|
E|--------|--------|--------|--------|--------|--------|--------|--------|--------|


E|--------|--------|--------|--------|--------|--------|--------|--------|--------|
B|--------|--------|--------|--------|--------|--------|--------|--------|--------|
G|--------|--------|--------|--------|--------|--------|--------|--------|--------|
D|--------|--------|--------|--------|--------|--------|--------|--------|--------|
A|--------|--------|--------|--------|--------|--------|--------|--------|--------|
E|--------|--------|--------|--------|--------|--------|--------|--------|--------|


E|--------|--------|--------|--------|--------|--------|--------|--------|--------|
B|--------|--------|--------|--------|--------|--------|--------|--------|--------|
G|--------|--------|--------|--------|--------|--------|--------|--------|--------|
D|--------|--------|--------|--------|--------|--------|--------|--------|--------|
A|--------|--------|--------|--------|--------|--------|--------|--------|--------|
E|--------|--------|--------|--------|--------|--------|--------|--------|--------|


E|--------|--------|--------|--------|--------|--------|--------|--------|--------|
B|--------|--------|--------|--------|--------|--------|--------|--------|--------|
G|--------|--------|--------|--------|--------|--------|--------|--------|--------|
D|--------|--------|--------|--------|--------|--------|--------|--------|--------|
A|--------|--------|--------|--------|--------|--------|--------|--------|--------|
E|--------|--------|--------|--------|--------|--------|--------|--------|--------|


E|--------|--------|--------|--------|--------|--------|--------|-------------------------------------------|
B|--------|--------|--------|--------|--------|--------|--------|-------------------------------------------|
G|--------|--------|--------|--------|--------|--------|--------|-4-4-----4-----4-4----4-4-----4-----4-4----|
D|--------|--------|--------|--------|--------|--------|--------|-------------------------------------------|
A|--------|--------|--------|--------|--------|--------|--------|-2-2-----2-----2-2----2-2-----2-----2-2----|
E|--------|--------|--------|--------|--------|--------|--------|-------------------------------------------|


E|-------------------------------------------|-------------------------------------------|
B|-------------------------------------------|-------------------------------------------|
G|-4-6-----6-----6-6----6-6-----6-----6-6----|-6-10----10----1010---1010----10----1010---|
D|-------------------------------------------|-------------------------------------------|
A|-2-4-----4-----4-4----4-4-----4-----4-4----|-4-8-----8-----8-8----8-8-----8-----8-8----|
E|-------------------------------------------|-------------------------------------------|


E|-------------------------------------------|-------------------------------------------|
B|-------------------------------------------|-------------------------------------------|
G|-1011----11----1111---1111----11----1111---|-1010--1010------10---1010--1010------10---|
D|-------------------------------------------|-------------------------------------------|
A|-8-9-----9-----9-9----9-9-----9-----9-9----|-8-8---8-8-------8----8-8---8-8-------8----|
E|-------------------------------------------|-------------------------------------------|


E|-------------------------------------------|-------------------------------------------|
B|-------------------------------------------|-------------------------------------------|
G|-9-9---9-9-------9----9-9---9-9-------9----|-7-7---7-7-------7----7-7---7-7-------7----|
D|-------------------------------------------|-------------------------------------------|
A|-1010--1010------10---1010--1010------10---|-9-9---9-9-------9----9-9---9-9-------9----|
E|-------------------------------------------|-------------------------------------------|


E|-17----19----|----17-------------------------------------------|-------------------------------------------------|
B|-------------|-19----19-18-19--18--17--15--17--18--19--18--18--|-19--18--18--18--18--17--15--17--18--19--18--19--|
G|-------------|-------------------------------------------------|-------------------------------------------------|
D|-------------|-------------------------------------------------|-------------------------------------------------|
A|-------------|-------------------------------------------------|-------------------------------------------------|
E|-------------|-------------------------------------------------|-------------------------------------------------|


E|-17----------------------------------------------|-----------------------------------|
B|-----19--18--19--18--17--15--17--18--19--18--19--|-17---17--15------15---------------|
G|-------------------------------------------------|--------------16-------16--14------|
D|-------------------------------------------------|-------------------------------16--|
A|-------------------------------------------------|-----------------------------------|
E|-------------------------------------------------|-----------------------------------|


E|------------------------------------------|-------------------------------------------------|
B|------------------------------------------|-------------------------------------------------|
G|-16---16--14------------------------------|-------------------------------------------------|
D|--------------16--15--14--12--14-15-14-12-|-14--12------12--11--9---11--9---7---9---7-------|
A|------------------------------------------|---------14----------------------------------9---|
E|------------------------------------------|-------------------------------------------------|


E|-------------------------------------------------|-14-15-14--------14-15-14--------14-15-14-------14-|
B|-------------------------------------------------|----------15--------------15--------------15-------|
G|-------------------------------------------------|-------------16--------------16--------------16----|
D|-7--9--7-----7-----------------------------------|---------------------------------------------------|
A|----------9------9---8---7---5-------5-----------|---------------------------------------------------|
E|---------------------------------7-------7---7---|---------------------------------------------------|


E|-19------20-------------------------------|----------------------------------10----|
B|------19----19----19----------15----------|----------------------------------------|
G|---------------19-----19--16------16------|-16----------------------------11-------|
D|--------------------------------------16--|-----16------16-------------12----------|
A|------------------------------------------|---------17------17--14--14-------------|
E|------------------------------------------|----------------------------------------|


E|-12-----|----------5--7--10--------5--7--10-13--------10-14-|-17-19-17--------------------------12--13--14-15-16-17-|
B|--------|-------7---------------7---------------10-12-------|----------19-19-19-18-17-16-15-15----------------------|
G|--------|----7---------------7------------------------------|-------------------------------------------------------|
D|--------|-9-------------------------------------------------|-------------------------------------------------------|
A|--------|---------------------------------------------------|-------------------------------------------------------|
E|--------|---------------------------------------------------|-------------------------------------------------------|


E|--------|--------|--------|--------|--------|--------|--------|--------|--------|
B|--------|--------|--------|--------|--------|--------|--------|--------|--------|
G|--------|--------|--------|--------|--------|--------|--------|--------|--------|
D|--------|--------|--------|--------|--------|--------|--------|--------|--------|
A|--------|--------|--------|--------|--------|--------|--------|--------|--------|
E|--------|--------|--------|--------|--------|--------|--------|--------|--------|


E|--------|--------|--------|--------|--------|--------|--------|--------|--------|
B|--------|--------|--------|--------|--------|--------|--------|--------|--------|
G|--------|--------|--------|--------|--------|--------|--------|--------|--------|
D|--------|--------|--------|--------|--------|--------|--------|--------|--------|
A|--------|--------|--------|--------|--------|--------|--------|--------|--------|
E|--------|--------|--------|--------|--------|--------|--------|--------|--------|


E|--------|--------|--------|--------|--------|--------|--------|--------|--------|
B|--------|--------|--------|--------|--------|--------|--------|--------|--------|
G|--------|--------|--------|--------|--------|--------|--------|--------|--------|
D|--------|--------|--------|--------|--------|--------|--------|--------|--------|
A|--------|--------|--------|--------|--------|--------|--------|--------|--------|
E|--------|--------|--------|--------|--------|--------|--------|--------|--------|


E|--------|--------|--------|--------|--------|--------|--------|--------|--------|
B|--------|--------|--------|--------|--------|--------|--------|--------|--------|
G|--------|--------|--------|--------|--------|--------|--------|--------|--------|
D|--------|--------|--------|--------|--------|--------|--------|--------|--------|
A|--------|--------|--------|--------|--------|--------|--------|--------|--------|
E|--------|--------|--------|--------|--------|--------|--------|--------|--------|


E|--------|--------|--------|--------|--------|--------|--------|--------|--------|
B|--------|--------|--------|--------|--------|--------|--------|--------|--------|
G|--------|--------|--------|--------|--------|--------|--------|--------|--------|
D|--------|--------|--------|--------|--------|--------|--------|--------|--------|
A|--------|--------|--------|--------|--------|--------|--------|--------|--------|
E|--------|--------|--------|--------|--------|--------|--------|--------|--------|


E|--------|--------|--------|--------|--------|--------|--------|--------|--------|
B|--------|--------|--------|--------|--------|--------|--------|--------|--------|
G|--------|--------|--------|--------|--------|--------|--------|--------|--------|
D|--------|--------|--------|--------|--------|--------|--------|--------|--------|
A|--------|--------|--------|--------|--------|--------|--------|--------|--------|
E|--------|--------|--------|--------|--------|--------|--------|--------|--------|


E|--------|--------|--------|--------|--------|--------|--------|--------|--------|
B|--------|--------|--------|--------|--------|--------|--------|--------|--------|
G|--------|--------|--------|--------|--------|--------|--------|--------|--------|
D|--------|--------|--------|--------|--------|--------|--------|--------|--------|
A|--------|--------|--------|--------|--------|--------|--------|--------|--------|
E|--------|--------|--------|--------|--------|--------|--------|--------|--------|


E|--------|--------|--------|--------|--------|--------|--------|--------|--------|
B|--------|--------|--------|--------|--------|--------|--------|--------|--------|
G|--------|--------|--------|--------|--------|--------|--------|--------|--------|
D|--------|--------|--------|--------|--------|--------|--------|--------|--------|
A|--------|--------|--------|--------|--------|--------|--------|--------|--------|
E|--------|--------|--------|--------|--------|--------|--------|--------|--------|


E|--------|--------|--------|--------|--------|--------|--------|--------|--------|
B|--------|--------|--------|--------|--------|--------|--------|--------|--------|
G|--------|--------|--------|--------|--------|--------|--------|--------|--------|
D|--------|--------|--------|--------|--------|--------|--------|--------|--------|
A|--------|--------|--------|--------|--------|--------|--------|--------|--------|
E|--------|--------|--------|--------|--------|--------|--------|--------|--------|


E|--------|--------|--------|--------|--------|--------|--------|--------|--------|
B|--------|--------|--------|--------|--------|--------|--------|--------|--------|
G|--------|--------|--------|--------|--------|--------|--------|--------|--------|
D|--------|--------|--------|--------|--------|--------|--------|--------|--------|
A|--------|--------|--------|--------|--------|--------|--------|--------|--------|
E|--------|--------|--------|--------|--------|--------|--------|--------|--------|


E|--------|--------|--------|--------|--------|--------|--------|--------|--------|
B|--------|--------|--------|--------|--------|--------|--------|--------|--------|
G|--------|--------|--------|--------|--------|--------|--------|--------|--------|
D|--------|--------|--------|--------|--------|--------|--------|--------|--------|
A|--------|--------|--------|--------|--------|--------|--------|--------|--------|
E|--------|--------|--------|--------|--------|--------|--------|--------|--------|


E|--------|--------|--------|--------|--------|--------|--------|--------|--------|
B|--------|--------|--------|--------|--------|--------|--------|--------|--------|
G|--------|--------|--------|--------|--------|--------|--------|--------|--------|
D|--------|--------|--------|--------|--------|--------|--------|--------|--------|
A|--------|--------|--------|--------|--------|--------|--------|--------|--------|
E|--------|--------|--------|--------|--------|--------|--------|--------|--------|


E|--------|--------|--------|--------|
B|--------|--------|--------|--------|
G|--------|--------|--------|--------|
D|--------|--------|--------|--------|
A|--------|--------|--------|--------|
E|--------|--------|--------|--------|









Track 12: Guitar Solo 2
Back to top
E|--------|--------|--------|--------|--------|--------|--------|--------|--------|
B|--------|--------|--------|--------|--------|--------|--------|--------|--------|
G|--------|--------|--------|--------|--------|--------|--------|--------|--------|
D|--------|--------|--------|--------|--------|--------|--------|--------|--------|
A|--------|--------|--------|--------|--------|--------|--------|--------|--------|
E|--------|--------|--------|--------|--------|--------|--------|--------|--------|


E|--------|--------|--------|--------|--------|--------|--------|--------|--------|
B|--------|--------|--------|--------|--------|--------|--------|--------|--------|
G|--------|--------|--------|--------|--------|--------|--------|--------|--------|
D|--------|--------|--------|--------|--------|--------|--------|--------|--------|
A|--------|--------|--------|--------|--------|--------|--------|--------|--------|
E|--------|--------|--------|--------|--------|--------|--------|--------|--------|


E|--------|--------|--------|--------|--------|--------|--------|--------|--------|
B|--------|--------|--------|--------|--------|--------|--------|--------|--------|
G|--------|--------|--------|--------|--------|--------|--------|--------|--------|
D|--------|--------|--------|--------|--------|--------|--------|--------|--------|
A|--------|--------|--------|--------|--------|--------|--------|--------|--------|
E|--------|--------|--------|--------|--------|--------|--------|--------|--------|


E|--------|--------|--------|--------|--------|--------|--------|--------|--------|
B|--------|--------|--------|--------|--------|--------|--------|--------|--------|
G|--------|--------|--------|--------|--------|--------|--------|--------|--------|
D|--------|--------|--------|--------|--------|--------|--------|--------|--------|
A|--------|--------|--------|--------|--------|--------|--------|--------|--------|
E|--------|--------|--------|--------|--------|--------|--------|--------|--------|


E|--------|--------|--------|--------|--------|--------|--------|--------|--------|
B|--------|--------|--------|--------|--------|--------|--------|--------|--------|
G|--------|--------|--------|--------|--------|--------|--------|--------|--------|
D|--------|--------|--------|--------|--------|--------|--------|--------|--------|
A|--------|--------|--------|--------|--------|--------|--------|--------|--------|
E|--------|--------|--------|--------|--------|--------|--------|--------|--------|


E|--------|--------|--------|--------|--------|--------|--------|--------|--------|
B|--------|--------|--------|--------|--------|--------|--------|--------|--------|
G|--------|--------|--------|--------|--------|--------|--------|--------|--------|
D|--------|--------|--------|--------|--------|--------|--------|--------|--------|
A|--------|--------|--------|--------|--------|--------|--------|--------|--------|
E|--------|--------|--------|--------|--------|--------|--------|--------|--------|


E|--------|--------|--------|--------|--------|--------|--------|--------|--------|
B|--------|--------|--------|--------|--------|--------|--------|--------|--------|
G|--------|--------|--------|--------|--------|--------|--------|--------|--------|
D|--------|--------|--------|--------|--------|--------|--------|--------|--------|
A|--------|--------|--------|--------|--------|--------|--------|--------|--------|
E|--------|--------|--------|--------|--------|--------|--------|--------|--------|


E|--------|--------|--------|--------|--------|--------|--------|--------|--------|
B|--------|--------|--------|--------|--------|--------|--------|--------|--------|
G|--------|--------|--------|--------|--------|--------|--------|--------|--------|
D|--------|--------|--------|--------|--------|--------|--------|--------|--------|
A|--------|--------|--------|--------|--------|--------|--------|--------|--------|
E|--------|--------|--------|--------|--------|--------|--------|--------|--------|


E|--------|--------|--------|--------|--------|--------|--------|--------|--------|
B|--------|--------|--------|--------|--------|--------|--------|--------|--------|
G|--------|--------|--------|--------|--------|--------|--------|--------|--------|
D|--------|--------|--------|--------|--------|--------|--------|--------|--------|
A|--------|--------|--------|--------|--------|--------|--------|--------|--------|
E|--------|--------|--------|--------|--------|--------|--------|--------|--------|


E|--------|--------|--------|--------|--------|--------|--------|--------|--------|
B|--------|--------|--------|--------|--------|--------|--------|--------|--------|
G|--------|--------|--------|--------|--------|--------|--------|--------|--------|
D|--------|--------|--------|--------|--------|--------|--------|--------|--------|
A|--------|--------|--------|--------|--------|--------|--------|--------|--------|
E|--------|--------|--------|--------|--------|--------|--------|--------|--------|


E|--------|--------|--------|--------|--------|--------|--------|--------|--------|
B|--------|--------|--------|--------|--------|--------|--------|--------|--------|
G|--------|--------|--------|--------|--------|--------|--------|--------|--------|
D|--------|--------|--------|--------|--------|--------|--------|--------|--------|
A|--------|--------|--------|--------|--------|--------|--------|--------|--------|
E|--------|--------|--------|--------|--------|--------|--------|--------|--------|


E|--------|--------|--------|--------|--------|--------|--------|--------|--------|
B|--------|--------|--------|--------|--------|--------|--------|--------|--------|
G|--------|--------|--------|--------|--------|--------|--------|--------|--------|
D|--------|--------|--------|--------|--------|--------|--------|--------|--------|
A|--------|--------|--------|--------|--------|--------|--------|--------|--------|
E|--------|--------|--------|--------|--------|--------|--------|--------|--------|


E|--------|--------|--------|--------|--------|--------|--------|--------|--------|
B|--------|--------|--------|--------|--------|--------|--------|--------|--------|
G|--------|--------|--------|--------|--------|--------|--------|--------|--------|
D|--------|--------|--------|--------|--------|--------|--------|--------|--------|
A|--------|--------|--------|--------|--------|--------|--------|--------|--------|
E|--------|--------|--------|--------|--------|--------|--------|--------|--------|


E|--------|-17----------------------------------------------|-17----------------------------------------------|
B|--------|-19--19--------------------------19--19--19------|-19--19--------------------------19--19--19------|
G|--------|-----19--19--------------19--19--19--19--19--19--|-----19--19--------------19--19--19--19--19--19--|
D|--------|---------19--19------19--19--19--------------19--|---------19--19------19--19--19--------------19--|
A|--------|-------------21--21--21--------------------------|-------------21--21--21--------------------------|
E|--------|-----------------22------------------------------|-----------------22------------------------------|


E|-19----------------------------------------------|-19----------------------------------------------|
B|-21--21--------------------------21--21--21------|-21--21--------------------------21--21--21------|
G|-----21--21--------------21--21--21--21--21--21--|-----21--21--------------21--21--21--21--21--21--|
D|---------21--21------21--21--21--------------21--|---------21--21------21--21--21--------------21--|
A|-------------23--23--23--------------------------|-------------23--23--23--------------------------|
E|-----------------24------------------------------|-----------------24------------------------------|


E|-20------------------------------17--17--17------|-20----------------------------------20----------|
B|-22--22------------------18--18--18--18--18--18--|-20--20------------------20------20--20--20------|
G|-----22--22----------17--17--17--------------17--|-----21--21------21--22--21--21--21------21--21--|
D|---------22--22--19--19--------------------------|---------22--22--22--24------22--------------22--|
A|-------------24--20------------------------------|-------------22----------------------------------|
E|-------------------------------------------------|-------------------------------------------------|


E|-19--------------17------15--19------15--22------|-19--22----------22------20-19-17------------------------|
B|-20--20------20--17--15--15--20--15--15--20--20--|-20--24--24------24------19-------1920---20----15-1920---|
G|-----19--19--19------16----------16----------19--|---------24--24------24--------19---19---23----19---19---|
D|---------21--------------------------------------|-------------24------24-----19---------19---19---------19|
A|-------------------------------------------------|---------------------------------------------------------|
E|-------------------------------------------------|---------------------------------------------------------|


E|-17----------------------------------------------|-17----------------------------------------------|
B|-19--19--------------------------19--19--19------|-19--19--------------------------19--19--19------|
G|-----19--19--------------19--19--19--19--19--19--|-----19--19--------------19--19--19--19--19--19--|
D|---------19--19------19--19--19--------------19--|---------19--19------19--19--19--------------19--|
A|-------------21--21--21--------------------------|-------------21--21--21--------------------------|
E|-----------------22------------------------------|-----------------22------------------------------|


E|-19----------------------------------------------|-19----------------------------------------------|
B|-21--21--------------------------21--21--21------|-21--21--------------------------21--21--21------|
G|-----21--21--------------21--21--21--21--21--21--|-----21--21--------------21--21--21--21--21--21--|
D|---------21--21------21--21--21--------------21--|---------21--21------21--21--21--------------21--|
A|-------------23--23--23--------------------------|-------------23--23--23--------------------------|
E|-----------------24------------------------------|-----------------24------------------------------|


E|-20------------------------------17--17--17------|-20----------------------------------20----------|
B|-22--22------------------18--18--18--18--18--18--|-20--20------------------20------20--20--20------|
G|-----22--22----------17--17--17--------------17--|-----21--21------21--22--21--21--21------21--21--|
D|---------22--22--19--19--------------------------|---------22--22--22--24------22--------------22--|
A|-------------24--20------------------------------|-------------22----------------------------------|
E|-------------------------------------------------|-------------------------------------------------|


E|---------------------------------22-24-22-------------17-22-24-|-22-------------------------------------------------|
B|-20-2220-----------22------20-22----------22-20-19-20----------|----2220--------------------------------------------|
G|---------2221-19-21---2122-------------------------------------|---------22-----------1412-10-----------------------|
D|---------------------------------------------------------------|-----------19-17-1517-------------------7--5--4--5--|
A|---------------------------------------------------------------|------------------------------1210-8-10-------------|
E|---------------------------------------------------------------|----------------------------------------------------|


E|--------|--------|--------|--------|--------|--------|--------|--------|--------|
B|-0------|--------|--------|--------|--------|--------|--------|--------|--------|
G|--------|--------|--------|--------|--------|--------|--------|--------|--------|
D|--------|--------|--------|--------|--------|--------|--------|--------|--------|
A|--------|--------|--------|--------|--------|--------|--------|--------|--------|
E|--------|--------|--------|--------|--------|--------|--------|--------|--------|


E|-17-------------14-17-14-17-14----------14-17-14-|-19-15----------15-19-15-19-15----------15-19-15-|
B|----19-------15----------------15----15----------|-------17----17----------------17----17----------|
G|-------19-16----------------------16-------------|----------16----------------------16-------------|
D|-------------------------------------------------|-------------------------------------------------|
A|-------------------------------------------------|-------------------------------------------------|
E|-------------------------------------------------|-------------------------------------------------|


E|-15-12----------12-15-12-15-12----------12-15-12-|-17----------17----14-17-21-17----------------14-|
B|-------14----14----------------14----14----------|----17----17----17-------------19-17-17----15----|
G|----------12----------------------12-------------|-------18-------------------------------16-------|
D|-------------------------------------------------|-------------------------------------------------|
A|-------------------------------------------------|-------------------------------------------------|
E|-------------------------------------------------|-------------------------------------------------|


E|-14-------------------10-9--10-14-12-12-10-9--7--|-10----10---9----|-7-----6-----6---|
B|----15-------------12----------------------------|-----------------|-----------------|
G|-------16-14-12-14-------------------------------|-----------------|-----------------|
D|-------------------------------------------------|-----------------|-----------------|
A|-------------------------------------------------|-----------------|-----------------|
E|-------------------------------------------------|-----------------|-----------------|


E|-------6--9--6--7--9--10-12-14-18-14-15-14-14-14-|-12----12--14--12-10----10-12-14-|
B|-6--7--------------------------------------------|---------------------12----------|
G|-------------------------------------------------|---------------------------------|
D|-------------------------------------------------|---------------------------------|
A|-------------------------------------------------|---------------------------------|
E|-------------------------------------------------|---------------------------------|


E|-12---14--12-10------14--19--|-21----21----21--|-21-18-19-16-19----------------19-19-17-15-14-12-|
B|----------------12-----------|-----------------|----------------20-19-17-19-20-------------------|
G|-----------------------------|-----------------|-------------------------------------------------|
D|-----------------------------|-----------------|-------------------------------------------------|
A|-----------------------------|-----------------|-------------------------------------------------|
E|-----------------------------|-----------------|-------------------------------------------------|


E|-15-14-12-10-12-10-9--7--10-9--7--6--7--6--5--6--|-7--9--10-9--10-12-14-12-------------17-14-15-19-|
B|-------------------------------------------------|-------------------------14-15-17-19-------------|
G|-------------------------------------------------|-------------------------------------------------|
D|-------------------------------------------------|-------------------------------------------------|
A|-------------------------------------------------|-------------------------------------------------|
E|-------------------------------------------------|-------------------------------------------------|


E|-----19-19----19-----18-19-18----18--------|-19--------19----19----19----|-19----------|
B|-19--------19----19-----------19----19--19-|----19-19-----19----19-------|-------------|
G|-------------------------------------------|-----------------------------|-------------|
D|-------------------------------------------|-----------------------------|-------------|
A|-------------------------------------------|-----------------------------|-------------|
E|-------------------------------------------|-----------------------------|-------------|


E|--------|--------|--------|--------|--------|--------|--------|--------|--------|
B|--------|--------|--------|--------|--------|--------|--------|--------|--------|
G|--------|--------|--------|--------|--------|--------|--------|--------|--------|
D|--------|--------|--------|--------|--------|--------|--------|--------|--------|
A|--------|--------|--------|--------|--------|--------|--------|--------|--------|
E|--------|--------|--------|--------|--------|--------|--------|--------|--------|


E|--------|--------|--------|--------|--------|--------|--------|--------|--------|
B|--------|--------|--------|--------|--------|--------|--------|--------|--------|
G|--------|--------|--------|--------|--------|--------|--------|--------|--------|
D|--------|--------|--------|--------|--------|--------|--------|--------|--------|
A|--------|--------|--------|--------|--------|--------|--------|--------|--------|
E|--------|--------|--------|--------|--------|--------|--------|--------|--------|


E|--------|--------|--------|--------|--------|--------|--------|--------|--------|
B|--------|--------|--------|--------|--------|--------|--------|--------|--------|
G|--------|--------|--------|--------|--------|--------|--------|--------|--------|
D|--------|--------|--------|--------|--------|--------|--------|--------|--------|
A|--------|--------|--------|--------|--------|--------|--------|--------|--------|
E|--------|--------|--------|--------|--------|--------|--------|--------|--------|


E|--------|--------|--------|--------|--------|--------|--------|--------|--------|
B|--------|--------|--------|--------|--------|--------|--------|--------|--------|
G|--------|--------|--------|--------|--------|--------|--------|--------|--------|
D|--------|--------|--------|--------|--------|--------|--------|--------|--------|
A|--------|--------|--------|--------|--------|--------|--------|--------|--------|
E|--------|--------|--------|--------|--------|--------|--------|--------|--------|


E|--------|--------|--------|--------|--------|--------|--------|--------|--------|
B|--------|--------|--------|--------|--------|--------|--------|--------|--------|
G|--------|--------|--------|--------|--------|--------|--------|--------|--------|
D|--------|--------|--------|--------|--------|--------|--------|--------|--------|
A|--------|--------|--------|--------|--------|--------|--------|--------|--------|
E|--------|--------|--------|--------|--------|--------|--------|--------|--------|


E|--------|--------|--------|--------|--------|--------|--------|--------|--------|
B|--------|--------|--------|--------|--------|--------|--------|--------|--------|
G|--------|--------|--------|--------|--------|--------|--------|--------|--------|
D|--------|--------|--------|--------|--------|--------|--------|--------|--------|
A|--------|--------|--------|--------|--------|--------|--------|--------|--------|
E|--------|--------|--------|--------|--------|--------|--------|--------|--------|


E|--------|--------|--------|--------|--------|--------|--------|--------|--------|
B|--------|--------|--------|--------|--------|--------|--------|--------|--------|
G|--------|--------|--------|--------|--------|--------|--------|--------|--------|
D|--------|--------|--------|--------|--------|--------|--------|--------|--------|
A|--------|--------|--------|--------|--------|--------|--------|--------|--------|
E|--------|--------|--------|--------|--------|--------|--------|--------|--------|


E|--------|--------|--------|--------|--------|--------|--------|
B|--------|--------|--------|--------|--------|--------|--------|
G|--------|--------|--------|--------|--------|--------|--------|
D|--------|--------|--------|--------|--------|--------|--------|
A|--------|--------|--------|--------|--------|--------|--------|
E|--------|--------|--------|--------|--------|--------|--------|



← Back to top