Generator

by Bad Religion

Guitar Pro Tab  |  v4.06  |  Posted on March 29, 2007, 11:03 a.m. ← Back

Guitar Pro Tab Summary

Album

unknown

Song Author

unknown

Tabbed by

unknown

Instruments

1st → Guitar1
2nd → Drumssi´┐Żn
3rd → Bassa 2

File Size

27 KB

Views

2,397






Related guitar pro tabs

Tablature Sheet

Title: Generator
Artist: Bad Religion
Album: 
Author: 






Track 1: Guitar
Back to top
E|-5---5---5--5--5---------|-1---1---1--1--1---------|-3---3---3--3--3---------|---------------------------|
B|-5---5---5--5--5---------|-1---1---1--1--1---------|-3---3---3--3--3---------|---------------------------|
G|-5---5---5--5--5---------|-2---2---2--2--2---------|-4---4---4--4--4---------|-5---5--5----5---5----4----|
D|-7---7---7--7--7---------|-3---3---3--3--3---------|-5---5---5--5--5---------|-5---5--5----5---5----4----|
A|-7---7---7--7--7---------|-3---3---3--3--3---------|-5---5---5--5--5---------|-3---3--3----3---3----2----|
E|-5---5---5--5--5---------|-1---1---1--1--1---------|-3---3---3--3--3---------|---------------------------|


E|-5----5----5---5----5----5---|-8----8----8---8----8----8---|-3----3----3---3----3----3---|
B|-5----5----5---5----5----5---|-10---10---10--10---10---10--|-3----3----3---3----3----3---|
G|-5----5----5---5----5----5---|-10---10---10--10---10---10--|-4----4----4---4----4----4---|
D|-7----7----7---7----7----7---|-10---10---10--10---10---10--|-5----5----5---5----5----5---|
A|-7----7----7---7----7----7---|-8----8----8---8----8----8---|-5----5----5---5----5----5---|
E|-5----5----5---5----5----5---|-----------------------------|-3----3----3---3----3----3---|


E|-0----0----0---0----0----0---|-0----0----0---0----0----0---|-0----0----0---0----0----0---|
B|-0----0----0---0----0----0---|-1----1----1---0----0----0---|-1----1----1---0----0----0---|
G|-0----0----0---0----0----0---|-2----2----2---2----2----2---|-2----2----2---2----2----2---|
D|-2----2----2---2----2----2---|-2----2----2---2----2----2---|-2----2----2---2----2----2---|
A|-2----2----2---2----2----2---|-0----0----0---0----0----0---|-0----0----0---0----0----0---|
E|-0----0----0---0----0----0---|-----------------------------|-----------------------------|


E|-1----1----1---1----1----1---|-1----1----1---1----1----1---|-0----0----0---0----0----0---|
B|-1----1----1---0----0----0---|-1----1----1---0----0----0---|-1----1----1---0----0----0---|
G|-2----2----2---2----2----2---|-2----2----2---2----2----2---|-0----0----0---0----0----0---|
D|-3----3----3---3----3----3---|-3----3----3---3----3----3---|-2----2----2---2----2----2---|
A|-----------------------------|-----------------------------|-3----3----3---3----3----3---|
E|-----------------------------|-----------------------------|-----------------------------|


E|-0----0----0---0----0----0---|-3----3----3---3----3----3---|-3----3----3---3----3----3---|
B|-1----1----1---0----0----0---|-3----3----3---0----0----0---|-3----3----3---0----0----0---|
G|-0----0----0---0----0----0---|-0----0----0---0----0----0---|-0----0----0---0----0----0---|
D|-2----2----2---2----2----2---|-0----0----0---0----0----0---|-0----0----0---0----0----0---|
A|-3----3----3---3----3----3---|-2----2----2---2----2----2---|-2----2----2---2----2----2---|
E|-----------------------------|-3----3----3---3----3----3---|-3----3----3---3----3----3---|


E|-0----0----0---0----0----0---|-0----0----0---0----0----0---|-1----1----1---1----1----1---|
B|-1----1----1---0----0----0---|-1----1----1---0----0----0---|-1----1----1---0----0----0---|
G|-2----2----2---2----2----2---|-2----2----2---2----2----2---|-2----2----2---2----2----2---|
D|-2----2----2---2----2----2---|-2----2----2---2----2----2---|-3----3----3---3----3----3---|
A|-0----0----0---0----0----0---|-0----0----0---0----0----0---|-----------------------------|
E|-----------------------------|-----------------------------|-----------------------------|


E|-1----1----1---1----1----1---|-0----0----0---0----0----0---|-0----0----0---0----0----0---|
B|-1----1----1---0----0----0---|-1----1----1---0----0----0---|-1----1----1---0----0----0---|
G|-2----2----2---2----2----2---|-0----0----0---0----0----0---|-0----0----0---0----0----0---|
D|-3----3----3---3----3----3---|-2----2----2---2----2----2---|-2----2----2---2----2----2---|
A|-----------------------------|-3----3----3---3----3----3---|-3----3----3---3----3----3---|
E|-----------------------------|-----------------------------|-----------------------------|


E|-3----3----3---3----3----3---|-3----3----3---3----3----3---|---------------------------------|
B|-3----3----3---0----0----0---|-3----3----3---0----0----0---|---------------------------------|
G|-0----0----0---0----0----0---|-0----0----0---0----0----0---|---------------------------------|
D|-0----0----0---0----0----0---|-0----0----0---0----0----0---|-7---7--7----7---8---10--8---10--|
A|-2----2----2---2----2----2---|-2----2----2---2----2----2---|-7---7--7----7---8---10--8---10--|
E|-3----3----3---3----3----3---|-3----3----3---3----3----3---|-5---5--5----5---6---8---6---8---|


E|---------------------------|---------------------------------|---------------------------|
B|---------------------------|---------------------------------|---------------------------|
G|-----------------8---------|---------------------------------|-----------------8---------|
D|-7---7--7----7---8---------|-7---7--7----7---8---10--8---10--|-7---7--7----7---8---------|
A|-7---7--7----7---6---------|-7---7--7----7---8---10--8---10--|-7---7--7----7---6---------|
E|-5---5--5----5-------------|-5---5--5----5---6---8---6---8---|-5---5--5----5-------------|


E|-----------|---------------------------------|-----------------|----------------|
B|-----------|---------------------------------|-----------------|----------------|
G|-----------|---------------------------------|-----------------|----------------|
D|-5---------|-7---7--7----7---8---10--8---10--|-7---7--7----7---|----------------|
A|-5---------|-7---7--7----7---8---10--8---10--|-7---7--7----7---|----------------|
E|-3---------|-5---5--5----5---6---8---6---8---|-5---5--5----5---|----------------|


E|----------------|---------------------------------|-----------------------|-5----5----5---5----5----5---|
B|----------------|---------------------------------|-----------------------|-5----5----5---5----5----5---|
G|----------------|-10--7-------10--7-------10--7---|-----10--7-------10----|-----------------------------|
D|----------------|---------8-----------8-----------|-8-----------8---------|-----------------------------|
A|----------------|---------------------------------|-----------------------|-----------------------------|
E|----------------|---------------------------------|-----------------------|-----------------------------|


E|-5----5----5---5----5----5---|-5----5----5---5----5----5---|-5----5----5---5----5----5---|
B|-6----6----6---6----6----6---|-8----8----8---8----8----8---|-9----9----9---9----9----9---|
G|-----------------------------|-----------------------------|-----------------------------|
D|-----------------------------|-----------------------------|-----------------------------|
A|-----------------------------|-----------------------------|-----------------------------|
E|-----------------------------|-----------------------------|-----------------------------|


E|-----------------------------|-----------------------------|-----------------------------|
B|-----------------------------|-----------------------------|-----------------------------|
G|-----------------------------|-10---10---10--10---10---10--|-----------------------------|
D|-7----7----7---7----7----7---|-10---10---10--10---10---10--|-5----5----5---5----5----5---|
A|-7----7----7---7----7----7---|-8----8----8---8----8----8---|-5----5----5---5----5----5---|
E|-5----5----5---5----5----5---|-----------------------------|-3----3----3---3----3----3---|


E|-------------------------|-----------------------------|-----------------------------|
B|-------------------------|-----------------------------|-----------------------------|
G|-5----5----5---5----4----|-----------------------------|-10---10---10--10---10---10--|
D|-5----5----5---5----4----|-7----7----7---7----7----7---|-10---10---10--10---10---10--|
A|-3----3----3---3----2----|-7----7----7---7----7----7---|-8----8----8---8----8----8---|
E|-------------------------|-5----5----5---5----5----5---|-----------------------------|


E|-----------------------------|-----------------------------|-0----0----0---0----0----0---|
B|-----------------------------|-----------------------------|-1----1----1---0----0----0---|
G|-----------------------------|-9----9----9---9----9----9---|-2----2----2---2----2----2---|
D|-5----5----5---5----5----5---|-9----9----9---9----9----9---|-2----2----2---2----2----2---|
A|-5----5----5---5----5----5---|-7----7----7---7----7----7---|-0----0----0---0----0----0---|
E|-3----3----3---3----3----3---|-----------------------------|-----------------------------|


E|-0----0----0---0----0----0---|-1----1----1---1----1----1---|-1----1----1---1----1----1---|
B|-1----1----1---0----0----0---|-1----1----1---0----0----0---|-1----1----1---0----0----0---|
G|-2----2----2---2----2----2---|-2----2----2---2----2----2---|-2----2----2---2----2----2---|
D|-2----2----2---2----2----2---|-3----3----3---3----3----3---|-3----3----3---3----3----3---|
A|-0----0----0---0----0----0---|-----------------------------|-----------------------------|
E|-----------------------------|-----------------------------|-----------------------------|


E|-0----0----0---0----0----0---|-0----0----0---0----0----0---|-3----3----3---3----3----3---|
B|-1----1----1---0----0----0---|-1----1----1---0----0----0---|-3----3----3---0----0----0---|
G|-0----0----0---0----0----0---|-0----0----0---0----0----0---|-0----0----0---0----0----0---|
D|-2----2----2---2----2----2---|-2----2----2---2----2----2---|-0----0----0---0----0----0---|
A|-3----3----3---3----3----3---|-3----3----3---3----3----3---|-2----2----2---2----2----2---|
E|-----------------------------|-----------------------------|-3----3----3---3----3----3---|


E|-3----3----3---3----3----3---|-0----0----0---0----0----0---|-0----0----0---0----0----0---|
B|-3----3----3---0----0----0---|-1----1----1---0----0----0---|-1----1----1---0----0----0---|
G|-0----0----0---0----0----0---|-2----2----2---2----2----2---|-2----2----2---2----2----2---|
D|-0----0----0---0----0----0---|-2----2----2---2----2----2---|-2----2----2---2----2----2---|
A|-2----2----2---2----2----2---|-0----0----0---0----0----0---|-0----0----0---0----0----0---|
E|-3----3----3---3----3----3---|-----------------------------|-----------------------------|


E|-1----1----1---1----1----1---|-1----1----1---1----1----1---|-0----0----0---0----0----0---|
B|-1----1----1---0----0----0---|-1----1----1---0----0----0---|-1----1----1---0----0----0---|
G|-2----2----2---2----2----2---|-2----2----2---2----2----2---|-0----0----0---0----0----0---|
D|-3----3----3---3----3----3---|-3----3----3---3----3----3---|-2----2----2---2----2----2---|
A|-----------------------------|-----------------------------|-3----3----3---3----3----3---|
E|-----------------------------|-----------------------------|-----------------------------|


E|-0----0----0---0----0----0---|-3----3----3---3----3----3---|-3----3----3---3----3----3---|
B|-1----1----1---0----0----0---|-3----3----3---0----0----0---|-3----3----3---0----0----0---|
G|-0----0----0---0----0----0---|-0----0----0---0----0----0---|-0----0----0---0----0----0---|
D|-2----2----2---2----2----2---|-0----0----0---0----0----0---|-0----0----0---0----0----0---|
A|-3----3----3---3----3----3---|-2----2----2---2----2----2---|-2----2----2---2----2----2---|
E|-----------------------------|-3----3----3---3----3----3---|-3----3----3---3----3----3---|


E|---------------------------------|---------------------------|---------------------------------|
B|---------------------------------|---------------------------|---------------------------------|
G|---------------------------------|-----------------8---------|---------------------------------|
D|-7---7--7----7---8---10--8---10--|-7---7--7----7---8---------|-7---7--7----7---8---10--8---10--|
A|-7---7--7----7---8---10--8---10--|-7---7--7----7---6---------|-7---7--7----7---8---10--8---10--|
E|-5---5--5----5---6---8---6---8---|-5---5--5----5-------------|-5---5--5----5---6---8---6---8---|


E|---------------------------------|---------------------------------|-----------------|
B|---------------------------------|---------------------------------|-----------------|
G|-----------------8---------------|---------------------------------|-----------------|
D|-7---7--7----7---8-------5-------|-7---7--7----7---8---10--8---10--|-7---7--7----7---|
A|-7---7--7----7---6-------5-------|-7---7--7----7---8---10--8---10--|-7---7--7----7---|
E|-5---5--5----5-----------3-------|-5---5--5----5---6---8---6---8---|-5---5--5----5---|


E|---------------------------------|-----------------------|---------------------------------|
B|---------------------------------|-----------------------|---------------------------------|
G|-10--7-------10--7-------10--7---|-----10--7-------10----|-10--7-------10--7-------10--7---|
D|---------8-----------8-----------|-8-----------8---------|---------8-----------8-----------|
A|---------------------------------|-----------------------|---------------------------------|
E|---------------------------------|-----------------------|---------------------------------|


E|------------------------------|-5----5----5---5----5----5---|-5----5----5---5----5----5---|
B|------------------------------|-5----5----5---5----5----5---|-5----5----5---5----5----5---|
G|-----10--7-------10--7--------|-----------------------------|-----------------------------|
D|-8-----------8-----------8----|-----------------------------|-----------------------------|
A|------------------------------|-----------------------------|-----------------------------|
E|------------------------------|-----------------------------|-----------------------------|


E|-5----5----5---5----5----5---|-5----5----5---5----5----5---|-----------------------------|
B|-5----5----5---5----5----5---|-5----5----5---5----5----5---|-----------------------------|
G|-----------------------------|-----------------------------|-----------------------------|
D|-----------------------------|-----------------------------|-7----7----7---7----7----7---|
A|-----------------------------|-----------------------------|-7----7----7---7----7----7---|
E|-----------------------------|-----------------------------|-5----5----5---5----5----5---|


E|-----------------------------|-----------------------------|-------------------------|
B|-----------------------------|-----------------------------|-------------------------|
G|-10---10---10--10---10---10--|-----------------------------|-5----5----5---5----4----|
D|-10---10---10--10---10---10--|-5----5----5---5----5----5---|-5----5----5---5----4----|
A|-8----8----8---8----8----8---|-5----5----5---5----5----5---|-3----3----3---3----2----|
E|-----------------------------|-3----3----3---3----3----3---|-------------------------|


E|-----------------------------|-----------------------------|-----------------------------|
B|-----------------------------|-----------------------------|-----------------------------|
G|-----------------------------|-10---10---10--10---10---10--|-----------------------------|
D|-7----7----7---7----7----7---|-10---10---10--10---10---10--|-5----5----5---5----5----5---|
A|-7----7----7---7----7----7---|-8----8----8---8----8----8---|-5----5----5---5----5----5---|
E|-5----5----5---5----5----5---|-----------------------------|-3----3----3---3----3----3---|


E|-----------------------------|-15--15---15--12--12----|-------------|-------------|
B|-----------------------------|------------------------|-------------|-------------|
G|-9----9----9---9----9----9---|------------------------|-12----14----|-14----14----|
D|-9----9----9---9----9----9---|------------------------|-------------|-------------|
A|-7----7----7---7----7----7---|------------------------|-------------|-------------|
E|-----------------------------|------------------------|-------------|-------------|


E|-------------------12---|----------------------|-15---14---12--10---12--|-15---14---14-12---14---|
B|-15---15--12--12--------|----------------------|------------------------|------------------------|
G|-12---12--14--16---14---|-14---14----14-14-14--|------------------------|------------------------|
D|------------------------|----------------------|------------------------|------------------------|
A|------------------------|----------------------|------------------------|------------------------|
E|------------------------|----------------------|------------------------|------------------------|


E|-15-----|-5----5----5---5----5----5---|-8----8----8---8----8----8---|-3----3----3---3----3----3---|
B|--------|-5----5----5---5----5----5---|-10---10---10--10---10---10--|-3----3----3---3----3----3---|
G|--------|-5----5----5---5----5----5---|-10---10---10--10---10---10--|-4----4----4---4----4----4---|
D|--------|-7----7----7---7----7----7---|-10---10---10--10---10---10--|-5----5----5---5----5----5---|
A|--------|-7----7----7---7----7----7---|-8----8----8---8----8----8---|-5----5----5---5----5----5---|
E|--------|-5----5----5---5----5----5---|-----------------------------|-3----3----3---3----3----3---|


E|-3----3----3---3----3----3---|-5----5----5---5----5----5---|-8----8----8---8----8----8---|
B|-5----5----5---5----5----5---|-5----5----5---5----5----5---|-10---10---10--10---10---10--|
G|-5----5----5---5----5----5---|-5----5----5---5----5----5---|-10---10---10--10---10---10--|
D|-5----5----5---5----5----5---|-7----7----7---7----7----7---|-10---10---10--10---10---10--|
A|-3----3----3---3----3----3---|-7----7----7---7----7----7---|-8----8----8---8----8----8---|
E|-----------------------------|-5----5----5---5----5----5---|-----------------------------|


E|-3----3----3---3----3----3---|-3----3----3---3----3----3---|------------------|-----------------------------|
B|-3----3----3---3----3----3---|-5----5----5---5----5----5---|------------------|-----------------------------|
G|-4----4----4---4----4----4---|-5----5----5---5----5----5---|-5--3--5------7---|-7-----9--12-----------------|
D|-5----5----5---5----5----5---|-5----5----5---5----5----5---|------------------|-------------12-10-12-10-7---|
A|-5----5----5---5----5----5---|-3----3----3---3----3----3---|------------------|-----------------------------|
E|-3----3----3---3----3----3---|-----------------------------|------------------|-----------------------------|


E|---------------------------|------------------------|--------------------|-5--5--5-----7--5------------------|
B|---------------------------|------------------------|--------------------|-5--5--5-----------7--5--------8---|
G|---------------------------|------------------------|----------5---7-----|-------7-----------------7--5------|
D|-7-------------------------|-----------2---5----5---|-7----7-------------|-----------------------------------|
A|------7---6---5--3----5----|-5---3------------------|--------------------|-----------------------------------|
E|---------------------------|------------------------|--------------------|-----------------------------------|


E|-------------8---10--10----|-10---8--10-8-----7---|-5----5----5----7----|-8-----8---8----8----|
B|-8---10--10----------------|----------------------|---------------------|---------------------|
G|---------------------------|----------------------|---------------------|---------------------|
D|---------------------------|----------------------|---------------------|---------------------|
A|---------------------------|----------------------|---------------------|---------------------|
E|---------------------------|----------------------|---------------------|---------------------|


E|-10---10---10---10---|-12--12---12---12--12---|----------------------------------------|
B|---------------------|------------------------|-8--7--8--7-----------------------------|
G|---------------------|------------------------|-------------9--7--7--5--4---5----4--2--|
D|---------------------|------------------------|----------------------------------------|
A|---------------------|------------------------|----------------------------------------|
E|---------------------|------------------------|----------------------------------------|


E|-----------------|---------------------|-----------------|--------------------------------|
B|-----------------|---------------------|------15---15----|--------------------------------|
G|-4----2-----4----|-5----7----9----11---|-12--------------|--------------------------------|
D|-----------------|---------------------|-----------------|-7---7--7---7--7---7------------|
A|-----------------|---------------------|-----------------|-7---7--7---7--7---7------------|
E|-----------------|---------------------|-----------------|-5---5--5---5--5---5------------|


E|--------------------------------|--------------------------------|
B|--------------------------------|--------------------------------|
G|-10--10-10--10-10--10-----------|--------------------------------|
D|-10--10-10--10-10--10-----------|-5---5--5---5--5---5------------|
A|-8---8--8---8--8---8------------|-5---5--5---5--5---5------------|
E|--------------------------------|-3---3--3---3--3---3------------|









Track 2: Bass
Back to top
G|-------------------------|-------------------------|-------------------------|-------------------------|
D|-------------------------|-------------------------|-------------------------|-------------------------|
A|-------------------------|-------------------------|-------------------------|-3----3----3---3----2----|
E|-5---5---5--5--5---------|-1---1---1--1--1---------|-3---3---3--3--3---------|-------------------------|


G|-----------------------------|-----------------------------|-----------------------------|
D|-----------------------------|-----------------------------|-----------------------------|
A|-----------------------------|-8----8----8---8----8----8---|-----------------------------|
E|-5----5----5---5----5----5---|-----------------------------|-3----3----3---3----3----3---|


G|-----------------------------|---------------------------------|---------------------------------|
D|-----------------------------|---------------------------------|---------------------------------|
A|-----------------------------|---------------------------------|---------------------------------|
E|-0----0----0---0----0----0---|-5---5--5----5---5---5--5----5---|-5---5--5----5---5---5---7---8---|


G|---------------------------------|---------------------------------|---------------------------------|
D|---------------------------------|---------------------------------|---------------------------------|
A|---------------------------------|---------------------------------|-----------------10--10-10---10--|
E|-1---1--1----1---1---1--1----1---|-1---1--1----1---1---1--1----1---|-8---8--8----8-------------------|


G|---------------------------------|---------------------------------|---------------------------------|
D|---------------------------------|---------------------------------|---------------------------------|
A|-----------------10--8-----------|---------------------------------|---------------------------------|
E|-8---8--8----8-----------11--10--|-3---3--3----3---3---3--3----3---|-3---3--3----3---3---3--3----3---|


G|---------------------------------|---------------------------------|---------------------------------|
D|---------------------------------|---------------------------------|---------------------------------|
A|---------------------------------|---------------------------------|---------------------------------|
E|-5---5--5----5---5---5--5----5---|-5---5--5----5---5---5---7---8---|-1---1--1----1---1---1--1----1---|


G|---------------------------------|---------------------------------|---------------------------------|
D|---------------------------------|---------------------------------|---------------------------------|
A|---------------------------------|-----------------10--10-10---10--|-----------------10--8-----------|
E|-1---1--1----1---1---1--1----1---|-8---8--8----8-------------------|-8---8--8----8-----------11--10--|


G|---------------------------------|---------------------------------|---------------------------------|
D|---------------------------------|---------------------------------|---------------------------------|
A|---------------------------------|---------------------------------|---------------------------------|
E|-3---3--3----3---3---3--3----3---|-3---3--3----3---3---3--3----3---|-5---5--5----5---6---8---6---8---|


G|------------------------------|---------------------------------|------------------------------|
D|------------------------------|---------------------------------|------------------------------|
A|-----------------6------------|---------------------------------|-----------------6------------|
E|-5---5--5----5----------------|-5---5--5----5---6---8---6---8---|-5---5--5----5----------------|


G|-----------|---------------------------------|-----------------|---------------------|
D|-----------|---------------------------------|-----------------|---------------------|
A|-----------|---------------------------------|-----------------|---------------------|
E|-3---------|-5---5--5----5---6---8---6---8---|-5---5--5----5---|-0----2----3----5----|


G|---------------------|--------------------|--------------------|--------------------|
D|---------------------|--------------------|--------------------|--------------------|
A|----------------8----|----------7---------|---------7----------|---------7----------|
E|-7----5----9---------|-9----10------------|-7---9--------7-----|-7---9--------7-----|


G|---------------------|-----------------------------|---------------------------------|
D|---------------------|-----------------------------|---------------------------------|
A|------7----7---7-----|-7----7----7---7----7----7---|-7---7---7---7---7---5-----------|
E|-7-------------------|-----------------------------|-------------------------8---7---|


G|-----------------------------|-----------------------------|-----------------------------|
D|-----------------------------|-----------------------------|-----------------------------|
A|-----------------------------|-8----8----8---8----8----8---|-10---10---10--10---10---10--|
E|-5----5----5---5----5----5---|-----------------------------|-----------------------------|


G|-------------------------|-----------------------------|-----------------------------|
D|-------------------------|-----------------------------|-----------------------------|
A|-3----3----3---3----2----|-----------------------------|-8----8----8---8----8----8---|
E|-------------------------|-5----5----5---5----5----5---|-----------------------------|


G|-----------------------------|-----------------------------|---------------------------------|
D|-----------------------------|-----------------------------|---------------------------------|
A|-10---10---10--10---10---10--|-7----7----7---7----7----7---|---------------------------------|
E|-----------------------------|-----------------------------|-5---5--5----5---5---5--5----5---|


G|---------------------------------|---------------------------------|---------------------------------|
D|---------------------------------|---------------------------------|---------------------------------|
A|---------------------------------|---------------------------------|---------------------------------|
E|-5---5--5----5---5---5---7---8---|-1---1--1----1---1---1--1----1---|-1---1--1----1---1---1--1----1---|


G|---------------------------------|---------------------------------|---------------------------------|
D|---------------------------------|---------------------------------|---------------------------------|
A|-----------------10--10-10---10--|-----------------10--8-----------|---------------------------------|
E|-8---8--8----8-------------------|-8---8--8----8-----------11--10--|-3---3--3----3---3---3--3----3---|


G|---------------------------------|---------------------------------|---------------------------------|
D|---------------------------------|---------------------------------|---------------------------------|
A|---------------------------------|---------------------------------|---------------------------------|
E|-3---3--3----3---3---3--3----3---|-5---5--5----5---5---5--5----5---|-5---5--5----5---5---5---7---8---|


G|---------------------------------|---------------------------------|---------------------------------|
D|---------------------------------|---------------------------------|---------------------------------|
A|---------------------------------|---------------------------------|-----------------10--10-10---10--|
E|-1---1--1----1---1---1--1----1---|-1---1--1----1---1---1--1----1---|-8---8--8----8-------------------|


G|---------------------------------|---------------------------------|---------------------------------|
D|---------------------------------|---------------------------------|---------------------------------|
A|-----------------10--8-----------|---------------------------------|---------------------------------|
E|-8---8--8----8-----------11--10--|-3---3--3----3---3---3--3----3---|-3---3--3----3---3---3--3----3---|


G|---------------------------------|------------------------------|---------------------------------|
D|---------------------------------|------------------------------|---------------------------------|
A|---------------------------------|-----------------6------------|---------------------------------|
E|-5---5--5----5---6---8---6---8---|-5---5--5----5----------------|-5---5--5----5---6---8---6---8---|


G|---------------------------------|---------------------------------|-----------------|
D|---------------------------------|---------------------------------|-----------------|
A|-----------------6---------------|---------------------------------|-----------------|
E|-5---5--5----5-----------3-------|-5---5--5----5---6---8---6---8---|-5---5--5----5---|


G|---------------------|---------------------|--------------------|--------------------|
D|---------------------|---------------------|--------------------|--------------------|
A|---------------------|----------------8----|----------7---------|---------7----------|
E|-0----2----3----5----|-7----5----9---------|-9----10------------|-7---9--------7-----|


G|-----------------------------|---------------------|--------|--------|-----------------------------|
D|-----------------------------|---------------------|--------|--------|-----------------------------|
A|-7----7----7---7----7----7---|-7-------------------|--------|--------|-----------------------------|
E|-----------------------------|------10---8----3----|-4------|-4------|-5----5----5---5----5----5---|


G|-----------------------------|-----------------------------|-------------------------|
D|-----------------------------|-----------------------------|-------------------------|
A|-8----8----8---8----8----8---|-10---10---10--10---10---10--|-3----3----3---3----2----|
E|-----------------------------|-----------------------------|-------------------------|


G|-----------------------------|-----------------------------|-----------------------------|
D|-----------------------------|-----------------------------|-----------------------------|
A|-----------------------------|-8----8----8---8----8----8---|-10---10---10--10---10---10--|
E|-5----5----5---5----5----5---|-----------------------------|-----------------------------|


G|-----------------------------|-----------------------------|-----------------------------|
D|-----------------------------|-----------------------------|-----------------------------|
A|-7----7----7---7----7----7---|-----------------------------|-8----8----8---8----8----8---|
E|-----------------------------|-5----5----5---5----5----5---|-----------------------------|


G|-----------------------------|-----------------------------|-----------------------------|
D|-----------------------------|-----------------------------|-----------------------------|
A|-10---10---10--10---10---10--|-3----3----3---3----3----3---|-----------------------------|
E|-----------------------------|-----------------------------|-5----5----5---5----5----5---|


G|-----------------------------|-----------------------------|-----------------------------|
D|-----------------------------|-----------------------------|-----------------------------|
A|-8----8----8---8----8----8---|-10---10---10--10---10---10--|-3----3----3---3----3----3---|
E|-----------------------------|-----------------------------|-----------------------------|


G|-----------------------------|-----------------------------|-----------------------------|
D|-----------------------------|-----------------------------|-----------------------------|
A|-----------------------------|-8----8----8---8----8----8---|-10---10---10--10---10---10--|
E|-5----5----5---5----5----5---|-----------------------------|-----------------------------|


G|-----------------------------|-----------------------------|-----------------------------|
D|-----------------------------|-----------------------------|-----------------------------|
A|-3----3----3---3----3----3---|-----------------------------|-8----8----8---8----8----8---|
E|-----------------------------|-5----5----5---5----5----5---|-----------------------------|


G|-----------------------------|-----------------------------|-----------------------------|
D|-----------------------------|-----------------------------|-----------------------------|
A|-10---10---10--10---10---10--|-3----3----3---3----3----3---|-----------------------------|
E|-----------------------------|-----------------------------|-5----5----5---5----5----5---|


G|-----------------------------|-----------------------------|-----------------------------|
D|-----------------------------|-----------------------------|-----------------------------|
A|-8----8----8---8----8----8---|-10---10---10--10---10---10--|-3----3----3---3----3----3---|
E|-----------------------------|-----------------------------|-----------------------------|


G|-----------------------------|-----------------------------|-----------------------------|
D|-----------------------------|-----------------------------|-----------------------------|
A|-----------------------------|-8----8----8---8----8----8---|-10---10---10--10---10---10--|
E|-5----5----5---5----5----5---|-----------------------------|-----------------------------|


G|-----------------------------|-----------------------------|-----------------------------|
D|-----------------------------|-----------------------------|-----------------------------|
A|-3----3----3---3----3----3---|-----------------------------|-8----8----8---8----8----8---|
E|-----------------------------|-5----5----5---5----5----5---|-----------------------------|


G|-----------------------------|-----------------------------|-----------------------------|
D|-----------------------------|-----------------------------|-----------------------------|
A|-10---10---10--10---10---10--|-3----3----3---3----3----3---|-----------------------------|
E|-----------------------------|-----------------------------|-5----5----5---5----5----5---|


G|-----------------------------|-----------------------------|-----------------------------|
D|-----------------------------|-----------------------------|-----------------------------|
A|-8----8----8---8----8----8---|-10---10---10--10---10---10--|-3----3----3---3----3----3---|
E|-----------------------------|-----------------------------|-----------------------------|


G|--------------------------------|--------------------------------|--------------------------------|
D|--------------------------------|--------------------------------|--------------------------------|
A|--------------------------------|--------------------------------|--------------------------------|
E|-5---5--5---5--5---5------------|-1---1--1---1--1---1------------|-3---3--3---3--3---3------------|









Track 3: Drums
Back to top
C|-------------------------------------|-------------------------------------|-------------------------------------|
C|-------------------------------------|-------------------------------------|-------------------------------------|
C|-------------------------------------|-------------------------------------|-------------------------------------|
C|-40--40-40-40-40-40------------------|-40--40-40-40-40-40------------------|-40--40-40-40-40-40------------------|
C|-----------------36--36--36--36--36--|-----------------36--36--36--36--36--|-----------------36--36--36--36--36--|
C|-------------------------------------|-------------------------------------|-------------------------------------|


C|-----------------------------------------------|-49----------------------------------|
C|-----------------------------------------------|-57--53--------53------53--------53--|
C|-----------------------------------------------|-------------------------------------|
C|-40--40-40-40-40-40-40-40-40-40-40-45-45-45-45-|-----40--------40------40--------40--|
C|-----------------------------------------------|-36-----36--36-----36-----36--36-----|
C|-----------------------------------------------|-------------------------------------|


C|-------------------------------------|-------------------------------------|-------------------------------------------|
C|-----53--------53------53--------53--|-----53--------53------53--------53--|-----53--------53--------------------------|
C|-------------------------------------|-------------------------------------|-------------------------------------------|
C|-----40--------40------40--------40--|-----40--------40------40--------40--|-----40--------40--40-40-40-40-40-40-40-40-|
C|-36-----36--36-----36-----36--36-----|-36-----36--36-----36-----36--36-----|-36-----36--36-----------------------------|
C|-------------------------------------|-------------------------------------|-------------------------------------------|


C|-49----------------------------------|-------------------------------------|-49----------------------------------|
C|-57--53--------53------53--------53--|-----53--------53------53--------53--|-57--53--------53------53--------53--|
C|-------------------------------------|-------------------------------------|-------------------------------------|
C|-----40--------40------40--------40--|-----40--------40------40--------40--|-----40--------40------40--------40--|
C|-36-----36--36-----36-----36--36-----|-36-----36--36-----36-----36--36-----|-36-----36--36-----36-----36--36-----|
C|-------------------------------------|-------------------------------------|-------------------------------------|


C|-------------------------------------|-49----------------------------------|-------------------------------------|
C|-----53--------53------53--------53--|-57--53--------53------53--------53--|-----53--------53------53--------53--|
C|-------------------------------------|-------------------------------------|-------------------------------------|
C|-----40--------40------40--------40--|-----40--------40------40--------40--|-----40--------40------40--------40--|
C|-36-----36--36-----36-----36--36-----|-36-----36--36-----36-----36--36-----|-36-----36--36-----36-----36--36-----|
C|-------------------------------------|-------------------------------------|-------------------------------------|


C|-49----------------------------------|---------------------------------------|-49----------------------------------|
C|-57--53--------53------53--------53--|-----53--------53----------------------|-57--53--------53------53--------53--|
C|-------------------------------------|---------------------------------------|-------------------------------------|
C|-----40--------40------40--------40--|-----40--------40--40--40-40-40-40-45--|-----40--------40------40--------40--|
C|-36-----36--36-----36-----36--36-----|-36-----36--36-------------------------|-36-----36--36-----36-----36--36-----|
C|-------------------------------------|---------------------------------------|-------------------------------------|


C|-------------------------------------|-49----------------------------------|-------------------------------------|
C|-----53--------53------53--------53--|-57--53--------53------53--------53--|-----53--------53------53--------53--|
C|-------------------------------------|-------------------------------------|-------------------------------------|
C|-----40--------40------40--------40--|-----40--------40------40--------40--|-----40--------40------40--------40--|
C|-36-----36--36-----36-----36--36-----|-36-----36--36-----36-----36--36-----|-36-----36--36-----36-----36--36-----|
C|-------------------------------------|-------------------------------------|-------------------------------------|


C|-49----------------------------------|-------------------------------------|-49----------------49----------------|
C|-57--53--------53------53--------53--|-----53--------53------53--------53--|-57--53--------53--57--53--------53--|
C|-------------------------------------|-------------------------------------|-------------------------------------|
C|-----40--------40------40--------40--|-----40--------40------40--------40--|-----40--------40------40--------40--|
C|-36-----36--36-----36-----36--36-----|-36-----36--36-----36-----36--36-----|-36-----36--36-----36-----36--36-----|
C|-------------------------------------|-------------------------------------|-------------------------------------|


C|-49----------------------------------------|-49----------------------------------|
C|-57--53--------53--------------------------|-57-----57-----42------42--------42--|
C|-------------------------------------------|-------------------------------------|
C|-----40--------40--40-40-40-40-45-45-45-45-|-----40--------40------40--------40--|
C|-36-----36--36-----------------------------|-36-----36--36-----36-----36--36-----|
C|-------------------------------------------|-------------------------------------|


C|-------------------------|-49----------------------------------|-------------------------|
C|-----42--------42--42----|-57--42--------42------42--------42--|-----42--------42--42----|
C|-------------------41----|-------------------------------------|-------------------41----|
C|-----40--------40--47----|-----40--------40------40--------40--|-----40--------40--47----|
C|-36-----36--36-----36----|-36-----36--36-----36-----36--36-----|-36-----36--36-----36----|
C|-------------------------|-------------------------------------|-------------------------|


C|-------|-49----------------------------------|-------------------|---------------------------------|
C|-------|-57-----57-----42------42--------42--|-----42--------42--|-----42------42------42------42--|
C|-42----|-------------------------------------|-------------------|---------------------------------|
C|-47----|-----40--------40------40--------40--|-----40--------40--|---------40--------------40------|
C|-41----|-36-----36--36-----36-----36--36-----|-36-----36--36-----|-36--------------36--------------|
C|-36----|-------------------------------------|-------------------|---------------------------------|


C|---------------------------------|---------------------------------|---------------------------------|
C|-----42------42------42------42--|-----42------42------42------42--|-----42------42------42------42--|
C|---------------------------------|---------------------------------|---------------------------------|
C|---------40--------------40------|---------40--------------40------|---------40--------------40------|
C|-36--------------36--------------|-36--------------36--------------|-36--------------36--------------|
C|---------------------------------|---------------------------------|---------------------------------|


C|-------------------------------------|-------------------------------------|-------------------------------------|
C|-----42--------42------42--------42--|-----42--------42------42--------42--|-----42--------42------42--------42--|
C|-------------------------------------|-------------------------------------|-------------------------------------|
C|-----40--------40------40--------40--|-----40--------40------40--------40--|-----40--------40------40--------40--|
C|-36-----36--36-----36-----36--36-----|-36-----36--36-----36-----36--36-----|-36-----36--36-----36-----36--36-----|
C|-------------------------------------|-------------------------------------|-------------------------------------|


C|-------------------------------------------|-49----------------------------------|
C|-----42--------42--------------------------|-57--53--------53------53--------53--|
C|-------------------------------------------|-------------------------------------|
C|-----40--------40--40-40-40-40-45-45-45-45-|-----40--------40------40--------40--|
C|-36-----36--36-----------------------------|-36-----36--36-----36-----36--36-----|
C|-------------------------------------------|-------------------------------------|


C|-------------------------------------|-49----------------------------------|---------------------------------------------|
C|-----53--------53------53--------53--|-57--53--------53------53--------53--|---------------------------------------------|
C|-------------------------------------|-------------------------------------|---------------------------------------------|
C|-----40--------40------40--------40--|-----40--------40------40--------40--|-40-40-45-45-40------40-40-45-45-40-45-45-45-|
C|-36-----36--36-----36-----36--36-----|-36-----36--36-----36-----36--36-----|-----------------36--------------------------|
C|-------------------------------------|-------------------------------------|---------------------------------------------|


C|-49----------------------------------|-------------------------------------|-49----------------------------------|
C|-57--53--------53------53--------53--|-----53--------53------53--------53--|-57--53--------53------53--------53--|
C|-------------------------------------|-------------------------------------|-------------------------------------|
C|-----40--------40------40--------40--|-----40--------40------40--------40--|-----40--------40------40--------40--|
C|-36-----36--36-----36-----36--36-----|-36-----36--36-----36-----36--36-----|-36-----36--36-----36-----36--36-----|
C|-------------------------------------|-------------------------------------|-------------------------------------|


C|-----------------------------------------|-49----------------------------------|
C|-----53--------53------------------------|-57--53--------53------53--------53--|
C|-----------------------------------------|-------------------------------------|
C|-----40--------40--40--40-40-40-40-40-40-|-----40--------40------40--------40--|
C|-36-----36--36---------------------------|-36-----36--36-----36-----36--36-----|
C|-----------------------------------------|-------------------------------------|


C|-------------------------------------|-49----------------------------------|-------------------------------------|
C|-----53--------53------53--------53--|-57--53--------53------53--------53--|-----53--------53------53--------53--|
C|-------------------------------------|-------------------------------------|-------------------------------------|
C|-----40--------40------40--------40--|-----40--------40------40--------40--|-----40--------40------40--------40--|
C|-36-----36--36-----36-----36--36-----|-36-----36--36-----36-----36--36-----|-36-----36--36-----36-----36--36-----|
C|-------------------------------------|-------------------------------------|-------------------------------------|


C|-49----------------------------------|-------------------------------------|-49----------------49----------------|
C|-57--53--------53------53--------53--|-----53--------53------53--------53--|-57--53--------53--57--53--------53--|
C|-------------------------------------|-------------------------------------|-------------------------------------|
C|-----40--------40------40--------40--|-----40--------40------40--------40--|-----40--------40------40--------40--|
C|-36-----36--36-----36-----36--36-----|-36-----36--36-----36-----36--36-----|-36-----36--36-----36-----36--36-----|
C|-------------------------------------|-------------------------------------|-------------------------------------|


C|-49----------------------------------------|-49----------------------------------|
C|-57--53--------53--------------------------|-57--53--------53------53--------53--|
C|-------------------------------------------|-------------------------------------|
C|-----40--------40--40-40-40-40-45-45-45-45-|-----40--------40------40--------40--|
C|-36-----36--36-----------------------------|-36-----36--36-----36-----36--36-----|
C|-------------------------------------------|-------------------------------------|


C|-------------------------------------|-49----------------------------------|-------------------------------------|
C|-----53--------53------53--------53--|-57--53--------53------53--------53--|-----53--------53------53--------53--|
C|-------------------------------------|-------------------------------------|-------------------------------------|
C|-----40--------40------40--------40--|-----40--------40------40--------40--|-----40--------40------40--------40--|
C|-36-----36--36-----36-----36--36-----|-36-----36--36-----36-----36--36-----|-36-----36--36-----36-----36--36-----|
C|-------------------------------------|-------------------------------------|-------------------------------------|


C|-49----------------------------------|-------------------------------------|-49----------------49----------------|
C|-57--53--------53------53--------53--|-----53--------53------53--------53--|-57--53--------53--57--53--------53--|
C|-------------------------------------|-------------------------------------|-------------------------------------|
C|-----40--------40------40--------40--|-----40--------40------40--------40--|-----40--------40------40--------40--|
C|-36-----36--36-----36-----36--36-----|-36-----36--36-----36-----36--36-----|-36-----36--36-----36-----36--36-----|
C|-------------------------------------|-------------------------------------|-------------------------------------|


C|-49----------------------------------------|-49----------------------------------|
C|-57--53--------53--------------------------|-57-----57-----42------42--------42--|
C|-------------------------------------------|-------------------------------------|
C|-----40--------40--40-40-40-40-45-45-45-45-|-----40--------40------40--------40--|
C|-36-----36--36-----------------------------|-36-----36--36-----36-----36--36-----|
C|-------------------------------------------|-------------------------------------|


C|-------------------------|-49----------------------------------|-----------------------------|
C|-----42--------42--42----|-57--42--------42------42--------42--|-----42--------42--42---42---|
C|-------------------41----|-------------------------------------|-------------------41---41---|
C|-----40--------40--47----|-----40--------40------40--------40--|-----40--------40--47---47---|
C|-36-----36--36-----36----|-36-----36--36-----36-----36--36-----|-36-----36--36-----36---36---|
C|-------------------------|-------------------------------------|-----------------------------|


C|-49----------------------------------|-------------------|---------------------------------|
C|-57-----57-----42------42--------42--|-----42--------42--|-----42------42------42------42--|
C|-------------------------------------|-------------------|---------------------------------|
C|-----40--------40------40--------40--|-----40--------40--|---------40--------------40------|
C|-36-----36--36-----36-----36--36-----|-36-----36--36-----|-36--------------36--------------|
C|-------------------------------------|-------------------|---------------------------------|


C|---------------------------------|---------------------------------|---------------------------------|
C|-----42------42------42------42--|-----42------42------42------42--|-----42------42------42------42--|
C|---------------------------------|---------------------------------|---------------------------------|
C|---------40--------------40------|---------40--------------40------|---------40--------------40------|
C|-36--------------36--------------|-36--------------36--------------|-36--------------36--------------|
C|---------------------------------|---------------------------------|---------------------------------|


C|-------------------------------------|-------------------------------------|-------------------------------------|
C|-----42--------42------42--------42--|-----42--------42------42--------42--|-----42--------42------42--------42--|
C|-------------------------------------|-------------------------------------|-------------------------------------|
C|-----40--------40------40--------40--|-----40--------40------40--------40--|-----40--------40------40--------40--|
C|-36-----36--36-----36-----36--36-----|-36-----36--36-----36-----36--36-----|-36-----36--36-----36-----36--36-----|
C|-------------------------------------|-------------------------------------|-------------------------------------|


C|---------------------------------------------|-49----------------------------------|
C|---------------------------------------------|-57--53--------53------53--------53--|
C|---------------------------------------------|-------------------------------------|
C|-40-40-----40--40-40-40-40-40-40-40-40-45-45-|-----40--------40------40--------40--|
C|-------36------------------------------------|-36-----36--36-----36-----36--36-----|
C|---------------------------------------------|-------------------------------------|


C|-------------------------------------|-49----------------------------------|---------------------------------------------|
C|-----53--------53------53--------53--|-57--53--------53------53--------53--|---------------------------------------------|
C|-------------------------------------|-------------------------------------|---------------------------------------------|
C|-----40--------40------40--------40--|-----40--------40------40--------40--|-40-40-45-45-40------40-40-45-45-40-45-45-45-|
C|-36-----36--36-----36-----36--36-----|-36-----36--36-----36-----36--36-----|-----------------36--------------------------|
C|-------------------------------------|-------------------------------------|---------------------------------------------|


C|-49----------------------------------|-------------------------------------|-49----------------------------------|
C|-57--53--------53------53--------53--|-----53--------53------53--------53--|-57--53--------53------53--------53--|
C|-------------------------------------|-------------------------------------|-------------------------------------|
C|-----40--------40------40--------40--|-----40--------40------40--------40--|-----40--------40------40--------40--|
C|-36-----36--36-----36-----36--36-----|-36-----36--36-----36-----36--36-----|-36-----36--36-----36-----36--36-----|
C|-------------------------------------|-------------------------------------|-------------------------------------|


C|-----------------------------------------|-49----------------------------------|
C|-----53--------53------------------------|-57--53--------53------53--------53--|
C|-----------------------------------------|-------------------------------------|
C|-----40--------40--40--40-40-40-40-40-40-|-----40--------40------40--------40--|
C|-36-----36--36---------------------------|-36-----36--36-----36-----36--36-----|
C|-----------------------------------------|-------------------------------------|


C|-------------------------------------|-49----------------------------------|---------------------------------------------|
C|-----53--------53------53--------53--|-57--53--------53------53--------53--|---------------------------------------------|
C|-------------------------------------|-------------------------------------|---------------------------------------------|
C|-----40--------40------40--------40--|-----40--------40------40--------40--|-40-40-45-45-40------40-40-45-45-40-45-45-45-|
C|-36-----36--36-----36-----36--36-----|-36-----36--36-----36-----36--36-----|-----------------36--------------------------|
C|-------------------------------------|-------------------------------------|---------------------------------------------|


C|-49----------------------------------|-------------------------------------|-49----------------------------------|
C|-57--53--------53------53--------53--|-----53--------53------53--------53--|-57--53--------53------53--------53--|
C|-------------------------------------|-------------------------------------|-------------------------------------|
C|-----40--------40------40--------40--|-----40--------40------40--------40--|-----40--------40------40--------40--|
C|-36-----36--36-----36-----36--36-----|-36-----36--36-----36-----36--36-----|-36-----36--36-----36-----36--36-----|
C|-------------------------------------|-------------------------------------|-------------------------------------|


C|-----------------------------------------|-49----------------------------------|
C|-----53--------53------------------------|-57--53--------53------53--------53--|
C|-----------------------------------------|-------------------------------------|
C|-----40--------40--40--40-40-40-40-40-40-|-----40--------40------40--------40--|
C|-36-----36--36---------------------------|-36-----36--36-----36-----36--36-----|
C|-----------------------------------------|-------------------------------------|


C|-------------------------------------|-49----------------------------------|---------------------------------------------|
C|-----53--------53------53--------53--|-57--53--------53------53--------53--|---------------------------------------------|
C|-------------------------------------|-------------------------------------|---------------------------------------------|
C|-----40--------40------40--------40--|-----40--------40------40--------40--|-40-40-45-45-40------40-40-45-45-40-45-45-45-|
C|-36-----36--36-----36-----36--36-----|-36-----36--36-----36-----36--36-----|-----------------36--------------------------|
C|-------------------------------------|-------------------------------------|---------------------------------------------|


C|-49----------------------------------|-------------------------------------|-49----------------------------------|
C|-57--53--------53------53--------53--|-----53--------53------53--------53--|-57--53--------53------53--------53--|
C|-------------------------------------|-------------------------------------|-------------------------------------|
C|-----40--------40------40--------40--|-----40--------40------40--------40--|-----40--------40------40--------40--|
C|-36-----36--36-----36-----36--36-----|-36-----36--36-----36-----36--36-----|-36-----36--36-----36-----36--36-----|
C|-------------------------------------|-------------------------------------|-------------------------------------|


C|-----------------------------------------|-49----------------------------------|
C|-----53--------53------------------------|-57--53--------53------53--------53--|
C|-----------------------------------------|-------------------------------------|
C|-----40--------40--40--40-40-40-40-40-40-|-----40--------40------40--------40--|
C|-36-----36--36---------------------------|-36-----36--36-----36-----36--36-----|
C|-----------------------------------------|-------------------------------------|


C|-------------------------------------------|-49----------------------------------|
C|-----53--------53--------------------------|-57--53--------53------53--------53--|
C|-------------------41-------41-41-41----41-|-------------------------------------|
C|-----40--------40--40----47-45-40-47-47-45-|-----40--------40------40--------40--|
C|-36-----36--36--------36----------36-------|-36-----36--36-----36-----36--36-----|
C|-------------------------------------------|-------------------------------------|


C|---------------------------------------------------|-49----------------------------------|
C|---------------------------------------------------|-57--53--------53------53--------53--|
C|----------------------41--41-----------------------|-------------------------------------|
C|-40404040404040-40-40-47--47-404040----40-40-40-40-|-----40--------40------40--------40--|
C|------------------------------------36-------------|-36-----36--36-----36-----36--36-----|
C|---------------------------------------------------|-------------------------------------|


C|-49----------------------------------|-49----------------------------------|---------------------------------------------|
C|-57--53--------53------53--------53--|-57--53--------53------53--------53--|---------------------------------------------|
C|-------------------------------------|-------------------------------------|---------------------------------------------|
C|-----40--------40------40--------40--|-----40--------40------40--------40--|-4040--40-------40--40--40-40-40-45-45-45-45-|
C|-36-----36--36-----36-----36--36-----|-36-----36--36-----36-----36--36-----|----------36-36------------------------------|
C|-------------------------------------|-------------------------------------|---------------------------------------------|


C|-49--57--------57--------------------|-49----------------------------------|-49--57--------57--------------------|
C|-57--------------------57--------57--|-57--57--------57------57--------57--|-57--------------------57--------57--|
C|-------------------------------------|-------------------------------------|-------------------------------------|
C|-----40--------40------40--------40--|-----40--------40------40--------40--|-----40--------40------40--------40--|
C|-36-----36--36-----36-----36--36-----|-36-----36--36-----36-----36--36-----|-36-----36--36-----36-----36--36-----|
C|-------------------------------------|-------------------------------------|-------------------------------------|


C|-49----------------------------------|-49----------------------------------|-49----------------------------------|
C|-57--57--------57------57--------57--|-57--57--------57------57--------57--|-57--57--------57------57--------57--|
C|-------------------------------------|-------------------------------------|-------------------------------------|
C|-----40--------40------40--------40--|-----40--------40------40--------40--|-----40--------40------40--------40--|
C|-36-----36--36-----36-----36--36-----|-36-----36--36-----36-----36--36-----|-36-----36--36-----36-----36--36-----|
C|-------------------------------------|-------------------------------------|-------------------------------------|


C|-49----------------------------------|-----------------------------------------|
C|-57--57--------57------57--------57--|-----57--------57------------------------|
C|-------------------------------------|-----------------------------------------|
C|-----40--------40------40--------40--|-----40--------40--40--40-40-40-40-40-40-|
C|-36-----36--36-----36-----36--36-----|-36-----36--36---------------------------|
C|-------------------------------------|-----------------------------------------|


C|-------------------------------------------|-------------------------------------------|
C|-------------------------------------------|-------------------------------------------|
C|-------------------------------------------|-------------------------------------------|
C|-40--40-40--40-40--45-45-43-43-40-40-45-45-|-40--40-40--40-40--45-45-43-43-40-40-45-45-|
C|-------------------------------------------|-------------------------------------------|
C|-------------------------------------------|-------------------------------------------|


C|-------------------------|
C|-------------------------|
C|-------------------------|
C|-40--40-40--40-40--40----|
C|-------------------41----|
C|-------------------------|



← Back to top