Born in the U.S.A

by Bruce Springsteen

Guitar Pro Tab  |  v4.06  |  Posted on March 29, 2007, 11:10 a.m. ← Back

Guitar Pro Tab Summary

Album

Born in the U.S.A

Song Author

Sam & Dad

Tabbed by

unknown

Instruments

1st → Guitar Lead Riff
2nd → Main Chords
3rd → Lead Riff
4th → Vocals
5th → Synth Bass
6th → Piano
7th → Finger Bass
8th → Drums
9th → Chords

File Size

56 KB

Views

370

Lyrics

Born down in a dead man's town The first kick I took was when+I hit the ground You end up like a dog that's+been beat too much Till you spend half your life just cov-er-ing up now Born in the U-S-A. I was born in the U-S-A. I was born in the U-S-A. Born in the U-S-A. Got in a lit-tle home+town jam So they put a ri-fle in my ha-nd Sent+me off to a for-eign land To go and kill the yel-low man Born in the U-S-A. I was born in the U-S-A. I was born in the U-S-A. I was born in the U-S-A. Come+back home to the re-fin-er-y Hir-ing man says "Son+if it was up to m-e" Went down+to see my V-A man He said "Son, don't+you un-der-stand"+now Oh yeah No no No no no I had a bro-ther at Khe Sahn fight-ing off the Vi-et Co-ng They're still+there, he's all gone He had a wo-man he loved in Sai-gon I got a pict-ure of him in her arms now Down+in the sha-dow of the peni-tent-iary Out by the gas fires of the ref-in-er-y I'm ten years burn-ing down+the road No-where+to run ain't got nowhere+to go Born in the U-S-A. I was born in the U-S-A. Born in the U-S-A. I'm+a long+gone Dad-dy in the U-S-A. Born in the U-S-A. Born in the U-S-A. Born in the U-S-A. I'm a cool rock-ing Dad-dy in the U-S-A. Oh yeah No no no No no no No no no No no no

Tablature Sheet

Title: Born in the U.S.A
Artist: Bruce Springsteen
Album: Born in the U.S.A
Author: Sam & Dad






Track 1: Guitar Lead Riff
Back to top
E|------2-----0---2---|-4---0----2-----2---|------2-----0---2---|-4---0----2-----2---|
B|------0-----0---0---|-0---0----0-----0---|------0-----0---0---|-0---0----0-----0---|
G|--------------------|--------------------|--------------------|--------------------|
D|--------------------|--------------------|--------------------|--------------------|
A|--------------------|--------------------|--------------------|--------------------|
E|--------------------|--------------------|--------------------|--------------------|


E|------2-----0---2---|-4---0----2-----2---|------2-----0---2---|-4---0----2-----2---|
B|------0-----0---0---|-0---0----0-----0---|------0-----0---0---|-0---0----0-----0---|
G|--------------------|--------------------|--------------------|--------------------|
D|--------------------|--------------------|--------------------|--------------------|
A|--------------------|--------------------|--------------------|--------------------|
E|--------------------|--------------------|--------------------|--------------------|


E|------2-----0---2---|-4---0----2-----2---|------2-----0---2---|-4---0----2-----2---|
B|------0-----0---0---|-0---0----0-----0---|------0-----0---0---|-0---0----0-----0---|
G|--------------------|--------------------|--------------------|--------------------|
D|--------------------|--------------------|--------------------|--------------------|
A|--------------------|--------------------|--------------------|--------------------|
E|--------------------|--------------------|--------------------|--------------------|


E|------2-----0---2---|-4---0----2-----2---|------2-----0---2---|-4---0----2-----2---|
B|------0-----0---0---|-0---0----0-----0---|------0-----0---0---|-0---0----0-----0---|
G|--------------------|--------------------|--------------------|--------------------|
D|--------------------|--------------------|--------------------|--------------------|
A|--------------------|--------------------|--------------------|--------------------|
E|--------------------|--------------------|--------------------|--------------------|


E|------2-----0---2---|-4---0----2-----2---|------2-----0---2---|-4---0----2-----2---|
B|------0-----0---0---|-0---0----0-----0---|------0-----0---0---|-0---0----0-----0---|
G|--------------------|--------------------|--------------------|--------------------|
D|--------------------|--------------------|--------------------|--------------------|
A|--------------------|--------------------|--------------------|--------------------|
E|--------------------|--------------------|--------------------|--------------------|


E|------2-----0---2---|-4---0----2-----2---|------2-----0---2---|-4---0----2-----2---|
B|------0-----0---0---|-0---0----0-----0---|------0-----0---0---|-0---0----0-----0---|
G|--------------------|--------------------|--------------------|--------------------|
D|--------------------|--------------------|--------------------|--------------------|
A|--------------------|--------------------|--------------------|--------------------|
E|--------------------|--------------------|--------------------|--------------------|


E|------2-----0---2---|-4---0----2-----2---|------2-----0---2---|-4---0----2-----2---|
B|------0-----0---0---|-0---0----0-----0---|------0-----0---0---|-0---0----0-----0---|
G|--------------------|--------------------|--------------------|--------------------|
D|--------------------|--------------------|--------------------|--------------------|
A|--------------------|--------------------|--------------------|--------------------|
E|--------------------|--------------------|--------------------|--------------------|


E|------2-----0---2---|-4---0----2-----2---|------2-----0---2---|-4---0----2-----2---|
B|------0-----0---0---|-0---0----0-----0---|------0-----0---0---|-0---0----0-----0---|
G|--------------------|--------------------|--------------------|--------------------|
D|--------------------|--------------------|--------------------|--------------------|
A|--------------------|--------------------|--------------------|--------------------|
E|--------------------|--------------------|--------------------|--------------------|


E|------2-----0---2---|-4---0----2-----2---|------2-----0---2---|-4---0----2-----2---|
B|------0-----0---0---|-0---0----0-----0---|------0-----0---0---|-0---0----0-----0---|
G|--------------------|--------------------|--------------------|--------------------|
D|--------------------|--------------------|--------------------|--------------------|
A|--------------------|--------------------|--------------------|--------------------|
E|--------------------|--------------------|--------------------|--------------------|


E|------2-----0---2---|-4---0----2-----2---|------2-----0---2---|-4---0----2-----2---|
B|------0-----0---0---|-0---0----0-----0---|------0-----0---0---|-0---0----0-----0---|
G|--------------------|--------------------|--------------------|--------------------|
D|--------------------|--------------------|--------------------|--------------------|
A|--------------------|--------------------|--------------------|--------------------|
E|--------------------|--------------------|--------------------|--------------------|


E|------2-----0---2---|-4---0----2-----2---|------2-----0---2---|-4---0----2-----2---|
B|------0-----0---0---|-0---0----0-----0---|------0-----0---0---|-0---0----0-----0---|
G|--------------------|--------------------|--------------------|--------------------|
D|--------------------|--------------------|--------------------|--------------------|
A|--------------------|--------------------|--------------------|--------------------|
E|--------------------|--------------------|--------------------|--------------------|


E|------2-----0---2---|-4---0----2-----2---|------2-----0---2---|-4---0----2-----2---|
B|------0-----0---0---|-0---0----0-----0---|------0-----0---0---|-0---0----0-----0---|
G|--------------------|--------------------|--------------------|--------------------|
D|--------------------|--------------------|--------------------|--------------------|
A|--------------------|--------------------|--------------------|--------------------|
E|--------------------|--------------------|--------------------|--------------------|


E|------2-----0---2---|-4---0----2-----2---|------2-----0---2---|-4---0----2-----2---|
B|------0-----0---0---|-0---0----0-----0---|------0-----0---0---|-0---0----0-----0---|
G|--------------------|--------------------|--------------------|--------------------|
D|--------------------|--------------------|--------------------|--------------------|
A|--------------------|--------------------|--------------------|--------------------|
E|--------------------|--------------------|--------------------|--------------------|


E|------2-----0---2---|-4---0----2-----2---|------2-----0---2---|-4---0----2-----2---|
B|------0-----0---0---|-0---0----0-----0---|------0-----0---0---|-0---0----0-----0---|
G|--------------------|--------------------|--------------------|--------------------|
D|--------------------|--------------------|--------------------|--------------------|
A|--------------------|--------------------|--------------------|--------------------|
E|--------------------|--------------------|--------------------|--------------------|


E|------2-----0---2---|-4---0----2-----2---|------2-----0---2---|-4---0----2-----2---|
B|------0-----0---0---|-0---0----0-----0---|------0-----0---0---|-0---0----0-----0---|
G|--------------------|--------------------|--------------------|--------------------|
D|--------------------|--------------------|--------------------|--------------------|
A|--------------------|--------------------|--------------------|--------------------|
E|--------------------|--------------------|--------------------|--------------------|


E|------2-----0---2---|-4---0----2-----2---|------2-----0---2---|-4---0----2-----2---|
B|------0-----0---0---|-0---0----0-----0---|------0-----0---0---|-0---0----0-----0---|
G|--------------------|--------------------|--------------------|--------------------|
D|--------------------|--------------------|--------------------|--------------------|
A|--------------------|--------------------|--------------------|--------------------|
E|--------------------|--------------------|--------------------|--------------------|


E|------2-----0---2---|-4---0----2-----2---|------2-----0---2---|-4---0----2-----2---|
B|------0-----0---0---|-0---0----0-----0---|------0-----0---0---|-0---0----0-----0---|
G|--------------------|--------------------|--------------------|--------------------|
D|--------------------|--------------------|--------------------|--------------------|
A|--------------------|--------------------|--------------------|--------------------|
E|--------------------|--------------------|--------------------|--------------------|


E|------2-----0---2---|-4---0----2-----2---|------2-----0---2---|-4---0----2-----2---|
B|------0-----0---0---|-0---0----0-----0---|------0-----0---0---|-0---0----0-----0---|
G|--------------------|--------------------|--------------------|--------------------|
D|--------------------|--------------------|--------------------|--------------------|
A|--------------------|--------------------|--------------------|--------------------|
E|--------------------|--------------------|--------------------|--------------------|


E|------2-----0---2---|-4---0----2-----2---|------2-----0---2---|-4---0----2-----2---|
B|------0-----0---0---|-0---0----0-----0---|------0-----0---0---|-0---0----0-----0---|
G|--------------------|--------------------|--------------------|--------------------|
D|--------------------|--------------------|--------------------|--------------------|
A|--------------------|--------------------|--------------------|--------------------|
E|--------------------|--------------------|--------------------|--------------------|


E|------2-----0---2---|-4---0----2-----2---|------2-----0---2---|-4---0----2-----2---|
B|------0-----0---0---|-0---0----0-----0---|------0-----0---0---|-0---0----0-----0---|
G|--------------------|--------------------|--------------------|--------------------|
D|--------------------|--------------------|--------------------|--------------------|
A|--------------------|--------------------|--------------------|--------------------|
E|--------------------|--------------------|--------------------|--------------------|


E|------2-----0---2---|-4---0----2-----2---|------2-----0---2---|-4---0----2-----2---|
B|------0-----0---0---|-0---0----0-----0---|------0-----0---0---|-0---0----0-----0---|
G|--------------------|--------------------|--------------------|--------------------|
D|--------------------|--------------------|--------------------|--------------------|
A|--------------------|--------------------|--------------------|--------------------|
E|--------------------|--------------------|--------------------|--------------------|


E|------2-----0---2---|-4---0----2-----2---|------2-----0---2---|-4---0----2-----2---|
B|------0-----0---0---|-0---0----0-----0---|------0-----0---0---|-0---0----0-----0---|
G|--------------------|--------------------|--------------------|--------------------|
D|--------------------|--------------------|--------------------|--------------------|
A|--------------------|--------------------|--------------------|--------------------|
E|--------------------|--------------------|--------------------|--------------------|


E|------2-----0---2---|-4---0----2-----2---|------2-----0---2---|-4---0----2-----2---|
B|------0-----0---0---|-0---0----0-----0---|------0-----0---0---|-0---0----0-----0---|
G|--------------------|--------------------|--------------------|--------------------|
D|--------------------|--------------------|--------------------|--------------------|
A|--------------------|--------------------|--------------------|--------------------|
E|--------------------|--------------------|--------------------|--------------------|


E|------2-----0---2---|-4---0----2-----2---|------2-----0---2---|-4---0----2-----2---|
B|------0-----0---0---|-0---0----0-----0---|------0-----0---0---|-0---0----0-----0---|
G|--------------------|--------------------|--------------------|--------------------|
D|--------------------|--------------------|--------------------|--------------------|
A|--------------------|--------------------|--------------------|--------------------|
E|--------------------|--------------------|--------------------|--------------------|


E|------2-----0---2---|-4---0----2-----2---|------2-----0---2---|-4---0----2-----2---|
B|------0-----0---0---|-0---0----0-----0---|------0-----0---0---|-0---0----0-----0---|
G|--------------------|--------------------|--------------------|--------------------|
D|--------------------|--------------------|--------------------|--------------------|
A|--------------------|--------------------|--------------------|--------------------|
E|--------------------|--------------------|--------------------|--------------------|


E|------2-----0---2---|-4---0----2-----2---|------2-----0---2---|-4---0----2-----2---|
B|------0-----0---0---|-0---0----0-----0---|------0-----0---0---|-0---0----0-----0---|
G|--------------------|--------------------|--------------------|--------------------|
D|--------------------|--------------------|--------------------|--------------------|
A|--------------------|--------------------|--------------------|--------------------|
E|--------------------|--------------------|--------------------|--------------------|


E|------2-----0---2---|-4---0----2-----2---|------2-----0---2---|-4---0----2-----2---|
B|------0-----0---0---|-0---0----0-----0---|------0-----0---0---|-0---0----0-----0---|
G|--------------------|--------------------|--------------------|--------------------|
D|--------------------|--------------------|--------------------|--------------------|
A|--------------------|--------------------|--------------------|--------------------|
E|--------------------|--------------------|--------------------|--------------------|


E|------2-----0---2---|-4---0----2-----2---|------2-----0---2---|-4---0----2-----2---|
B|------0-----0---0---|-0---0----0-----0---|------0-----0---0---|-0---0----0-----0---|
G|--------------------|--------------------|--------------------|--------------------|
D|--------------------|--------------------|--------------------|--------------------|
A|--------------------|--------------------|--------------------|--------------------|
E|--------------------|--------------------|--------------------|--------------------|


E|------2-----0---2---|-4---0----2-----2---|------2-----0---2---|-4---0----2-----2---|
B|------0-----0---0---|-0---0----0-----0---|------0-----0---0---|-0---0----0-----0---|
G|--------------------|--------------------|--------------------|--------------------|
D|--------------------|--------------------|--------------------|--------------------|
A|--------------------|--------------------|--------------------|--------------------|
E|--------------------|--------------------|--------------------|--------------------|


E|------2-----0---2---|-4---0----2-----2---|------2-----0---2---|-4---0----2-----2---|
B|------0-----0---0---|-0---0----0-----0---|------0-----0---0---|-0---0----0-----0---|
G|--------------------|--------------------|--------------------|--------------------|
D|--------------------|--------------------|--------------------|--------------------|
A|--------------------|--------------------|--------------------|--------------------|
E|--------------------|--------------------|--------------------|--------------------|


E|--------|--------|--------|--------|--------|--------|--------|--------|------2-----0---2---|
B|--------|--------|--------|--------|--------|--------|--------|--------|------0-----0---0---|
G|--------|--------|--------|--------|--------|--------|--------|--------|--------------------|
D|--------|--------|--------|--------|--------|--------|--------|--------|--------------------|
A|--------|--------|--------|--------|--------|--------|--------|--------|--------------------|
E|--------|--------|--------|--------|--------|--------|--------|--------|--------------------|


E|-4---0----2-----2---|------2-----0---2---|-4---0----2-----2---|------2-----0---2---|
B|-0---0----0-----0---|------0-----0---0---|-0---0----0-----0---|------0-----0---0---|
G|--------------------|--------------------|--------------------|--------------------|
D|--------------------|--------------------|--------------------|--------------------|
A|--------------------|--------------------|--------------------|--------------------|
E|--------------------|--------------------|--------------------|--------------------|


E|-4---0----2-----2---|------2-----0---2---|-4---0----2-----2---|------2-----0---2---|
B|-0---0----0-----0---|------0-----0---0---|-0---0----0-----0---|------0-----0---0---|
G|--------------------|--------------------|--------------------|--------------------|
D|--------------------|--------------------|--------------------|--------------------|
A|--------------------|--------------------|--------------------|--------------------|
E|--------------------|--------------------|--------------------|--------------------|


E|-4---0----2-----2---|------2-----0---2---|-4---0----2-----2---|------2-----0---2---|
B|-0---0----0-----0---|------0-----0---0---|-0---0----0-----0---|------0-----0---0---|
G|--------------------|--------------------|--------------------|--------------------|
D|--------------------|--------------------|--------------------|--------------------|
A|--------------------|--------------------|--------------------|--------------------|
E|--------------------|--------------------|--------------------|--------------------|


E|-4---0----2-----2---|------2-----0---2---|-4---0----2-----2---|--------|
B|-0---0----0-----0---|------0-----0---0---|-0---0----0-----0---|--------|
G|--------------------|--------------------|--------------------|--------|
D|--------------------|--------------------|--------------------|--------|
A|--------------------|--------------------|--------------------|--------|
E|--------------------|--------------------|--------------------|--------|









Track 2: Lead Riff
Back to top
E|------14----12--14--|-16--12---14----14--|------14----12--14--|-16--12---14----14--|
B|------12----12--12--|-12--12---12----12--|------12----12--12--|-12--12---12----12--|
G|--------------------|--------------------|--------------------|--------------------|
D|--------------------|--------------------|--------------------|--------------------|
A|--------------------|--------------------|--------------------|--------------------|
E|--------------------|--------------------|--------------------|--------------------|


E|------14----12--14--|-16--12---14----14--|------14----12--14--|-16--12---14----14--|
B|------12----12--12--|-12--12---12----12--|------12----12--12--|-12--12---12----12--|
G|--------------------|--------------------|--------------------|--------------------|
D|--------------------|--------------------|--------------------|--------------------|
A|--------------------|--------------------|--------------------|--------------------|
E|--------------------|--------------------|--------------------|--------------------|


E|------14----12--14--|-16--12---14----14--|------14----12--14--|-16--12---14----14--|
B|------12----12--12--|-12--12---12----12--|------12----12--12--|-12--12---12----12--|
G|--------------------|--------------------|--------------------|--------------------|
D|--------------------|--------------------|--------------------|--------------------|
A|--------------------|--------------------|--------------------|--------------------|
E|--------------------|--------------------|--------------------|--------------------|


E|------14----12--14--|-16--12---14----14--|------14----12--14--|-16--12---14----14--|
B|------12----12--12--|-12--12---12----12--|------12----12--12--|-12--12---12----12--|
G|--------------------|--------------------|--------------------|--------------------|
D|--------------------|--------------------|--------------------|--------------------|
A|--------------------|--------------------|--------------------|--------------------|
E|--------------------|--------------------|--------------------|--------------------|


E|------14----12--14--|-16--12---14----14--|------14----12--14--|-16--12---14----14--|
B|------12----12--12--|-12--12---12----12--|------12----12--12--|-12--12---12----12--|
G|--------------------|--------------------|--------------------|--------------------|
D|--------------------|--------------------|--------------------|--------------------|
A|--------------------|--------------------|--------------------|--------------------|
E|--------------------|--------------------|--------------------|--------------------|


E|------14----12--14--|-16--12---14----14--|------14----12--14--|-16--12---14----14--|
B|------12----12--12--|-12--12---12----12--|------12----12--12--|-12--12---12----12--|
G|--------------------|--------------------|--------------------|--------------------|
D|--------------------|--------------------|--------------------|--------------------|
A|--------------------|--------------------|--------------------|--------------------|
E|--------------------|--------------------|--------------------|--------------------|


E|------14----12--14--|-16--12---14----14--|------14----12--14--|-16--12---14----14--|
B|------12----12--12--|-12--12---12----12--|------12----12--12--|-12--12---12----12--|
G|--------------------|--------------------|--------------------|--------------------|
D|--------------------|--------------------|--------------------|--------------------|
A|--------------------|--------------------|--------------------|--------------------|
E|--------------------|--------------------|--------------------|--------------------|


E|------14----12--14--|-16--12---14----14--|------14----12--14--|-16--12---14----14--|
B|------12----12--12--|-12--12---12----12--|------12----12--12--|-12--12---12----12--|
G|--------------------|--------------------|--------------------|--------------------|
D|--------------------|--------------------|--------------------|--------------------|
A|--------------------|--------------------|--------------------|--------------------|
E|--------------------|--------------------|--------------------|--------------------|


E|------14----12--14--|-16--12---14----14--|------14----12--14--|-16--12---14----14--|
B|------12----12--12--|-12--12---12----12--|------12----12--12--|-12--12---12----12--|
G|--------------------|--------------------|--------------------|--------------------|
D|--------------------|--------------------|--------------------|--------------------|
A|--------------------|--------------------|--------------------|--------------------|
E|--------------------|--------------------|--------------------|--------------------|


E|------14----12--14--|-16--12---14----14--|------14----12--14--|-16--12---14----14--|
B|------12----12--12--|-12--12---12----12--|------12----12--12--|-12--12---12----12--|
G|--------------------|--------------------|--------------------|--------------------|
D|--------------------|--------------------|--------------------|--------------------|
A|--------------------|--------------------|--------------------|--------------------|
E|--------------------|--------------------|--------------------|--------------------|


E|------14----12--14--|-16--12---14----14--|------14----12--14--|-16--12---14----14--|
B|------12----12--12--|-12--12---12----12--|------12----12--12--|-12--12---12----12--|
G|--------------------|--------------------|--------------------|--------------------|
D|--------------------|--------------------|--------------------|--------------------|
A|--------------------|--------------------|--------------------|--------------------|
E|--------------------|--------------------|--------------------|--------------------|


E|------14----12--14--|-16--12---14----14--|------14----12--14--|-16--12---14----14--|
B|------12----12--12--|-12--12---12----12--|------12----12--12--|-12--12---12----12--|
G|--------------------|--------------------|--------------------|--------------------|
D|--------------------|--------------------|--------------------|--------------------|
A|--------------------|--------------------|--------------------|--------------------|
E|--------------------|--------------------|--------------------|--------------------|


E|------14----12--14--|-16--12---14----14--|------14----12--14--|-16--12---14----14--|
B|------12----12--12--|-12--12---12----12--|------12----12--12--|-12--12---12----12--|
G|--------------------|--------------------|--------------------|--------------------|
D|--------------------|--------------------|--------------------|--------------------|
A|--------------------|--------------------|--------------------|--------------------|
E|--------------------|--------------------|--------------------|--------------------|


E|------14----12--14--|-16--12---14----14--|------14----12--14--|-16--12---14----14--|
B|------12----12--12--|-12--12---12----12--|------12----12--12--|-12--12---12----12--|
G|--------------------|--------------------|--------------------|--------------------|
D|--------------------|--------------------|--------------------|--------------------|
A|--------------------|--------------------|--------------------|--------------------|
E|--------------------|--------------------|--------------------|--------------------|


E|------14----12--14--|-16--12---14----14--|------14----12--14--|-16--12---14----14--|
B|------12----12--12--|-12--12---12----12--|------12----12--12--|-12--12---12----12--|
G|--------------------|--------------------|--------------------|--------------------|
D|--------------------|--------------------|--------------------|--------------------|
A|--------------------|--------------------|--------------------|--------------------|
E|--------------------|--------------------|--------------------|--------------------|


E|------14----12--14--|-16--12---14----14--|------14----12--14--|-16--12---14----14--|
B|------12----12--12--|-12--12---12----12--|------12----12--12--|-12--12---12----12--|
G|--------------------|--------------------|--------------------|--------------------|
D|--------------------|--------------------|--------------------|--------------------|
A|--------------------|--------------------|--------------------|--------------------|
E|--------------------|--------------------|--------------------|--------------------|


E|------14----12--14--|-16--12---14----14--|------14----12--14--|-16--12---14----14--|
B|------12----12--12--|-12--12---12----12--|------12----12--12--|-12--12---12----12--|
G|--------------------|--------------------|--------------------|--------------------|
D|--------------------|--------------------|--------------------|--------------------|
A|--------------------|--------------------|--------------------|--------------------|
E|--------------------|--------------------|--------------------|--------------------|


E|------14----12--14--|-16--12---14----14--|------14----12--14--|-16--12---14----14--|
B|------12----12--12--|-12--12---12----12--|------12----12--12--|-12--12---12----12--|
G|--------------------|--------------------|--------------------|--------------------|
D|--------------------|--------------------|--------------------|--------------------|
A|--------------------|--------------------|--------------------|--------------------|
E|--------------------|--------------------|--------------------|--------------------|


E|------14----12--14--|-16--12---14----14--|------14----12--14--|-16--12---14----14--|
B|------12----12--12--|-12--12---12----12--|------12----12--12--|-12--12---12----12--|
G|--------------------|--------------------|--------------------|--------------------|
D|--------------------|--------------------|--------------------|--------------------|
A|--------------------|--------------------|--------------------|--------------------|
E|--------------------|--------------------|--------------------|--------------------|


E|------14----12--14--|-16--12---14----14--|------14----12--14--|-16--12---14----14--|
B|------12----12--12--|-12--12---12----12--|------12----12--12--|-12--12---12----12--|
G|--------------------|--------------------|--------------------|--------------------|
D|--------------------|--------------------|--------------------|--------------------|
A|--------------------|--------------------|--------------------|--------------------|
E|--------------------|--------------------|--------------------|--------------------|


E|------14----12--14--|-16--12---14----14--|------14----12--14--|-16--12---14----14--|
B|------12----12--12--|-12--12---12----12--|------12----12--12--|-12--12---12----12--|
G|--------------------|--------------------|--------------------|--------------------|
D|--------------------|--------------------|--------------------|--------------------|
A|--------------------|--------------------|--------------------|--------------------|
E|--------------------|--------------------|--------------------|--------------------|


E|------14----12--14--|-16--12---14----14--|------14----12--14--|-16--12---14----14--|
B|------12----12--12--|-12--12---12----12--|------12----12--12--|-12--12---12----12--|
G|--------------------|--------------------|--------------------|--------------------|
D|--------------------|--------------------|--------------------|--------------------|
A|--------------------|--------------------|--------------------|--------------------|
E|--------------------|--------------------|--------------------|--------------------|


E|------14----12--14--|-16--12---14----14--|------14----12--14--|-16--12---14----14--|
B|------12----12--12--|-12--12---12----12--|------12----12--12--|-12--12---12----12--|
G|--------------------|--------------------|--------------------|--------------------|
D|--------------------|--------------------|--------------------|--------------------|
A|--------------------|--------------------|--------------------|--------------------|
E|--------------------|--------------------|--------------------|--------------------|


E|------14----12--14--|-16--12---14----14--|------14----12--14--|-16--12---14----14--|
B|------12----12--12--|-12--12---12----12--|------12----12--12--|-12--12---12----12--|
G|--------------------|--------------------|--------------------|--------------------|
D|--------------------|--------------------|--------------------|--------------------|
A|--------------------|--------------------|--------------------|--------------------|
E|--------------------|--------------------|--------------------|--------------------|


E|------14----12--14--|-16--12---14----14--|------14----12--14--|-16--12---14----14--|
B|------12----12--12--|-12--12---12----12--|------12----12--12--|-12--12---12----12--|
G|--------------------|--------------------|--------------------|--------------------|
D|--------------------|--------------------|--------------------|--------------------|
A|--------------------|--------------------|--------------------|--------------------|
E|--------------------|--------------------|--------------------|--------------------|


E|------14----12--14--|-16--12---14----14--|------14----12--14--|-16--12---14----14--|
B|------12----12--12--|-12--12---12----12--|------12----12--12--|-12--12---12----12--|
G|--------------------|--------------------|--------------------|--------------------|
D|--------------------|--------------------|--------------------|--------------------|
A|--------------------|--------------------|--------------------|--------------------|
E|--------------------|--------------------|--------------------|--------------------|


E|------14----12--14--|-16--12---14----14--|------14----12--14--|-16--12---14----14--|
B|------12----12--12--|-12--12---12----12--|------12----12--12--|-12--12---12----12--|
G|--------------------|--------------------|--------------------|--------------------|
D|--------------------|--------------------|--------------------|--------------------|
A|--------------------|--------------------|--------------------|--------------------|
E|--------------------|--------------------|--------------------|--------------------|


E|------14----12--14--|-16--12---14----14--|------14----12--14--|-16--12---14----14--|
B|------12----12--12--|-12--12---12----12--|------12----12--12--|-12--12---12----12--|
G|--------------------|--------------------|--------------------|--------------------|
D|--------------------|--------------------|--------------------|--------------------|
A|--------------------|--------------------|--------------------|--------------------|
E|--------------------|--------------------|--------------------|--------------------|


E|------14----12--14--|-16--12---14----14--|------14----12--14--|-16--12---14----14--|
B|------12----12--12--|-12--12---12----12--|------12----12--12--|-12--12---12----12--|
G|--------------------|--------------------|--------------------|--------------------|
D|--------------------|--------------------|--------------------|--------------------|
A|--------------------|--------------------|--------------------|--------------------|
E|--------------------|--------------------|--------------------|--------------------|


E|------14----12--14--|-16--12---14----14--|------14----12--14--|-16--12---14----14--|
B|------12----12--12--|-12--12---12----12--|------12----12--12--|-12--12---12----12--|
G|--------------------|--------------------|--------------------|--------------------|
D|--------------------|--------------------|--------------------|--------------------|
A|--------------------|--------------------|--------------------|--------------------|
E|--------------------|--------------------|--------------------|--------------------|


E|------14----12--14--|-16--12---14----14--|------14----12--14--|-16--12---14----14--|
B|------12----12--12--|-12--12---12----12--|------12----12--12--|-12--12---12----12--|
G|--------------------|--------------------|--------------------|--------------------|
D|--------------------|--------------------|--------------------|--------------------|
A|--------------------|--------------------|--------------------|--------------------|
E|--------------------|--------------------|--------------------|--------------------|


E|------14----12--14--|-16--12---14----14--|------14----12--14--|-16--12---14----14--|
B|------12----12--12--|-12--12---12----12--|------12----12--12--|-12--12---12----12--|
G|--------------------|--------------------|--------------------|--------------------|
D|--------------------|--------------------|--------------------|--------------------|
A|--------------------|--------------------|--------------------|--------------------|
E|--------------------|--------------------|--------------------|--------------------|


E|------14----12--14--|-16--12---14----14--|------14----12--14--|-16--12---14----14--|
B|------12----12--12--|-12--12---12----12--|------12----12--12--|-12--12---12----12--|
G|--------------------|--------------------|--------------------|--------------------|
D|--------------------|--------------------|--------------------|--------------------|
A|--------------------|--------------------|--------------------|--------------------|
E|--------------------|--------------------|--------------------|--------------------|


E|------14----12--14--|-16--12---14----14--|------14----12--14--|-16--12---14----14--|
B|------12----12--12--|-12--12---12----12--|------12----12--12--|-12--12---12----12--|
G|--------------------|--------------------|--------------------|--------------------|
D|--------------------|--------------------|--------------------|--------------------|
A|--------------------|--------------------|--------------------|--------------------|
E|--------------------|--------------------|--------------------|--------------------|


E|------14----12--14--|-16--12---14----14--|------14----12--14--|-16--12---14----14--|
B|------12----12--12--|-12--12---12----12--|------12----12--12--|-12--12---12----12--|
G|--------------------|--------------------|--------------------|--------------------|
D|--------------------|--------------------|--------------------|--------------------|
A|--------------------|--------------------|--------------------|--------------------|
E|--------------------|--------------------|--------------------|--------------------|


E|------14----12--14--|-16--12---14----14--|------14----12--14--|-16--12---14----14--|
B|------12----12--12--|-12--12---12----12--|------12----12--12--|-12--12---12----12--|
G|--------------------|--------------------|--------------------|--------------------|
D|--------------------|--------------------|--------------------|--------------------|
A|--------------------|--------------------|--------------------|--------------------|
E|--------------------|--------------------|--------------------|--------------------|


E|--------|
B|--------|
G|--------|
D|--------|
A|--------|
E|--------|









Track 3: Main Chords
Back to top
E|--------|--------|--------|--------|--------|--------|--------|--------|--------|
B|--------|--------|--------|--------|--------|--------|--------|--------|--------|
G|-4------|-4------|-4------|-4------|-1------|-1------|-1------|-1------|-4------|
D|-4------|-4------|-4------|-4------|-2------|-2------|-2------|-2------|-4------|
A|-2------|-2------|-2------|-2------|-2------|-2------|-2------|-2------|-2------|
E|--------|--------|--------|--------|-0------|-0------|-0------|-0------|--------|


E|--------|--------|--------|--------|--------|--------|--------|--------|--------|
B|--------|--------|--------|--------|--------|--------|--------|--------|--------|
G|-4------|-4------|-4------|-1------|-1------|-1------|-1------|-4------|-4------|
D|-4------|-4------|-4------|-2------|-2------|-2------|-2------|-4------|-4------|
A|-2------|-2------|-2------|-2------|-2------|-2------|-2------|-2------|-2------|
E|--------|--------|--------|-0------|-0------|-0------|-0------|--------|--------|


E|--------|--------|--------|--------|--------|--------|--------|--------|--------|
B|--------|--------|--------|--------|--------|--------|--------|--------|--------|
G|-4------|-4------|-1------|-1------|-1------|-1------|-4------|-4------|-4------|
D|-4------|-4------|-2------|-2------|-2------|-2------|-4------|-4------|-4------|
A|-2------|-2------|-2------|-2------|-2------|-2------|-2------|-2------|-2------|
E|--------|--------|-0------|-0------|-0------|-0------|--------|--------|--------|


E|--------|--------|--------|--------|--------|--------|--------|--------|--------|
B|--------|--------|--------|--------|--------|--------|--------|--------|--------|
G|-4------|-1------|-1------|-1------|-1------|-4------|-4------|-4------|-4------|
D|-4------|-2------|-2------|-2------|-2------|-4------|-4------|-4------|-4------|
A|-2------|-2------|-2------|-2------|-2------|-2------|-2------|-2------|-2------|
E|--------|-0------|-0------|-0------|-0------|--------|--------|--------|--------|


E|--------|--------|--------|--------|--------|--------|--------|--------|--------|
B|--------|--------|--------|--------|--------|--------|--------|--------|--------|
G|-1------|-1------|-1------|-1------|-4------|-4------|-4------|-4------|-1------|
D|-2------|-2------|-2------|-2------|-4------|-4------|-4------|-4------|-2------|
A|-2------|-2------|-2------|-2------|-2------|-2------|-2------|-2------|-2------|
E|-0------|-0------|-0------|-0------|--------|--------|--------|--------|-0------|


E|--------|--------|--------|--------|--------|--------|--------|--------|--------|
B|--------|--------|--------|--------|--------|--------|--------|--------|--------|
G|-1------|-1------|-1------|-4------|-4------|-4------|-4------|-1------|-1------|
D|-2------|-2------|-2------|-4------|-4------|-4------|-4------|-2------|-2------|
A|-2------|-2------|-2------|-2------|-2------|-2------|-2------|-2------|-2------|
E|-0------|-0------|-0------|--------|--------|--------|--------|-0------|-0------|


E|--------|--------|--------|--------|--------|--------|--------|--------|--------|
B|--------|--------|--------|--------|--------|--------|--------|--------|--------|
G|-1------|-1------|-4------|-4------|-4------|-4------|-1------|-1------|-1------|
D|-2------|-2------|-4------|-4------|-4------|-4------|-2------|-2------|-2------|
A|-2------|-2------|-2------|-2------|-2------|-2------|-2------|-2------|-2------|
E|-0------|-0------|--------|--------|--------|--------|-0------|-0------|-0------|


E|--------|--------|--------|--------|--------|--------|--------|--------|--------|
B|--------|--------|--------|--------|--------|--------|--------|--------|--------|
G|-1------|-4------|-4------|-4------|-4------|-1------|-1------|-1------|-1------|
D|-2------|-4------|-4------|-4------|-4------|-2------|-2------|-2------|-2------|
A|-2------|-2------|-2------|-2------|-2------|-2------|-2------|-2------|-2------|
E|-0------|--------|--------|--------|--------|-0------|-0------|-0------|-0------|


E|--------|--------|--------|--------|--------|--------|--------|--------|--------|
B|--------|--------|--------|--------|--------|--------|--------|--------|--------|
G|-4------|-4------|-4------|-4------|-1------|-1------|-1------|-1------|-4------|
D|-4------|-4------|-4------|-4------|-2------|-2------|-2------|-2------|-4------|
A|-2------|-2------|-2------|-2------|-2------|-2------|-2------|-2------|-2------|
E|--------|--------|--------|--------|-0------|-0------|-0------|-0------|--------|


E|--------|--------|--------|--------|--------|--------|--------|--------|--------|
B|--------|--------|--------|--------|--------|--------|--------|--------|--------|
G|-4------|-4------|-4------|-1------|-1------|-1------|-1------|-4------|-4------|
D|-4------|-4------|-4------|-2------|-2------|-2------|-2------|-4------|-4------|
A|-2------|-2------|-2------|-2------|-2------|-2------|-2------|-2------|-2------|
E|--------|--------|--------|-0------|-0------|-0------|-0------|--------|--------|


E|--------|--------|--------|--------|--------|--------|--------|--------|--------|
B|--------|--------|--------|--------|--------|--------|--------|--------|--------|
G|-4------|-4------|-1------|-1------|-1------|-1------|-4------|-4------|-4------|
D|-4------|-4------|-2------|-2------|-2------|-2------|-4------|-4------|-4------|
A|-2------|-2------|-2------|-2------|-2------|-2------|-2------|-2------|-2------|
E|--------|--------|-0------|-0------|-0------|-0------|--------|--------|--------|


E|--------|--------|--------|--------|--------|--------|--------|--------|--------|
B|--------|--------|--------|--------|--------|--------|--------|--------|--------|
G|-4------|-1------|-1------|-1------|-1------|-4------|-4------|-4------|-4------|
D|-4------|-2------|-2------|-2------|-2------|-4------|-4------|-4------|-4------|
A|-2------|-2------|-2------|-2------|-2------|-2------|-2------|-2------|-2------|
E|--------|-0------|-0------|-0------|-0------|--------|--------|--------|--------|


E|--------|--------|--------|--------|--------|--------|--------|--------|--------|
B|--------|--------|--------|--------|--------|--------|--------|--------|--------|
G|-1------|-1------|-1------|-1------|-4------|-4------|-4------|-4------|-1------|
D|-2------|-2------|-2------|-2------|-4------|-4------|-4------|-4------|-2------|
A|-2------|-2------|-2------|-2------|-2------|-2------|-2------|-2------|-2------|
E|-0------|-0------|-0------|-0------|--------|--------|--------|--------|-0------|


E|--------|--------|--------|--------|--------|--------|--------|--------|--------|
B|--------|--------|--------|--------|--------|--------|--------|--------|--------|
G|-1------|-1------|-1------|--------|--------|--------|--------|--------|--------|
D|-2------|-2------|-2------|--------|--------|--------|--------|--------|--------|
A|-2------|-2------|-2------|--------|--------|--------|--------|--------|--------|
E|-0------|-0------|-0------|--------|--------|--------|--------|--------|--------|


E|--------|--------|--------|--------|--------|--------|--------|--------|--------|
B|--------|--------|--------|--------|--------|--------|--------|--------|--------|
G|--------|--------|-4------|-4------|-4------|-4------|-1------|-1------|-1------|
D|--------|--------|-4------|-4------|-4------|-4------|-2------|-2------|-2------|
A|--------|--------|-2------|-2------|-2------|-2------|-2------|-2------|-2------|
E|--------|--------|--------|--------|--------|--------|-0------|-0------|-0------|


E|--------|--------|--------|--------|--------|--------|--------|--------|--------|
B|--------|--------|--------|--------|--------|--------|--------|--------|--------|
G|-1------|-4------|-4------|-4------|-4------|-1------|-1------|-1------|-1------|
D|-2------|-4------|-4------|-4------|-4------|-2------|-2------|-2------|-2------|
A|-2------|-2------|-2------|-2------|-2------|-2------|-2------|-2------|-2------|
E|-0------|--------|--------|--------|--------|-0------|-0------|-0------|-0------|


E|--------|
B|--------|
G|--------|
D|--------|
A|--------|
E|--------|









Track 4: Synth Bass
Back to top
G|--------|--------|--------|--------|--------|--------|--------|--------|--------|
D|--------|--------|--------|--------|--------|--------|--------|--------|--------|
A|-2------|-2------|-2------|-2------|--------|--------|--------|--------|-2------|
E|--------|--------|--------|--------|-0------|-0------|-0------|-0------|--------|


G|--------|--------|--------|--------|--------|--------|--------|--------|--------|
D|--------|--------|--------|--------|--------|--------|--------|--------|--------|
A|-2------|-2------|-2------|--------|--------|--------|--------|-2------|-2------|
E|--------|--------|--------|-0------|-0------|-0------|-0------|--------|--------|


G|--------|--------|--------|--------|--------|--------|--------|--------|--------|
D|--------|--------|--------|--------|--------|--------|--------|--------|--------|
A|-2------|-2------|--------|--------|--------|--------|-2------|-2------|-2------|
E|--------|--------|-0------|-0------|-0------|-0------|--------|--------|--------|


G|--------|--------|--------|--------|--------|--------|--------|--------|--------|
D|--------|--------|--------|--------|--------|--------|--------|--------|--------|
A|-2------|--------|--------|--------|--------|-2------|-2------|-2------|-2------|
E|--------|-0------|-0------|-0------|-0------|--------|--------|--------|--------|


G|--------|--------|--------|--------|--------|--------|--------|--------|--------|
D|--------|--------|--------|--------|--------|--------|--------|--------|--------|
A|--------|--------|--------|--------|-2------|-2------|-2------|-2------|--------|
E|-0------|-0------|-0------|-0------|--------|--------|--------|--------|-0------|


G|--------|--------|--------|--------|--------|--------|--------|--------|--------|
D|--------|--------|--------|--------|--------|--------|--------|--------|--------|
A|--------|--------|--------|-2------|-2------|-2------|-2------|--------|--------|
E|-0------|-0------|-0------|--------|--------|--------|--------|-0------|-0------|


G|--------|--------|--------|--------|--------|--------|--------|--------|--------|
D|--------|--------|--------|--------|--------|--------|--------|--------|--------|
A|--------|--------|-2------|-2------|-2------|-2------|--------|--------|--------|
E|-0------|-0------|--------|--------|--------|--------|-0------|-0------|-0------|


G|--------|--------|--------|--------|--------|--------|--------|--------|--------|
D|--------|--------|--------|--------|--------|--------|--------|--------|--------|
A|--------|-2------|-2------|-2------|-2------|--------|--------|--------|--------|
E|-0------|--------|--------|--------|--------|-0------|-0------|-0------|-0------|


G|--------|--------|--------|--------|--------|--------|--------|--------|--------|
D|--------|--------|--------|--------|--------|--------|--------|--------|--------|
A|-2------|-2------|-2------|-2------|--------|--------|--------|--------|-2------|
E|--------|--------|--------|--------|-0------|-0------|-0------|-0------|--------|


G|--------|--------|--------|--------|--------|--------|--------|--------|--------|
D|--------|--------|--------|--------|--------|--------|--------|--------|--------|
A|-2------|-2------|-2------|--------|--------|--------|--------|-2------|-2------|
E|--------|--------|--------|-0------|-0------|-0------|-0------|--------|--------|


G|--------|--------|--------|--------|--------|--------|--------|--------|--------|
D|--------|--------|--------|--------|--------|--------|--------|--------|--------|
A|-2------|-2------|--------|--------|--------|--------|-2------|-2------|-2------|
E|--------|--------|-0------|-0------|-0------|-0------|--------|--------|--------|


G|--------|--------|--------|--------|--------|--------|--------|--------|--------|
D|--------|--------|--------|--------|--------|--------|--------|--------|--------|
A|-2------|--------|--------|--------|--------|-2------|-2------|-2------|-2------|
E|--------|-0------|-0------|-0------|-0------|--------|--------|--------|--------|


G|--------|--------|--------|--------|--------|--------|--------|--------|--------|
D|--------|--------|--------|--------|--------|--------|--------|--------|--------|
A|--------|--------|--------|--------|-2------|-2------|-2------|-2------|--------|
E|-0------|-0------|-0------|-0------|--------|--------|--------|--------|-0------|


G|--------|--------|--------|--------|--------|--------|--------|--------|--------|
D|--------|--------|--------|--------|--------|--------|--------|--------|--------|
A|--------|--------|--------|--------|--------|--------|--------|--------|--------|
E|-0------|-0------|-0------|--------|--------|--------|--------|--------|--------|


G|--------|--------|--------|--------|--------|--------|--------|--------|--------|
D|--------|--------|--------|--------|--------|--------|--------|--------|--------|
A|--------|--------|-2------|-2------|-2------|-2------|--------|--------|--------|
E|--------|--------|--------|--------|--------|--------|-0------|-0------|-0------|


G|--------|--------|--------|--------|--------|--------|--------|--------|--------|
D|--------|--------|--------|--------|--------|--------|--------|--------|--------|
A|--------|-2------|-2------|-2------|-2------|--------|--------|--------|--------|
E|-0------|--------|--------|--------|--------|-0------|-0------|-0------|-0------|


G|--------|
D|--------|
A|--------|
E|--------|









Track 5: Vocals
Back to top
E|--------|--------|--------|--------|--------|--------|--------|--------|------2----2----2---0---|
B|--------|--------|--------|--------|--------|--------|--------|--------|------------------------|
G|--------|--------|--------|--------|--------|--------|--------|--------|------------------------|
D|--------|--------|--------|--------|--------|--------|--------|--------|------------------------|
A|--------|--------|--------|--------|--------|--------|--------|--------|------------------------|
E|--------|--------|--------|--------|--------|--------|--------|--------|------------------------|


E|-4---0----2-------------|-2----2---2---2---2---2---2---|-4---2----2---------|-2---2---2---2---2----2---2---|
B|--------------------4---|------------------------------|----------------4---|------------------------------|
G|------------------------|------------------------------|--------------------|------------------------------|
D|------------------------|------------------------------|--------------------|------------------------------|
A|------------------------|------------------------------|--------------------|------------------------------|
E|------------------------|------------------------------|--------------------|------------------------------|


E|-4---2----2--------2---2---|-2----2---2---2----2---2---|-2----2---2----------|------2-----0---2---|
B|---------------------------|---------------------------|----------------4----|--------------------|
G|---------------------------|---------------------------|---------------------|--------------------|
D|---------------------------|---------------------------|---------------------|--------------------|
A|---------------------------|---------------------------|---------------------|--------------------|
E|---------------------------|---------------------------|---------------------|--------------------|


E|-4---0----2--------2---2---|------2-----0---2---|-4---0----2--------2---2---|------2-----0---2---|
B|---------------------------|--------------------|---------------------------|--------------------|
G|---------------------------|--------------------|---------------------------|--------------------|
D|---------------------------|--------------------|---------------------------|--------------------|
A|---------------------------|--------------------|---------------------------|--------------------|
E|---------------------------|--------------------|---------------------------|--------------------|


E|-4---0----2----2--------|------2-----0---2---|-4---0----2----2--------|------2----2---2---2---0---|
B|------------------------|--------------------|------------------------|---------------------------|
G|------------------------|--------------------|------------------------|---------------------------|
D|------------------------|--------------------|------------------------|---------------------------|
A|------------------------|--------------------|------------------------|---------------------------|
E|------------------------|--------------------|------------------------|---------------------------|


E|-4---0----2----------|------2---2---2---2---2---2---|-4---2-------2----2--------|
B|---------------------|------------------------------|---------------------------|
G|---------------------|------------------------------|---------------------------|
D|---------------------|------------------------------|---------------------------|
A|---------------------|------------------------------|---------------------------|
E|---------------------|------------------------------|---------------------------|


E|------2---2---2-------2---2---|-4---2-------2---------|-----2---2---2---2--------2---|
B|------------------------------|-----------------------|------------------------------|
G|------------------------------|-----------------------|------------------------------|
D|------------------------------|-----------------------|------------------------------|
A|------------------------------|-----------------------|------------------------------|
E|------------------------------|-----------------------|------------------------------|


E|-4---2-------2---------|------2-----0---2---|-4---0----2--------2---2---|------2-----0---2---|
B|-----------------------|--------------------|---------------------------|--------------------|
G|-----------------------|--------------------|---------------------------|--------------------|
D|-----------------------|--------------------|---------------------------|--------------------|
A|-----------------------|--------------------|---------------------------|--------------------|
E|-----------------------|--------------------|---------------------------|--------------------|


E|-4---0----2--------2---2---|------2-----0---2---|-4---0----2--------2---2---|------2-----0---2---|
B|---------------------------|--------------------|---------------------------|--------------------|
G|---------------------------|--------------------|---------------------------|--------------------|
D|---------------------------|--------------------|---------------------------|--------------------|
A|---------------------------|--------------------|---------------------------|--------------------|
E|---------------------------|--------------------|---------------------------|--------------------|


E|-4---0----2----2--------|-2---2----2----2---2---0---|-4---0----2--------2---2---|
B|------------------------|---------------------------|---------------------------|
G|------------------------|---------------------------|---------------------------|
D|------------------------|---------------------------|---------------------------|
A|------------------------|---------------------------|---------------------------|
E|------------------------|---------------------------|---------------------------|


E|-2----2-------2---2---2---2---|-----4---2---2----2--------|------2----2---2---2---2---|
B|------------------------------|---------------------------|---------------------------|
G|------------------------------|---------------------------|---------------------------|
D|------------------------------|---------------------------|---------------------------|
A|------------------------------|---------------------------|---------------------------|
E|------------------------------|---------------------------|---------------------------|


E|-4---2-------2--------2---2---|------2---------2---2---|-4---2-------2---------|
B|------------------------------|------------------------|-----------------------|
G|------------------------------|------------------------|-----------------------|
D|------------------------------|------------------------|-----------------------|
A|------------------------------|------------------------|-----------------------|
E|------------------------------|------------------------|-----------------------|


E|--------|-----------2----2---|-2-----------|-----------2----2---|-2-----------|-----------2----2---|
B|--------|--------------------|-------------|--------------------|-------------|--------------------|
G|--------|--------------------|-------------|--------------------|-------------|--------------------|
D|--------|--------------------|-------------|--------------------|-------------|--------------------|
A|--------|--------------------|-------------|--------------------|-------------|--------------------|
E|--------|--------------------|-------------|--------------------|-------------|--------------------|


E|-2-----------|--------|-----2---2---2---2---2--------|-4---0----2----------|------2---2---2--------2---|
B|-------------|--------|------------------------------|---------------------|---------------------------|
G|-------------|--------|------------------------------|---------------------|---------------------------|
D|-------------|--------|------------------------------|---------------------|---------------------------|
A|-------------|--------|------------------------------|---------------------|---------------------------|
E|-------------|--------|------------------------------|---------------------|---------------------------|


E|-4---2----2----2--------|------2---2---2---------|-4---2-------2---------|--------|
B|------------------------|------------------------|-----------------------|--------|
G|------------------------|------------------------|-----------------------|--------|
D|------------------------|------------------------|-----------------------|--------|
A|------------------------|------------------------|-----------------------|--------|
E|------------------------|------------------------|-----------------------|--------|


E|--------|-----2---2---2---2---2---2---2---|-4---0----2----------|-----2---2---2---2---2---2---2---|
B|--------|---------------------------------|---------------------|---------------------------------|
G|--------|---------------------------------|---------------------|---------------------------------|
D|--------|---------------------------------|---------------------|---------------------------------|
A|--------|---------------------------------|---------------------|---------------------------------|
E|--------|---------------------------------|---------------------|---------------------------------|


E|-4---2----2----------|--------|--------|--------|--------|-----2---2---2---2---2---2---0---|
B|----------------4----|--------|--------|--------|--------|---------------------------------|
G|---------------------|--------|--------|--------|--------|---------------------------------|
D|---------------------|--------|--------|--------|--------|---------------------------------|
A|---------------------|--------|--------|--------|--------|---------------------------------|
E|---------------------|--------|--------|--------|--------|---------------------------------|


E|-4-------0---2--------2---2---|-2--------2---2---2---2---2---|-----4---2---2-------------|
B|------------------------------|------------------------------|-----------------------4---|
G|------------------------------|------------------------------|---------------------------|
D|------------------------------|------------------------------|---------------------------|
A|------------------------------|------------------------------|---------------------------|
E|------------------------------|------------------------------|---------------------------|


E|------2---2----2---2-------|-4---2-------2----------|-----2---2---2---2----2---0---|
B|---------------------------|------------------------|------------------------------|
G|---------------------------|------------------------|------------------------------|
D|---------------------------|------------------------|------------------------------|
A|---------------------------|------------------------|------------------------------|
E|---------------------------|------------------------|------------------------------|


E|-----4---0----2---------|------2-----0---2---|-4---0----2--------2---2---|------2-----0---2---|
B|------------------------|--------------------|---------------------------|--------------------|
G|------------------------|--------------------|---------------------------|--------------------|
D|------------------------|--------------------|---------------------------|--------------------|
A|------------------------|--------------------|---------------------------|--------------------|
E|------------------------|--------------------|---------------------------|--------------------|


E|-4---0----2----2--------|------2-----0---2---|-4---0----2----2--------|-2---2---2---2---2---2---0---2---|
B|------------------------|--------------------|------------------------|---------------------------------|
G|------------------------|--------------------|------------------------|---------------------------------|
D|------------------------|--------------------|------------------------|---------------------------------|
A|------------------------|--------------------|------------------------|---------------------------------|
E|------------------------|--------------------|------------------------|---------------------------------|


E|-4---0----2----2--------|------2-----0---2---|-4---0----2----2--------|------2-----0---2---|
B|------------------------|--------------------|------------------------|--------------------|
G|------------------------|--------------------|------------------------|--------------------|
D|------------------------|--------------------|------------------------|--------------------|
A|------------------------|--------------------|------------------------|--------------------|
E|------------------------|--------------------|------------------------|--------------------|


E|-4---0----2----2--------|------2-----0---2---|-4---0----2--------2---2---|-----2---2---2---2---2---0---2---|
B|------------------------|--------------------|---------------------------|---------------------------------|
G|------------------------|--------------------|---------------------------|---------------------------------|
D|------------------------|--------------------|---------------------------|---------------------------------|
A|------------------------|--------------------|---------------------------|---------------------------------|
E|------------------------|--------------------|---------------------------|---------------------------------|


E|-4---0----2----2--------|--------|-----------2----2---|-2-----------|-----------2----2---|
B|------------------------|--------|--------------------|-------------|--------------------|
G|------------------------|--------|--------------------|-------------|--------------------|
D|------------------------|--------|--------------------|-------------|--------------------|
A|------------------------|--------|--------------------|-------------|--------------------|
E|------------------------|--------|--------------------|-------------|--------------------|


E|-2-----------|-----------2----2---|-2-----------|-----------2----2---|-2-----------|
B|-------------|--------------------|-------------|--------------------|-------------|
G|-------------|--------------------|-------------|--------------------|-------------|
D|-------------|--------------------|-------------|--------------------|-------------|
A|-------------|--------------------|-------------|--------------------|-------------|
E|-------------|--------------------|-------------|--------------------|-------------|


E|--------|--------|-----------2----2---|-2-----------|--------|--------|--------|
B|--------|--------|--------------------|-------------|--------|--------|--------|
G|--------|--------|--------------------|-------------|--------|--------|--------|
D|--------|--------|--------------------|-------------|--------|--------|--------|
A|--------|--------|--------------------|-------------|--------|--------|--------|
E|--------|--------|--------------------|-------------|--------|--------|--------|


E|--------|--------|--------|--------|--------|--------|--------|--------|--------|
B|--------|--------|--------|--------|--------|--------|--------|--------|--------|
G|--------|--------|--------|--------|--------|--------|--------|--------|--------|
D|--------|--------|--------|--------|--------|--------|--------|--------|--------|
A|--------|--------|--------|--------|--------|--------|--------|--------|--------|
E|--------|--------|--------|--------|--------|--------|--------|--------|--------|


E|--------|--------|--------|--------|--------|--------|--------|--------|--------|
B|--------|--------|--------|--------|--------|--------|--------|--------|--------|
G|--------|--------|--------|--------|--------|--------|--------|--------|--------|
D|--------|--------|--------|--------|--------|--------|--------|--------|--------|
A|--------|--------|--------|--------|--------|--------|--------|--------|--------|
E|--------|--------|--------|--------|--------|--------|--------|--------|--------|


E|--------|--------|--------|--------|--------|--------|--------|--------|--------|
B|--------|--------|--------|--------|--------|--------|--------|--------|--------|
G|--------|--------|--------|--------|--------|--------|--------|--------|--------|
D|--------|--------|--------|--------|--------|--------|--------|--------|--------|
A|--------|--------|--------|--------|--------|--------|--------|--------|--------|
E|--------|--------|--------|--------|--------|--------|--------|--------|--------|


E|--------|--------|--------|--------|--------|--------|
B|--------|--------|--------|--------|--------|--------|
G|--------|--------|--------|--------|--------|--------|
D|--------|--------|--------|--------|--------|--------|
A|--------|--------|--------|--------|--------|--------|
E|--------|--------|--------|--------|--------|--------|









Track 6: Finger Bass
Back to top
G|--------|--------|--------|--------|--------|--------|--------|--------|--------|
D|--------|--------|--------|--------|--------|--------|--------|--------|--------|
A|--------|--------|--------|--------|--------|--------|--------|--------|--------|
E|--------|--------|--------|--------|--------|--------|--------|--------|--------|


G|--------|--------|--------|--------|--------|--------|--------|--------|--------|
D|--------|--------|--------|--------|--------|--------|--------|--------|--------|
A|--------|--------|--------|--------|--------|--------|--------|--------|--------|
E|--------|--------|--------|--------|--------|--------|--------|--------|--------|


G|--------|--------|--------|--------|--------|--------|---------------------------|
D|--------|--------|--------|--------|--------|--------|---------------------------|
A|--------|--------|--------|--------|--------|--------|-2----2---2---2----2---2---|
E|--------|--------|--------|--------|--------|--------|---------------------------|


G|---------------------------|---------------------------|---------------------------|
D|---------------------------|---------------------------|---------------------------|
A|-2----2---2---2----2---2---|-2----2---2---2----2---2---|-2----2---2---2----2---2---|
E|---------------------------|---------------------------|---------------------------|


G|---------------------------|---------------------------|---------------------------|
D|---------------------------|---------------------------|---------------------------|
A|---------------------------|---------------------------|---------------------------|
E|-0----0---0---0----0---0---|-0----0---0---0----0---0---|-0----0---0---0----0---0---|


G|---------------------------|---------------------------|---------------------------|
D|---------------------------|---------------------------|---------------------------|
A|---------------------------|-2----2---2---2----2---2---|-2----2---2---2----2---2---|
E|-0----0---0---0----0---0---|---------------------------|---------------------------|


G|---------------------------|---------------------------|---------------------------|
D|---------------------------|---------------------------|---------------------------|
A|-2----2---2---2----2---2---|-2----2---2---2----2---2---|---------------------------|
E|---------------------------|---------------------------|-0----0---0---0----0---0---|


G|---------------------------|---------------------------|---------------------------|
D|---------------------------|---------------------------|---------------------------|
A|---------------------------|---------------------------|---------------------------|
E|-0----0---0---0----0---0---|-0----0---0---0----0---0---|-0----0---0---0----0---0---|


G|---------------------------|---------------------------|---------------------------|
D|---------------------------|---------------------------|---------------------------|
A|-2----2---2---2----2---2---|-2----2---2---2----2---2---|-2----2---2---2----2---2---|
E|---------------------------|---------------------------|---------------------------|


G|---------------------------|---------------------------|---------------------------|
D|---------------------------|---------------------------|---------------------------|
A|-2----2---2---2----2---2---|---------------------------|---------------------------|
E|---------------------------|-0----0---0---0----0---0---|-0----0---0---0----0---0---|


G|---------------------------|---------------------------|---------------------------|
D|---------------------------|---------------------------|---------------------------|
A|---------------------------|---------------------------|-2----2---2---2----2---2---|
E|-0----0---0---0----0---0---|-0----0---0---0----0---0---|---------------------------|


G|---------------------------|---------------------------|---------------------------|
D|---------------------------|---------------------------|---------------------------|
A|-2----2---2---2----2---2---|-2----2---2---2----2---2---|-2----2---2---2----2---2---|
E|---------------------------|---------------------------|---------------------------|


G|---------------------------|---------------------------|---------------------------|
D|---------------------------|---------------------------|---------------------------|
A|---------------------------|---------------------------|---------------------------|
E|-0----0---0---0----0---0---|-0----0---0---0----0---0---|-0----0---0---0----0---0---|


G|---------------------------|---------------------------|---------------------------|
D|---------------------------|---------------------------|---------------------------|
A|---------------------------|-2----2---2---2----2---2---|-2----2---2---2----2---2---|
E|-0----0---0---0----0---0---|---------------------------|---------------------------|


G|---------------------------|---------------------------|---------------------------|
D|---------------------------|---------------------------|---------------------------|
A|-2----2---2---2----2---2---|-2----2---2---2----2---2---|---------------------------|
E|---------------------------|---------------------------|-0----0---0---0----0---0---|


G|---------------------------|---------------------------|---------------------------|
D|---------------------------|---------------------------|---------------------------|
A|---------------------------|---------------------------|---------------------------|
E|-0----0---0---0----0---0---|-0----0---0---0----0---0---|-0----0---0---0----0---0---|


G|---------------------------|---------------------------|---------------------------|
D|---------------------------|---------------------------|---------------------------|
A|-2----2---2---2----2---2---|-2----2---2---2----2---2---|-2----2---2---2----2---2---|
E|---------------------------|---------------------------|---------------------------|


G|---------------------------|---------------------------|---------------------------|
D|---------------------------|---------------------------|---------------------------|
A|-2----2---2---2----2---2---|---------------------------|---------------------------|
E|---------------------------|-0----0---0---0----0---0---|-0----0---0---0----0---0---|


G|---------------------------|---------------------------|--------|--------|--------|
D|---------------------------|---------------------------|--------|--------|--------|
A|---------------------------|---------------------------|-2------|-2------|-2------|
E|-0----0---0---0----0---0---|-0----0---0---0----0---0---|--------|--------|--------|


G|--------|--------|--------|--------|--------|--------|--------|--------|--------|
D|--------|--------|--------|--------|--------|--------|--------|--------|--------|
A|-2------|--------|--------|--------|--------|-2------|-2------|-2------|-2------|
E|--------|-0------|-0------|-0------|-0------|--------|--------|--------|--------|


G|--------|--------|--------|--------|---------------------------|---------------------------|
D|--------|--------|--------|--------|---------------------------|---------------------------|
A|--------|--------|--------|--------|-2----2---2---2----2---2---|-2----2---2---2----2---2---|
E|-0------|-0------|-0------|-0------|---------------------------|---------------------------|


G|---------------------------|---------------------------|---------------------------|
D|---------------------------|---------------------------|---------------------------|
A|-2----2---2---2----2---2---|-2----2---2---2----2---2---|---------------------------|
E|---------------------------|---------------------------|-0----0---0---0----0---0---|


G|---------------------------|---------------------------|---------------------------|
D|---------------------------|---------------------------|---------------------------|
A|---------------------------|---------------------------|---------------------------|
E|-0----0---0---0----0---0---|-0----0---0---0----0---0---|-0----0---0---0----0---0---|


G|---------------------------|---------------------------|---------------------------|
D|---------------------------|---------------------------|---------------------------|
A|-2----2---2---2----2---2---|-2----2---2---2----2---2---|-2----2---2---2----2---2---|
E|---------------------------|---------------------------|---------------------------|


G|---------------------------|---------------------------|---------------------------|
D|---------------------------|---------------------------|---------------------------|
A|-2----2---2---2----2---2---|---------------------------|---------------------------|
E|---------------------------|-0----0---0---0----0---0---|-0----0---0---0----0---0---|


G|---------------------------|---------------------------|---------------------------|
D|---------------------------|---------------------------|---------------------------|
A|---------------------------|---------------------------|-2----2---2---2----2---2---|
E|-0----0---0---0----0---0---|-0----0---0---0----0---0---|---------------------------|


G|---------------------------|---------------------------|---------------------------|
D|---------------------------|---------------------------|---------------------------|
A|-2----2---2---2----2---2---|-2----2---2---2----2---2---|-2----2---2---2----2---2---|
E|---------------------------|---------------------------|---------------------------|


G|---------------------------|---------------------------|---------------------------|
D|---------------------------|---------------------------|---------------------------|
A|---------------------------|---------------------------|---------------------------|
E|-0----0---0---0----0---0---|-0----0---0---0----0---0---|-0----0---0---0----0---0---|


G|---------------------------|---------------------------|---------------------------|
D|---------------------------|---------------------------|---------------------------|
A|---------------------------|-2----2---2---2----2---2---|-2----2---2---2----2---2---|
E|-0----0---0---0----0---0---|---------------------------|---------------------------|


G|---------------------------|---------------------------|---------------------------|
D|---------------------------|---------------------------|---------------------------|
A|-2----2---2---2----2---2---|-2----2---2---2----2---2---|---------------------------|
E|---------------------------|---------------------------|-0----0---0---0----0---0---|


G|---------------------------|---------------------------|---------------------------|
D|---------------------------|---------------------------|---------------------------|
A|---------------------------|---------------------------|---------------------------|
E|-0----0---0---0----0---0---|-0----0---0---0----0---0---|-0----0---0---0----0---0---|


G|-----------------------------|-----------------------------|-----------------------------|
D|-----------------------------|-----------------------------|-----------------------------|
A|-2-----2--2--2--2--2--2--2---|-2-----2--2--2--2--2--2--2---|-2-----2--2--2--2--2--2--2---|
E|-----------------------------|-----------------------------|-----------------------------|


G|-----------------------------|-----------------------------|-----------------------------|
D|-----------------------------|-----------------------------|-----------------------------|
A|-2-----2--2--2--2--2--2--2---|-2-----2--2--2--2--2--2--2---|-2-----2--2--2--2--2--2--2---|
E|-----------------------------|-----------------------------|-----------------------------|


G|-----------------------------|-----------------------------|---------------------------|
D|-----------------------------|-----------------------------|---------------------------|
A|-2-----2--2--2--2--2--2--2---|-2-----2--2--2--2--2--2--2---|-2----2---2---2----2---2---|
E|-----------------------------|-----------------------------|---------------------------|


G|---------------------------|---------------------------|---------------------------|
D|---------------------------|---------------------------|---------------------------|
A|-2----2---2---2----2---2---|-2----2---2---2----2---2---|-2----2---2---2----2---2---|
E|---------------------------|---------------------------|---------------------------|


G|---------------------------|---------------------------|---------------------------|
D|---------------------------|---------------------------|---------------------------|
A|---------------------------|---------------------------|---------------------------|
E|-0----0---0---0----0---0---|-0----0---0---0----0---0---|-0----0---0---0----0---0---|


G|---------------------------|---------------------------|---------------------------|
D|---------------------------|---------------------------|---------------------------|
A|---------------------------|-2----2---2---2----2---2---|-2----2---2---2----2---2---|
E|-0----0---0---0----0---0---|---------------------------|---------------------------|


G|---------------------------|---------------------------|---------------------------|
D|---------------------------|---------------------------|---------------------------|
A|-2----2---2---2----2---2---|-2----2---2---2----2---2---|---------------------------|
E|---------------------------|---------------------------|-0----0---0---0----0---0---|


G|---------------------------|---------------------------|---------------------------|
D|---------------------------|---------------------------|---------------------------|
A|---------------------------|---------------------------|---------------------------|
E|-0----0---0---0----0---0---|-0----0---0---0----0---0---|-0----0---0---0----0---0---|


G|--------|
D|--------|
A|--------|
E|--------|









Track 7: Piano
Back to top
E|--------|--------|--------|--------|--------|--------|--------|--------|--------|
B|--------|--------|--------|--------|--------|--------|--------|--------|--------|
G|--------|--------|--------|--------|--------|--------|--------|--------|--------|
D|--------|--------|--------|--------|--------|--------|--------|--------|--------|
A|--------|--------|--------|--------|--------|--------|--------|--------|--------|
E|--------|--------|--------|--------|--------|--------|--------|--------|--------|


E|--------|--------|--------|--------|--------|--------|--------|--------|--------|
B|--------|--------|--------|--------|--------|--------|--------|--------|--------|
G|--------|--------|--------|--------|--------|--------|--------|--------|--------|
D|--------|--------|--------|--------|--------|--------|--------|--------|--------|
A|--------|--------|--------|--------|--------|--------|--------|--------|--------|
E|--------|--------|--------|--------|--------|--------|--------|--------|--------|


E|--------|--------|--------|--------|--------|--------|------14----12--14--|-16--12---14------14-14-14--14-14-|
B|--------|--------|--------|--------|--------|--------|--------------------|------------------16-16-16--16-16-|
G|--------|--------|--------|--------|--------|--------|------16----16--16--|-16--16---16------16-16-16--16-16-|
D|--------|--------|--------|--------|--------|--------|------16----16--16--|-16--16---16----------------------|
A|--------|--------|--------|--------|--------|--------|------14----14--14--|-14--14---14----------------------|
E|--------|--------|--------|--------|--------|--------|--------------------|----------------------------------|


E|-14------14----12--14--|-16--12---14----14--|------14----12--14--|-16--12---14----14--|
B|-16--------------------|--------------------|--------------------|--------------------|
G|-16------16----16--16--|-16--16---16----16--|------16----16--16--|-16--16---16----16--|
D|---------16----16--16--|-16--16---16----16--|------18----18--18--|-18--18---18----18--|
A|---------14----14--14--|-14--14---14----14--|------19----19--19--|-19--19---19----19--|
E|-----------------------|--------------------|--------------------|--------------------|


E|------14----12--14--|-16--12---14----14--|------14----12--14--|-16--12---14------14-14-14--14-14-|
B|--------------------|--------------------|--------------------|------------------16-16-16--16-16-|
G|------16----16--16--|-16--16---16----16--|------16----16--16--|-16--16---16------16-16-16--16-16-|
D|------18----18--18--|-18--18---18----18--|------16----16--16--|-16--16---16----------------------|
A|------19----19--19--|-19--19---19----19--|------14----14--14--|-14--14---14----------------------|
E|--------------------|--------------------|--------------------|----------------------------------|


E|-14------14----12--14--|-16--12---14----14--|------14----12--14--|-16--12---14----14--|
B|-16--------------------|--------------------|--------------------|--------------------|
G|-16------16----16--16--|-16--16---16----16--|------16----16--16--|-16--16---16----16--|
D|---------16----16--16--|-16--16---16----16--|------18----18--18--|-18--18---18----18--|
A|---------14----14--14--|-14--14---14----14--|------19----19--19--|-19--19---19----19--|
E|-----------------------|--------------------|--------------------|--------------------|


E|------14----12--14--|-16--12---14----14--|------14----12--14--|-16--12---14----14--|
B|--------------------|--------------------|--------------------|--------------------|
G|------16----16--16--|-16--16---16----16--|------16----16--16--|-16--16---16----16--|
D|------18----18--18--|-18--18---18----18--|------16----16--16--|-16--16---16----16--|
A|------19----19--19--|-19--19---19----19--|------14----14--14--|-14--14---14----14--|
E|--------------------|--------------------|--------------------|--------------------|


E|------14----12--14--|-16--12---14----14--|------14----12--14--|-16--12---14----14--|
B|--------------------|--------------------|--------------------|--------------------|
G|------16----16--16--|-16--16---16----16--|------16----16--16--|-16--16---16----16--|
D|------16----16--16--|-16--16---16----16--|------18----18--18--|-18--18---18----18--|
A|------14----14--14--|-14--14---14----14--|------19----19--19--|-19--19---19----19--|
E|--------------------|--------------------|--------------------|--------------------|


E|------14----12--14--|-16--12---14----14--|------14----12--14--|-16--12---14------14-14-14--14-14-|
B|--------------------|--------------------|--------------------|------------------16-16-16--16-16-|
G|------16----16--16--|-16--16---16----16--|------16----16--16--|-16--16---16------16-16-16--16-16-|
D|------18----18--18--|-18--18---18----18--|------16----16--16--|-16--16---16----------------------|
A|------19----19--19--|-19--19---19----19--|------14----14--14--|-14--14---14----------------------|
E|--------------------|--------------------|--------------------|----------------------------------|


E|-14------14----12--14--|-16--12---14----14--|------14----12--14--|-16--12---14----14--|
B|-16--------------------|--------------------|--------------------|--------------------|
G|-16------16----16--16--|-16--16---16----16--|------16----16--16--|-16--16---16----16--|
D|---------16----16--16--|-16--16---16----16--|------18----18--18--|-18--18---18----18--|
A|---------14----14--14--|-14--14---14----14--|------19----19--19--|-19--19---19----19--|
E|-----------------------|--------------------|--------------------|--------------------|


E|------14----12--14--|-16--12---14----14--|------14----12--14--|-16--12---14----14--|
B|--------------------|--------------------|--------------------|--------------------|
G|------16----16--16--|-16--16---16----16--|------16----16--16--|-16--16---16----16--|
D|------18----18--18--|-18--18---18----18--|------16----16--16--|-16--16---16----16--|
A|------19----19--19--|-19--19---19----19--|------14----14--14--|-14--14---14----14--|
E|--------------------|--------------------|--------------------|--------------------|


E|------14----12--14--|-16--12---14----14--|------14----12--14--|-16--12---14----14--|
B|--------------------|--------------------|--------------------|--------------------|
G|------16----16--16--|-16--16---16----16--|------16----16--16--|-16--16---16----16--|
D|------16----16--16--|-16--16---16----16--|------18----18--18--|-18--18---18----18--|
A|------14----14--14--|-14--14---14----14--|------19----19--19--|-19--19---19----19--|
E|--------------------|--------------------|--------------------|--------------------|


E|------14----12--14--|-16--12---14----14--|------14----12--14--|-16--12---14----14--|
B|--------------------|--------------------|--------------------|--------------------|
G|------16----16--16--|-16--16---16----16--|------16----16--16--|-16--16---16----16--|
D|------18----18--18--|-18--18---18----18--|------16----16--16--|-16--16---16----16--|
A|------19----19--19--|-19--19---19----19--|------14----14--14--|-14--14---14----14--|
E|--------------------|--------------------|--------------------|--------------------|


E|------14----12--14--|-16--12---14----14--|------14----12--14--|-16--12---14----14--|
B|--------------------|--------------------|--------------------|--------------------|
G|------16----16--16--|-16--16---16----16--|------16----16--16--|-16--16---16----16--|
D|------16----16--16--|-16--16---16----16--|------18----18--18--|-18--18---18----18--|
A|------14----14--14--|-14--14---14----14--|------19----19--19--|-19--19---19----19--|
E|--------------------|--------------------|--------------------|--------------------|


E|------14----12--14--|-16--12---14----14--|------14----12--14--|-16--12---14----14--|
B|--------------------|--------------------|--------------------|--------------------|
G|------16----16--16--|-16--16---16----16--|------16----16--16--|-16--16---16----16--|
D|------18----18--18--|-18--18---18----18--|------16----16--16--|-16--16---16----16--|
A|------19----19--19--|-19--19---19----19--|------14----14--14--|-14--14---14----14--|
E|--------------------|--------------------|--------------------|--------------------|


E|------14----12--14--|-16--12---14----14--|------14----12--14--|-16--12---14----14--|
B|--------------------|--------------------|--------------------|--------------------|
G|------16----16--16--|-16--16---16----16--|------16----16--16--|-16--16---16----16--|
D|------16----16--16--|-16--16---16----16--|------18----18--18--|-18--18---18----18--|
A|------14----14--14--|-14--14---14----14--|------19----19--19--|-19--19---19----19--|
E|--------------------|--------------------|--------------------|--------------------|


E|------14----12--14--|-16--12---14----14--|------14----12--14--|-16--12---14------14-14-14--14-14-|
B|--------------------|--------------------|--------------------|------------------16-16-16--16-16-|
G|------16----16--16--|-16--16---16----16--|------16----16--16--|-16--16---16------16-16-16--16-16-|
D|------18----18--18--|-18--18---18----18--|------16----16--16--|-16--16---16----------------------|
A|------19----19--19--|-19--19---19----19--|------14----14--14--|-14--14---14----------------------|
E|--------------------|--------------------|--------------------|----------------------------------|


E|-14------14----12--14--|-16--12---14----14--|------14----12--14--|-16--12---14----14--|
B|-16--------------------|--------------------|--------------------|--------------------|
G|-16------16----16--16--|-16--16---16----16--|------16----16--16--|-16--16---16----16--|
D|---------16----16--16--|-16--16---16----16--|------18----18--18--|-18--18---18----18--|
A|---------14----14--14--|-14--14---14----14--|------19----19--19--|-19--19---19----19--|
E|-----------------------|--------------------|--------------------|--------------------|


E|------14----12--14--|-16--12---14----14--|------14----12--14--|-16--12---14------14-14-14--14-14-|
B|--------------------|--------------------|--------------------|------------------16-16-16--16-16-|
G|------16----16--16--|-16--16---16----16--|------16----16--16--|-16--16---16------16-16-16--16-16-|
D|------18----18--18--|-18--18---18----18--|------16----16--16--|-16--16---16----------------------|
A|------19----19--19--|-19--19---19----19--|------14----14--14--|-14--14---14----------------------|
E|--------------------|--------------------|--------------------|----------------------------------|


E|-14------14----12--14--|-16--12---14----14--|------14----12--14--|-16--12---14----14--|
B|-16--------------------|--------------------|--------------------|--------------------|
G|-16------16----16--16--|-16--16---16----16--|------16----16--16--|-16--16---16----16--|
D|---------16----16--16--|-16--16---16----16--|------18----18--18--|-18--18---18----18--|
A|---------14----14--14--|-14--14---14----14--|------19----19--19--|-19--19---19----19--|
E|-----------------------|--------------------|--------------------|--------------------|


E|------14----12--14--|-16--12---14----14--|------14----12--14--|-16--12---14------14-14-14--14-14-|
B|--------------------|--------------------|--------------------|------------------16-16-16--16-16-|
G|------16----16--16--|-16--16---16----16--|------16----16--16--|-16--16---16------16-16-16--16-16-|
D|------18----18--18--|-18--18---18----18--|------16----16--16--|-16--16---16----------------------|
A|------19----19--19--|-19--19---19----19--|------14----14--14--|-14--14---14----------------------|
E|--------------------|--------------------|--------------------|----------------------------------|


E|-14------14----12--14--|-16--12---14----14--|------14----12--14--|-16--12---14----14--|
B|-16--------------------|--------------------|--------------------|--------------------|
G|-16------16----16--16--|-16--16---16----16--|------16----16--16--|-16--16---16----16--|
D|---------16----16--16--|-16--16---16----16--|------18----18--18--|-18--18---18----18--|
A|---------14----14--14--|-14--14---14----14--|------19----19--19--|-19--19---19----19--|
E|-----------------------|--------------------|--------------------|--------------------|


E|------14----12--14--|-16--12---14----14--|------14----12--14--|-16--12---14------14-14-14--14-14-|
B|--------------------|--------------------|--------------------|------------------16-16-16--16-16-|
G|------16----16--16--|-16--16---16----16--|------16----16--16--|-16--16---16------16-16-16--16-16-|
D|------18----18--18--|-18--18---18----18--|------16----16--16--|-16--16---16----------------------|
A|------19----19--19--|-19--19---19----19--|------14----14--14--|-14--14---14----------------------|
E|--------------------|--------------------|--------------------|----------------------------------|


E|-14------14----12--14--|-16--12---14----14--|------14----12--14--|-16--12---14----14--|
B|-16--------------------|--------------------|--------------------|--------------------|
G|-16------16----16--16--|-16--16---16----16--|------16----16--16--|-16--16---16----16--|
D|---------16----16--16--|-16--16---16----16--|------18----18--18--|-18--18---18----18--|
A|---------14----14--14--|-14--14---14----14--|------19----19--19--|-19--19---19----19--|
E|-----------------------|--------------------|--------------------|--------------------|


E|------14----12--14--|-16--12---14----14--|------14----12--14--|-16--12---14------14-14-14--14-14-|
B|--------------------|--------------------|--------------------|------------------16-16-16--16-16-|
G|------16----16--16--|-16--16---16----16--|------16----16--16--|-16--16---16------16-16-16--16-16-|
D|------18----18--18--|-18--18---18----18--|------16----16--16--|-16--16---16----------------------|
A|------19----19--19--|-19--19---19----19--|------14----14--14--|-14--14---14----------------------|
E|--------------------|--------------------|--------------------|----------------------------------|


E|-14------14----12--14--|-16--12---14----14--|------14----12--14--|-16--12---14----14--|
B|-16--------------------|--------------------|--------------------|--------------------|
G|-16------16----16--16--|-16--16---16----16--|------16----16--16--|-16--16---16----16--|
D|---------16----16--16--|-16--16---16----16--|------18----18--18--|-18--18---18----18--|
A|---------14----14--14--|-14--14---14----14--|------19----19--19--|-19--19---19----19--|
E|-----------------------|--------------------|--------------------|--------------------|


E|------14----12--14--|-16--12---14----14--|--------|--------|--------|--------|--------|
B|--------------------|--------------------|--------|--------|--------|--------|--------|
G|------16----16--16--|-16--16---16----16--|--------|--------|--------|--------|--------|
D|------18----18--18--|-18--18---18----18--|--------|--------|--------|--------|--------|
A|------19----19--19--|-19--19---19----19--|--------|--------|--------|--------|--------|
E|--------------------|--------------------|--------|--------|--------|--------|--------|


E|--------|--------|--------|------14----12--14--|-16--12---14------14-14-14--14-14-|
B|--------|--------|--------|--------------------|------------------16-16-16--16-16-|
G|--------|--------|--------|------16----16--16--|-16--16---16------16-16-16--16-16-|
D|--------|--------|--------|------16----16--16--|-16--16---16----------------------|
A|--------|--------|--------|------14----14--14--|-14--14---14----------------------|
E|--------|--------|--------|--------------------|----------------------------------|


E|-14------14----12--14--|-16--12---14----14--|------14----12--14--|-16--12---14----14--|
B|-16--------------------|--------------------|--------------------|--------------------|
G|-16------16----16--16--|-16--16---16----16--|------16----16--16--|-16--16---16----16--|
D|---------16----16--16--|-16--16---16----16--|------18----18--18--|-18--18---18----18--|
A|---------14----14--14--|-14--14---14----14--|------19----19--19--|-19--19---19----19--|
E|-----------------------|--------------------|--------------------|--------------------|


E|------14----12--14--|-16--12---14----14--|------14----12--14--|-16--12---14------14-14-14--14-14-|
B|--------------------|--------------------|--------------------|------------------16-16-16--16-16-|
G|------16----16--16--|-16--16---16----16--|------16----16--16--|-16--16---16------16-16-16--16-16-|
D|------18----18--18--|-18--18---18----18--|------16----16--16--|-16--16---16----------------------|
A|------19----19--19--|-19--19---19----19--|------14----14--14--|-14--14---14----------------------|
E|--------------------|--------------------|--------------------|----------------------------------|


E|-14------14----12--14--|-16--12---14----14--|------14----12--14--|-16--12---14----14--|
B|-16--------------------|--------------------|--------------------|--------------------|
G|-16------16----16--16--|-16--16---16----16--|------16----16--16--|-16--16---16----16--|
D|---------16----16--16--|-16--16---16----16--|------18----18--18--|-18--18---18----18--|
A|---------14----14--14--|-14--14---14----14--|------19----19--19--|-19--19---19----19--|
E|-----------------------|--------------------|--------------------|--------------------|


E|------14----12--14--|-16--12---14----14--|--------|
B|--------------------|--------------------|--------|
G|------16----16--16--|-16--16---16----16--|--------|
D|------18----18--18--|-18--18---18----18--|--------|
A|------19----19--19--|-19--19---19----19--|--------|
E|--------------------|--------------------|--------|









Track 8: Chords
Back to top
E|--------|--------|--------|--------|--------|--------|--------|--------|--------|
B|--------|--------|--------|--------|--------|--------|--------|--------|--------|
G|--------|--------|--------|--------|--------|--------|--------|--------|--------|
D|--------|--------|--------|--------|--------|--------|--------|--------|--------|
A|--------|--------|--------|--------|--------|--------|--------|--------|--------|
E|--------|--------|--------|--------|--------|--------|--------|--------|--------|


E|--------|--------|--------|--------|--------|--------|--------|--------|--------|
B|--------|--------|--------|--------|--------|--------|--------|--------|--------|
G|--------|--------|--------|--------|--------|--------|--------|--------|--------|
D|--------|--------|--------|--------|--------|--------|--------|--------|--------|
A|--------|--------|--------|--------|--------|--------|--------|--------|--------|
E|--------|--------|--------|--------|--------|--------|--------|--------|--------|


E|--------|--------|--------|--------|--------|--------|---------------------------------|
B|--------|--------|--------|--------|--------|--------|---------------------------------|
G|--------|--------|--------|--------|--------|--------|---------------------------------|
D|--------|--------|--------|--------|--------|--------|-9---9---9---9---9---9---9---9---|
A|--------|--------|--------|--------|--------|--------|-9---9---9---9---9---9---9---9---|
E|--------|--------|--------|--------|--------|--------|-7---7---7---7---7---7---7---7---|


E|---------------------------------|---------------------------------|---------------------------------|
B|---------------------------------|---------------------------------|---------------------------------|
G|---------------------------------|---------------------------------|---------------------------------|
D|-9---9---9---9---9---9---9---9---|-9---9---9---9---9---9---9---9---|-9---9---9---9---9---9---9---9---|
A|-9---9---9---9---9---9---9---9---|-9---9---9---9---9---9---9---9---|-9---9---9---9---9---9---9---9---|
E|-7---7---7---7---7---7---7---7---|-7---7---7---7---7---7---7---7---|-7---7---7---7---7---7---7---7---|


E|---------------------------------|---------------------------------|---------------------------------|
B|---------------------------------|---------------------------------|---------------------------------|
G|-9---9---9---9---9---9---9---9---|-9---9---9---9---9---9---9---9---|-9---9---9---9---9---9---9---9---|
D|-9---9---9---9---9---9---9---9---|-9---9---9---9---9---9---9---9---|-9---9---9---9---9---9---9---9---|
A|-7---7---7---7---7---7---7---7---|-7---7---7---7---7---7---7---7---|-7---7---7---7---7---7---7---7---|
E|---------------------------------|---------------------------------|---------------------------------|


E|---------------------------------|---------------------------------|---------------------------------|
B|---------------------------------|---------------------------------|---------------------------------|
G|-9---9---9---9---9---9---9---9---|---------------------------------|---------------------------------|
D|-9---9---9---9---9---9---9---9---|-9---9---9---9---9---9---9---9---|-9---9---9---9---9---9---9---9---|
A|-7---7---7---7---7---7---7---7---|-9---9---9---9---9---9---9---9---|-9---9---9---9---9---9---9---9---|
E|---------------------------------|-7---7---7---7---7---7---7---7---|-7---7---7---7---7---7---7---7---|


E|---------------------------------|---------------------------------|---------------------------------|
B|---------------------------------|---------------------------------|---------------------------------|
G|---------------------------------|---------------------------------|-9---9---9---9---9---9---9---9---|
D|-9---9---9---9---9---9---9---9---|-9---9---9---9---9---9---9---9---|-9---9---9---9---9---9---9---9---|
A|-9---9---9---9---9---9---9---9---|-9---9---9---9---9---9---9---9---|-7---7---7---7---7---7---7---7---|
E|-7---7---7---7---7---7---7---7---|-7---7---7---7---7---7---7---7---|---------------------------------|


E|---------------------------------|---------------------------------|---------------------------------|
B|---------------------------------|---------------------------------|---------------------------------|
G|-9---9---9---9---9---9---9---9---|-9---9---9---9---9---9---9---9---|-9---9---9---9---9---9---9---9---|
D|-9---9---9---9---9---9---9---9---|-9---9---9---9---9---9---9---9---|-9---9---9---9---9---9---9---9---|
A|-7---7---7---7---7---7---7---7---|-7---7---7---7---7---7---7---7---|-7---7---7---7---7---7---7---7---|
E|---------------------------------|---------------------------------|---------------------------------|


E|---------------------------------|---------------------------------|---------------------------------|
B|---------------------------------|---------------------------------|---------------------------------|
G|---------------------------------|---------------------------------|---------------------------------|
D|-9---9---9---9---9---9---9---9---|-9---9---9---9---9---9---9---9---|-9---9---9---9---9---9---9---9---|
A|-9---9---9---9---9---9---9---9---|-9---9---9---9---9---9---9---9---|-9---9---9---9---9---9---9---9---|
E|-7---7---7---7---7---7---7---7---|-7---7---7---7---7---7---7---7---|-7---7---7---7---7---7---7---7---|


E|---------------------------------|---------------------------------|---------------------------------|
B|---------------------------------|---------------------------------|---------------------------------|
G|---------------------------------|-9---9---9---9---9---9---9---9---|-9---9---9---9---9---9---9---9---|
D|-9---9---9---9---9---9---9---9---|-9---9---9---9---9---9---9---9---|-9---9---9---9---9---9---9---9---|
A|-9---9---9---9---9---9---9---9---|-7---7---7---7---7---7---7---7---|-7---7---7---7---7---7---7---7---|
E|-7---7---7---7---7---7---7---7---|---------------------------------|---------------------------------|


E|---------------------------------|---------------------------------|---------------------------------|
B|---------------------------------|---------------------------------|---------------------------------|
G|-9---9---9---9---9---9---9---9---|-9---9---9---9---9---9---9---9---|---------------------------------|
D|-9---9---9---9---9---9---9---9---|-9---9---9---9---9---9---9---9---|-9---9---9---9---9---9---9---9---|
A|-7---7---7---7---7---7---7---7---|-7---7---7---7---7---7---7---7---|-9---9---9---9---9---9---9---9---|
E|---------------------------------|---------------------------------|-7---7---7---7---7---7---7---7---|


E|---------------------------------|---------------------------------|---------------------------------|
B|---------------------------------|---------------------------------|---------------------------------|
G|---------------------------------|---------------------------------|---------------------------------|
D|-9---9---9---9---9---9---9---9---|-9---9---9---9---9---9---9---9---|-9---9---9---9---9---9---9---9---|
A|-9---9---9---9---9---9---9---9---|-9---9---9---9---9---9---9---9---|-9---9---9---9---9---9---9---9---|
E|-7---7---7---7---7---7---7---7---|-7---7---7---7---7---7---7---7---|-7---7---7---7---7---7---7---7---|


E|---------------------------------|---------------------------------|---------------------------------|
B|---------------------------------|---------------------------------|---------------------------------|
G|-9---9---9---9---9---9---9---9---|-9---9---9---9---9---9---9---9---|-9---9---9---9---9---9---9---9---|
D|-9---9---9---9---9---9---9---9---|-9---9---9---9---9---9---9---9---|-9---9---9---9---9---9---9---9---|
A|-7---7---7---7---7---7---7---7---|-7---7---7---7---7---7---7---7---|-7---7---7---7---7---7---7---7---|
E|---------------------------------|---------------------------------|---------------------------------|


E|---------------------------------|---------------------------------|---------------------------------|
B|---------------------------------|---------------------------------|---------------------------------|
G|-9---9---9---9---9---9---9---9---|---------------------------------|---------------------------------|
D|-9---9---9---9---9---9---9---9---|-9---9---9---9---9---9---9---9---|-9---9---9---9---9---9---9---9---|
A|-7---7---7---7---7---7---7---7---|-9---9---9---9---9---9---9---9---|-9---9---9---9---9---9---9---9---|
E|---------------------------------|-7---7---7---7---7---7---7---7---|-7---7---7---7---7---7---7---7---|


E|---------------------------------|---------------------------------|---------------------------------|
B|---------------------------------|---------------------------------|---------------------------------|
G|---------------------------------|---------------------------------|-9---9---9---9---9---9---9---9---|
D|-9---9---9---9---9---9---9---9---|-9---9---9---9---9---9---9---9---|-9---9---9---9---9---9---9---9---|
A|-9---9---9---9---9---9---9---9---|-9---9---9---9---9---9---9---9---|-7---7---7---7---7---7---7---7---|
E|-7---7---7---7---7---7---7---7---|-7---7---7---7---7---7---7---7---|---------------------------------|


E|---------------------------------|---------------------------------|---------------------------------|
B|---------------------------------|---------------------------------|---------------------------------|
G|-9---9---9---9---9---9---9---9---|-9---9---9---9---9---9---9---9---|-9---9---9---9---9---9---9---9---|
D|-9---9---9---9---9---9---9---9---|-9---9---9---9---9---9---9---9---|-9---9---9---9---9---9---9---9---|
A|-7---7---7---7---7---7---7---7---|-7---7---7---7---7---7---7---7---|-7---7---7---7---7---7---7---7---|
E|---------------------------------|---------------------------------|---------------------------------|


E|---------------------------------|---------------------------------|---------------------------------|
B|---------------------------------|---------------------------------|---------------------------------|
G|---------------------------------|---------------------------------|---------------------------------|
D|-9---9---9---9---9---9---9---9---|-9---9---9---9---9---9---9---9---|-9---9---9---9---9---9---9---9---|
A|-9---9---9---9---9---9---9---9---|-9---9---9---9---9---9---9---9---|-9---9---9---9---9---9---9---9---|
E|-7---7---7---7---7---7---7---7---|-7---7---7---7---7---7---7---7---|-7---7---7---7---7---7---7---7---|


E|---------------------------------|---------------------------------|---------------------------------|
B|---------------------------------|---------------------------------|---------------------------------|
G|---------------------------------|-9---9---9---9---9---9---9---9---|-9---9---9---9---9---9---9---9---|
D|-9---9---9---9---9---9---9---9---|-9---9---9---9---9---9---9---9---|-9---9---9---9---9---9---9---9---|
A|-9---9---9---9---9---9---9---9---|-7---7---7---7---7---7---7---7---|-7---7---7---7---7---7---7---7---|
E|-7---7---7---7---7---7---7---7---|---------------------------------|---------------------------------|


E|---------------------------------|---------------------------------|--------|--------|
B|---------------------------------|---------------------------------|--------|--------|
G|-9---9---9---9---9---9---9---9---|-9---9---9---9---9---9---9---9---|--------|--------|
D|-9---9---9---9---9---9---9---9---|-9---9---9---9---9---9---9---9---|--------|--------|
A|-7---7---7---7---7---7---7---7---|-7---7---7---7---7---7---7---7---|--------|--------|
E|---------------------------------|---------------------------------|--------|--------|


E|--------|--------|--------|--------|--------|--------|--------|--------|--------|
B|--------|--------|--------|--------|--------|--------|--------|--------|--------|
G|--------|--------|--------|--------|--------|--------|--------|--------|--------|
D|--------|--------|--------|--------|--------|--------|--------|--------|--------|
A|--------|--------|--------|--------|--------|--------|--------|--------|--------|
E|--------|--------|--------|--------|--------|--------|--------|--------|--------|


E|--------|--------|--------|--------|--------|---------------------------------|---------------------------------|
B|--------|--------|--------|--------|--------|---------------------------------|---------------------------------|
G|--------|--------|--------|--------|--------|---------------------------------|---------------------------------|
D|--------|--------|--------|--------|--------|-9---9---9---9---9---9---9---9---|-9---9---9---9---9---9---9---9---|
A|--------|--------|--------|--------|--------|-9---9---9---9---9---9---9---9---|-9---9---9---9---9---9---9---9---|
E|--------|--------|--------|--------|--------|-7---7---7---7---7---7---7---7---|-7---7---7---7---7---7---7---7---|


E|---------------------------------|---------------------------------|---------------------------------|
B|---------------------------------|---------------------------------|---------------------------------|
G|---------------------------------|---------------------------------|-9---9---9---9---9---9---9---9---|
D|-9---9---9---9---9---9---9---9---|-9---9---9---9---9---9---9---9---|-9---9---9---9---9---9---9---9---|
A|-9---9---9---9---9---9---9---9---|-9---9---9---9---9---9---9---9---|-7---7---7---7---7---7---7---7---|
E|-7---7---7---7---7---7---7---7---|-7---7---7---7---7---7---7---7---|---------------------------------|


E|---------------------------------|---------------------------------|---------------------------------|
B|---------------------------------|---------------------------------|---------------------------------|
G|-9---9---9---9---9---9---9---9---|-9---9---9---9---9---9---9---9---|-9---9---9---9---9---9---9---9---|
D|-9---9---9---9---9---9---9---9---|-9---9---9---9---9---9---9---9---|-9---9---9---9---9---9---9---9---|
A|-7---7---7---7---7---7---7---7---|-7---7---7---7---7---7---7---7---|-7---7---7---7---7---7---7---7---|
E|---------------------------------|---------------------------------|---------------------------------|


E|---------------------------------|---------------------------------|---------------------------------|
B|---------------------------------|---------------------------------|---------------------------------|
G|---------------------------------|---------------------------------|---------------------------------|
D|-9---9---9---9---9---9---9---9---|-9---9---9---9---9---9---9---9---|-9---9---9---9---9---9---9---9---|
A|-9---9---9---9---9---9---9---9---|-9---9---9---9---9---9---9---9---|-9---9---9---9---9---9---9---9---|
E|-7---7---7---7---7---7---7---7---|-7---7---7---7---7---7---7---7---|-7---7---7---7---7---7---7---7---|


E|---------------------------------|---------------------------------|---------------------------------|
B|---------------------------------|---------------------------------|---------------------------------|
G|---------------------------------|-9---9---9---9---9---9---9---9---|-9---9---9---9---9---9---9---9---|
D|-9---9---9---9---9---9---9---9---|-9---9---9---9---9---9---9---9---|-9---9---9---9---9---9---9---9---|
A|-9---9---9---9---9---9---9---9---|-7---7---7---7---7---7---7---7---|-7---7---7---7---7---7---7---7---|
E|-7---7---7---7---7---7---7---7---|---------------------------------|---------------------------------|


E|---------------------------------|---------------------------------|---------------------------------|
B|---------------------------------|---------------------------------|---------------------------------|
G|-9---9---9---9---9---9---9---9---|-9---9---9---9---9---9---9---9---|---------------------------------|
D|-9---9---9---9---9---9---9---9---|-9---9---9---9---9---9---9---9---|-9---9---9---9---9---9---9---9---|
A|-7---7---7---7---7---7---7---7---|-7---7---7---7---7---7---7---7---|-9---9---9---9---9---9---9---9---|
E|---------------------------------|---------------------------------|-7---7---7---7---7---7---7---7---|


E|---------------------------------|---------------------------------|---------------------------------|
B|---------------------------------|---------------------------------|---------------------------------|
G|---------------------------------|---------------------------------|---------------------------------|
D|-9---9---9---9---9---9---9---9---|-9---9---9---9---9---9---9---9---|-9---9---9---9---9---9---9---9---|
A|-9---9---9---9---9---9---9---9---|-9---9---9---9---9---9---9---9---|-9---9---9---9---9---9---9---9---|
E|-7---7---7---7---7---7---7---7---|-7---7---7---7---7---7---7---7---|-7---7---7---7---7---7---7---7---|


E|---------------------------------|---------------------------------|---------------------------------|
B|---------------------------------|---------------------------------|---------------------------------|
G|-9---9---9---9---9---9---9---9---|-9---9---9---9---9---9---9---9---|-9---9---9---9---9---9---9---9---|
D|-9---9---9---9---9---9---9---9---|-9---9---9---9---9---9---9---9---|-9---9---9---9---9---9---9---9---|
A|-7---7---7---7---7---7---7---7---|-7---7---7---7---7---7---7---7---|-7---7---7---7---7---7---7---7---|
E|---------------------------------|---------------------------------|---------------------------------|


E|---------------------------------|---------------------------------|---------------------------------|
B|---------------------------------|---------------------------------|---------------------------------|
G|-9---9---9---9---9---9---9---9---|---------------------------------|---------------------------------|
D|-9---9---9---9---9---9---9---9---|-9---9---9---9---9---9---9---9---|-9---9---9---9---9---9---9---9---|
A|-7---7---7---7---7---7---7---7---|-9---9---9---9---9---9---9---9---|-9---9---9---9---9---9---9---9---|
E|---------------------------------|-7---7---7---7---7---7---7---7---|-7---7---7---7---7---7---7---7---|


E|---------------------------------|---------------------------------|---------------------------------|
B|---------------------------------|---------------------------------|---------------------------------|
G|---------------------------------|---------------------------------|-9---9---9---9---9---9---9---9---|
D|-9---9---9---9---9---9---9---9---|-9---9---9---9---9---9---9---9---|-9---9---9---9---9---9---9---9---|
A|-9---9---9---9---9---9---9---9---|-9---9---9---9---9---9---9---9---|-7---7---7---7---7---7---7---7---|
E|-7---7---7---7---7---7---7---7---|-7---7---7---7---7---7---7---7---|---------------------------------|


E|---------------------------------|---------------------------------|---------------------------------|
B|---------------------------------|---------------------------------|---------------------------------|
G|-9---9---9---9---9---9---9---9---|-9---9---9---9---9---9---9---9---|-9---9---9---9---9---9---9---9---|
D|-9---9---9---9---9---9---9---9---|-9---9---9---9---9---9---9---9---|-9---9---9---9---9---9---9---9---|
A|-7---7---7---7---7---7---7---7---|-7---7---7---7---7---7---7---7---|-7---7---7---7---7---7---7---7---|
E|---------------------------------|---------------------------------|---------------------------------|


E|--------|--------|--------|--------|--------|--------|--------|--------|---------------------------------|
B|--------|--------|--------|--------|--------|--------|--------|--------|---------------------------------|
G|--------|--------|--------|--------|--------|--------|--------|--------|---------------------------------|
D|--------|--------|--------|--------|--------|--------|--------|--------|-9---9---9---9---9---9---9---9---|
A|--------|--------|--------|--------|--------|--------|--------|--------|-9---9---9---9---9---9---9---9---|
E|--------|--------|--------|--------|--------|--------|--------|--------|-7---7---7---7---7---7---7---7---|


E|---------------------------------|---------------------------------|---------------------------------|
B|---------------------------------|---------------------------------|---------------------------------|
G|---------------------------------|---------------------------------|---------------------------------|
D|-9---9---9---9---9---9---9---9---|-9---9---9---9---9---9---9---9---|-9---9---9---9---9---9---9---9---|
A|-9---9---9---9---9---9---9---9---|-9---9---9---9---9---9---9---9---|-9---9---9---9---9---9---9---9---|
E|-7---7---7---7---7---7---7---7---|-7---7---7---7---7---7---7---7---|-7---7---7---7---7---7---7---7---|


E|---------------------------------|---------------------------------|---------------------------------|
B|---------------------------------|---------------------------------|---------------------------------|
G|-9---9---9---9---9---9---9---9---|-9---9---9---9---9---9---9---9---|-9---9---9---9---9---9---9---9---|
D|-9---9---9---9---9---9---9---9---|-9---9---9---9---9---9---9---9---|-9---9---9---9---9---9---9---9---|
A|-7---7---7---7---7---7---7---7---|-7---7---7---7---7---7---7---7---|-7---7---7---7---7---7---7---7---|
E|---------------------------------|---------------------------------|---------------------------------|


E|---------------------------------|---------------------------------|---------------------------------|
B|---------------------------------|---------------------------------|---------------------------------|
G|-9---9---9---9---9---9---9---9---|---------------------------------|---------------------------------|
D|-9---9---9---9---9---9---9---9---|-9---9---9---9---9---9---9---9---|-9---9---9---9---9---9---9---9---|
A|-7---7---7---7---7---7---7---7---|-9---9---9---9---9---9---9---9---|-9---9---9---9---9---9---9---9---|
E|---------------------------------|-7---7---7---7---7---7---7---7---|-7---7---7---7---7---7---7---7---|


E|---------------------------------|---------------------------------|---------------------------------|
B|---------------------------------|---------------------------------|---------------------------------|
G|---------------------------------|---------------------------------|-9---9---9---9---9---9---9---9---|
D|-9---9---9---9---9---9---9---9---|-9---9---9---9---9---9---9---9---|-9---9---9---9---9---9---9---9---|
A|-9---9---9---9---9---9---9---9---|-9---9---9---9---9---9---9---9---|-7---7---7---7---7---7---7---7---|
E|-7---7---7---7---7---7---7---7---|-7---7---7---7---7---7---7---7---|---------------------------------|


E|---------------------------------|---------------------------------|---------------------------------|
B|---------------------------------|---------------------------------|---------------------------------|
G|-9---9---9---9---9---9---9---9---|-9---9---9---9---9---9---9---9---|-9---9---9---9---9---9---9---9---|
D|-9---9---9---9---9---9---9---9---|-9---9---9---9---9---9---9---9---|-9---9---9---9---9---9---9---9---|
A|-7---7---7---7---7---7---7---7---|-7---7---7---7---7---7---7---7---|-7---7---7---7---7---7---7---7---|
E|---------------------------------|---------------------------------|---------------------------------|


E|--------|
B|--------|
G|--------|
D|--------|
A|--------|
E|--------|









Track 9: Drums
Back to top
C|---------------------|---------------------|---------------------|---------------------|
C|------28--------28---|------28--------28---|------28--------28---|------28--------28---|
C|------48--------48---|------48--------48---|------48--------48---|------48--------48---|
C|------47--------47---|------47--------47---|------47--------47---|------47--------47---|
C|------38--------38---|------38--------38---|------38--------38---|------38--------38---|
C|---------------------|---------------------|---------------------|---------------------|


C|---------------------|---------------------|---------------------|---------------------|
C|------28--------28---|------28--------28---|------28--------28---|------28--------28---|
C|------48--------48---|------48--------48---|------48--------48---|------48--------48---|
C|------47--------47---|------47--------47---|------47--------47---|------47--------47---|
C|------38--------38---|------38--------38---|------38--------38---|------38--------38---|
C|---------------------|---------------------|---------------------|---------------------|


C|---------------------|---------------------|---------------------|---------------------------|
C|------28--------28---|------28--------28---|------28--------28---|------28-----------28------|
C|------48--------48---|------48--------48---|------48--------48---|------48-----------48------|
C|------47--------47---|------47--------47---|------47--------47---|------47-----------47------|
C|------38--------38---|------38--------38---|------38--------38---|------38-------36--38--36--|
C|---------------------|---------------------|---------------------|---------------------------|


C|------------------------|---------------------|---------------------|---------------------------|
C|---------28--------28---|------28--------28---|------28--------28---|------28-----------28------|
C|---------48--------48---|------48--------48---|------48--------48---|------48-----------48------|
C|---------47--------47---|------47--------47---|------47--------47---|------47-----------47------|
C|-36------38--------38---|------38--------38---|------38--------38---|------38-------36--38--36--|
C|------------------------|---------------------|---------------------|---------------------------|


C|------------------------|---------------------|------------------------|---------------------|
C|---------28--------28---|------28--------28---|---------28--------28---|------28--------28---|
C|---------48--------48---|------48--------48---|---------48--------48---|------48--------48---|
C|---------47--------47---|------47--------47---|---------47--------47---|------47--------47---|
C|-36------38--------38---|------38--------38---|-36------38--------38---|------38--------38---|
C|------------------------|---------------------|------------------------|---------------------|


C|------------------------|---------------------|------------------------|--------------------------------------|
C|---------28--------28---|------28--------28---|---------28--------28---|------28--------------------28--------|
C|---------48--------48---|------48--------48---|---------48--------48---|------48-----------38-38-38-48-----38-|
C|---------47--------47---|------47--------47---|---------47--------47---|------47--45-45-45-45-45-41-47--41-41-|
C|-36--36--38--------38---|------38--------38---|-36--36--38--------38---|-36---38-----36-36----36----38-----36-|
C|------------------------|---------------------|------------------------|--------------------------------------|


C|-----------------------------|------------------------|------------------------|
C|-49--------28-----------28---|------28-----------28---|------28-----------28---|
C|-38--38-38-48-----------48---|------48-----------48---|------48-----------48---|
C|-45--45-45-47-----------47---|------47-----------47---|------47-----------47---|
C|-36-----36-38---36--36--38---|-36---38---36--36--38---|-36---38---36--36--38---|
C|-----------------------------|------------------------|------------------------|


C|-------------------------------|---------------------------|------------------------|
C|------28-------------28--------|-49------28-----------28---|------28-----------28---|
C|------48------38-38--48-----38-|-38--38--48-----------48---|------48-----------48---|
C|------47---41-41-41--47--41-41-|-41--41--47-----------47---|------47-----------47---|
C|-36---38---36----36--38--38-38-|-36------38---36--36--38---|-36---38---36--36--38---|
C|-------------------------------|---------------------------|------------------------|


C|------------------------|-------------------------------|---------------------------|
C|------28-----------28---|------28-------------28--------|-49------28-----------28---|
C|------48-----------48---|------48------38-38--48-----38-|-38--38--48-----------48---|
C|------47-----------47---|------47---41-41-41--47--41-41-|-41--41--47-----------47---|
C|-36---38---36--36--38---|-36---38---36----36--38--38-38-|-36------38---36--36--38---|
C|------------------------|-------------------------------|---------------------------|


C|------------------------|------------------------|-------------------------------|
C|------28-----------28---|------28-----------28---|------28-------------28--------|
C|------48-----------48---|------48-----------48---|------48------38-38--48-----38-|
C|------47-----------47---|------47-----------47---|------47---41-41-41--47--41-41-|
C|-36---38---36--36--38---|-36---38---36--36--38---|-36---38---36----36--38--38-38-|
C|------------------------|------------------------|-------------------------------|


C|---------------------------|------------------------|------------------------|---------------------------|
C|-49------28-----------28---|------28-----------28---|------28-----------28---|------28-----------28------|
C|-38--38--48-----------48---|------48-----------48---|------48-----------48---|------48-----------48--48--|
C|-41--41--47-----------47---|------47-----------47---|------47-----------47---|------47-----------47--47--|
C|-36------38---36--36--38---|-36---38---36--36--38---|-36---38---36--36--38---|-36---38---36--36--38--38--|
C|---------------------------|------------------------|------------------------|---------------------------|


C|---------49----------------|------------------------|------------------------|-------------------------------|
C|---------28-----------28---|------28-----------28---|------28-----------28---|------28-------------28--------|
C|-48--48--48-----------48---|------48-----------48---|------48-----------48---|------48------38-38--48-----38-|
C|-47--47--47-----------47---|------47-----------47---|------47-----------47---|------47---41-41-41--47--41-41-|
C|-38--38--38---36--36--38---|-36---38---36--36--38---|-36---38---36--36--38---|-36---38---36----36--38--38-38-|
C|---------------------------|------------------------|------------------------|-------------------------------|


C|---------------------------|------------------------|------------------------|-------------------------------|
C|-49------28-----------28---|------28-----------28---|------28-----------28---|------28-------------28--------|
C|-38--38--48-----------48---|------48-----------48---|------48-----------48---|------48------38-38--48-----38-|
C|-41--41--47-----------47---|------47-----------47---|------47-----------47---|------47---41-41-41--47--41-41-|
C|-36------38---36--36--38---|-36---38---36--36--38---|-36---38---36--36--38---|-36---38---36----36--38--38-38-|
C|---------------------------|------------------------|------------------------|-------------------------------|


C|---------------------------|------------------------|------------------------|-------------------------------|
C|-49------28-----------28---|------28-----------28---|------28-----------28---|------28-------------28--------|
C|-38--38--48-----------48---|------48-----------48---|------48-----------48---|------48------38-38--48-----38-|
C|-41--41--47-----------47---|------47-----------47---|------47-----------47---|------47---41-41-41--47--41-41-|
C|-36------38---36--36--38---|-36---38---36--36--38---|-36---38---36--36--38---|-36---38---36----36--38--38-38-|
C|---------------------------|------------------------|------------------------|-------------------------------|


C|---------------------------|------------------------|------------------------|-------------------------------|
C|-49------28-----------28---|------28-----------28---|------28-----------28---|------28-------------28--------|
C|-38--38--48-----------48---|------48-----------48---|------48-----------48---|------48------38-38--48-----38-|
C|-41--41--47-----------47---|------47-----------47---|------47-----------47---|------47---41-41-41--47--41-41-|
C|-36------38---36--36--38---|-36---38---36--36--38---|-36---38---36--36--38---|-36---38---36----36--38--38-38-|
C|---------------------------|------------------------|------------------------|-------------------------------|


C|---------------------------|------------------------|------------------------|-------------------------------|
C|-49------28-----------28---|------28-----------28---|------28-----------28---|------28-------------28--------|
C|-38--38--48-----------48---|------48-----------48---|------48-----------48---|------48------38-38--48-----38-|
C|-41--41--47-----------47---|------47-----------47---|------47-----------47---|------47---41-41-41--47--41-41-|
C|-36------38---36--36--38---|-36---38---36--36--38---|-36---38---36--36--38---|-36---38---36----36--38--38-38-|
C|---------------------------|------------------------|------------------------|-------------------------------|


C|---------------------------|------------------------------------|---------------------------|
C|-49------28-----------28---|-----------28-------------28--------|-49------28-----------28---|
C|-38--38--48-----------48---|----38-38--48------38-38--48-----38-|-38--38--48-----------48---|
C|-41--41--47-----------47---|-41-41-41--47---41-41-41--47--41-41-|-41--41--47-----------47---|
C|-36------38---36--36--38---|-36----36--38---36----36--38--38-38-|-36------38---36--36--38---|
C|---------------------------|------------------------------------|---------------------------|


C|---------------------------------------|-----------------------------|------------------------|
C|-----------28----------------28--------|-49--------28-----------28---|------28-----------28---|
C|-----38-38-48---------38-38--48-----38-|-38--38-38-48-----------48---|------48-----------48---|
C|-----41-41-47--41--41-41-41--47--41-41-|-41--41-41-47-----------47---|------47-----------47---|
C|-36--------38--36--36----36--38--38-38-|-36--------38---36--36--38---|-36---38---36--36--38---|
C|---------------------------------------|-----------------------------|------------------------|


C|------------------------|-----------------------------|------------------------|
C|------28-----------28---|-----------------------------|-49---28-----------28---|
C|------48-----------48---|-38---38---38-----38-38--38--|-38---48-----------48---|
C|------47-----------47---|-41---41---41--41-41-41--41--|-41---47-----------47---|
C|-36---38---36--36--38---|-36---36---36--36-36-36--36--|-36---38---36--36--38---|
C|------------------------|-----------------------------|------------------------|


C|-----------------------------|-----------------------------|------------------------|
C|------28-----------28--------|-----------28-----------28---|------28-----------28---|
C|------48-----------48--------|-------49--48-----------48---|------48-----------48---|
C|------47-----------47--38-38-|-38-38-38--47-----------47---|------47-----------47---|
C|-36---38---36--36--38--36-36-|-36-36-36--38---36--36--38---|-36---38---36--36--38---|
C|-----------------------------|-----------------------------|------------------------|


C|---------------------|---------------------|---------------------|---------------------|
C|------28--------28---|------28--------28---|------28--------28---|------28--------28---|
C|------48--------48---|------48--------48---|------48--------48---|------48--------48---|
C|------47--------47---|------47--------47---|------47--------47---|------47--------47---|
C|------38--------38---|------38--------38---|------38--------38---|------38--------38---|
C|---------------------|---------------------|---------------------|---------------------|


C|---------------------|---------------------|---------------------|---------------------|
C|------28--------28---|------28--------28---|------28--------28---|------28--------28---|
C|------48--------48---|------48--------48---|------48--------48---|------48--------48---|
C|------47--------47---|------47--------47---|------47--------47---|------47--------47---|
C|------38--------38---|------38--------38---|------38--------38---|------38--------38---|
C|---------------------|---------------------|---------------------|---------------------|


C|------------------------|---------------------|------------------------|---------------------|
C|---------28--------28---|------28--------28---|---------28--------28---|------28--------28---|
C|---------48--------48---|------48--------48---|---------48--------48---|------48--------48---|
C|---------47--------47---|------47--------47---|---------47--------47---|------47--------47---|
C|-36------38--------38---|------38--------38---|-36--36--38--------38---|------38--------38---|
C|------------------------|---------------------|------------------------|---------------------|


C|------------------------|---------------------|---------------------------|---------------------------------|
C|---------28--------28---|------28--------28---|---------28-----------28---|-----28--28--28--28--28--28--28--|
C|---------48--------48---|------48--------48---|---------48-----------48---|-----48--48--48--48--48--48--48--|
C|---------47--------47---|------47--------47---|---------47-----------47---|-----47--47--47--47--47--47--47--|
C|-36--36--38--------38---|------38--------38---|-36--36--38---36--36--38---|-36--38--38--38--38--38--38--38--|
C|------------------------|---------------------|---------------------------|-----36--36--36--36--36--36--36--|


C|---------------------------|-------------------------------|---------------------------|
C|-49------28-----------28---|------28-------------28--------|-49------28-----------28---|
C|-38------48-----------48---|------48------38-38--48-----38-|-38--38--48-----------48---|
C|-41------47-----------47---|------47---41-41-41--47--41-41-|-41--41--47-----------47---|
C|-36--36--38---36--36--38---|-36---38---36----36--38--38-38-|-36------38---36--36--38---|
C|---------------------------|-------------------------------|---------------------------|


C|-------------------------------|---------------------------|-------------------------------|
C|------28-------------28--------|-49------28-----------28---|------28-------------28--------|
C|------48------38-38--48-----38-|-38--38--48-----------48---|------48------38-38--48-----38-|
C|------47---41-41-41--47--41-41-|-41--41--47-----------47---|------47---41-41-41--47--41-41-|
C|-36---38---36----36--38--38-38-|-36------38---36--36--38---|-36---38---36----36--38--38-38-|
C|-------------------------------|---------------------------|-------------------------------|


C|---------------------------|---------------------------|---------------------------|
C|-49------28-----------28---|------28-----------28------|-49------28-----------28---|
C|-38--38--48-----------48---|------48-----------48--48--|-38--38--48-----------48---|
C|-41--41--47-----------47---|------47-----------47--47--|-41--41--47-----------47---|
C|-36------38---36--36--38---|-36---38---36--36--38--38--|-36------38---36--36--38---|
C|---------------------------|---------------------------|---------------------------|


C|------------------------|------------------------|-------------------------------|
C|------28-----------28---|------28-----------28---|------28-------------28--------|
C|------48-----------48---|------48-----------48---|------48------38-38--48-----38-|
C|------47-----------47---|------47-----------47---|------47---41-41-41--47--41-41-|
C|-36---38---36--36--38---|-36---38---36--36--38---|-36---38---36----36--38--38-38-|
C|------------------------|------------------------|-------------------------------|


C|---------------------------|-------------------------------|---------------------------|
C|-49------28-----------28---|------28-------------28--------|-49------28-----------28---|
C|-38--38--48-----------48---|------48------38-38--48-----38-|-38--38--48-----------48---|
C|-41--41--47-----------47---|------47---41-41-41--47--41-41-|-41--41--47-----------47---|
C|-36------38---36--36--38---|-36---38---36----36--38--38-38-|-36------38---36--36--38---|
C|---------------------------|-------------------------------|---------------------------|


C|---------------------------|---------------------------|------------------------|
C|------28-----------28------|-49------28-----------28---|------28-----------28---|
C|------48-----------48--48--|-38--38--48-----------48---|------48-----------48---|
C|------47-----------47--47--|-41--41--47-----------47---|------47-----------47---|
C|-36---38---36--36--38--38--|-36------38---36--36--38---|-36---38---36--36--38---|
C|---------------------------|-57------------------------|------------------------|


C|------49----------------|-------------------------------|---------49----------------|
C|------28-----------28---|------28-------------28--------|-49------28-----------28---|
C|------48-----------48---|------48------38-38--48-----38-|-38--38--48-----------48---|
C|------47-----------47---|------47---41-41-41--47--41-41-|-41--41--47-----------47---|
C|-36---38---36--36--38---|-36---38---36----36--38--38-38-|-36------38---36--36--38---|
C|------57----------------|-------------------------------|---------57----------------|


C|------------------------|------49----------------|---------------------------|---------49----------------|
C|------28-----------28---|------28-----------28---|------28-----------28------|-49------28-----------28---|
C|------48-----------48---|------48-----------48---|------48-----------48--48--|-38--38--48-----------48---|
C|------47-----------47---|------47-----------47---|------47-----------47--47--|-41--41--47-----------47---|
C|-36---38---36--36--38---|-36---38---36--36--38---|-36---38---36--36--38--38--|-36------38---36--36--38---|
C|------------------------|------57----------------|---------------------------|---------57----------------|


C|------------------------|------49----------------|-------------------------------|
C|------28-----------28---|------28-----------28---|------28-------------28--------|
C|------48-----------48---|------48-----------48---|------48------38-38--48-----38-|
C|------47-----------47---|------47-----------47---|------47---41-41-41--47--41-41-|
C|-36---38---36--36--38---|-36---38---36--36--38---|-36---38---36----36--38--38-38-|
C|------------------------|------57----------------|-------------------------------|


C|---------49----------------|------49----------------|------------------------|-----57--57--57--57--57--57--57--|
C|-49------28-----------28---|------28-----------28---|------28-----------28---|-----28--28--28--28--28--28--28--|
C|-38--38--48-----------48---|------48-----------48---|------48-----------48---|-----48--48--48--48--48--48--48--|
C|-41--41--47-----------47---|------47-----------47---|------47-----------47---|-----47--47--47--47--47--47--47--|
C|-36------38---36--36--38---|-36---38---36--36--38---|-36---38---36--36--38---|-36--38--38--38--38--38--38--38--|
C|---------57----------------|------57----------------|------------------------|-----36--36--36--36--36--36--36--|


C|-57--57575757575757575757575757575757575757575757575757575757|-575757575757575757575757----------------------------------------|
C|-28--49494949494949494949494949494949494949494949494949494949|-494949494949494949494949----------------------------------------|
C|-48----------------------------------------------------------|-----------------------------------------------------------------|
C|-47----------------------------------------------------------|-----------------------------------------------------------------|
C|-38----------------------------------------------------------|-------------------------3838383838383838383838383838383838383838|
C|-36----------------------------------------------------------|-----------------------------------------------------------------|


C|-----------------------------------------------------------------|-----------------------------------------------------------------|
C|-----------------------------------------------------------------|-----------------------------------------------------------------|
C|-----------------------------------------------------------------|-----------------------------------------------------------------|
C|-----------------------------------------------------------------|-----------------------------------------------------------------|
C|-3838383838383838414141414141414141414141414141414141414141414141|-4141414141414141474747474747474747474747474747474848484848484848|
C|-----------------------------------------------------------------|-----------------------------------------------------------------|


C|-----------------------------------------------------------------|-----------------------------------------------------------------|
C|-----------------------------------------------------------------|-----------------------------------------------------------------|
C|-------------------------------49----------49--49------49--49--49|-------------------------------49----------49--49------49--49--49|
C|-------------------------------57----------57--57------57--57--57|-------------------------------57----------57--57------57--57--57|
C|-4141414138383838414141413838383841414141383838384141414138383838|-4141414138383838414141413838383841414141383838384141414138383838|
C|-----------------------------------------------------------------|-----------------------------------------------------------------|


C|-----------------------------------------------------------------|---------------------------------------------------------------28|
C|-----------------------------------------------------------------|---------------------------------------------------------------41|
C|-------------------------------49----------49--49------49--49--49|-------------------------------49----------49--49------49--49--49|
C|-------------------------------57----------57--57------57--57--57|-------------------------------57----------57--57------57--57--57|
C|-4141414138383838414141413838383841414141383838384141414138383838|-4141414138383838414141413838383841414141383838384141414138383838|
C|-----------------------------------------------------------------|---------------------------------------------------------------36|


C|------57---------57--57-----57-|-----57--57-------57--57---|------57---------57--57-----57-|
C|------28-------------28--------|-49------28-----------28---|------28-------------28--------|
C|------48------38-38--48-----38-|-38--38--48-----------48---|------48------38-38--48-----38-|
C|------47---41-41-41--47--41-41-|-41--41--47-----------47---|------47---41-41-41--47--41-41-|
C|-36---38---36----36--38--38-38-|-36------38---36--36--38---|-36---38---36----36--38--38-38-|
C|------49---------49--49-----57-|-----49--49-------49--49---|------49---------49--49-----57-|


C|-----57--57-------57--57---|------57---------57--57-----57-|-----57--57-------57--57---|
C|-49------28-----------28---|------28-------------28--------|-49------28-----------28---|
C|-38--38--48-----------48---|------48------38-38--48-----38-|-38--38--48-----------48---|
C|-41--41--47-----------47---|------47---41-41-41--47--41-41-|-41--41--47-----------47---|
C|-36------38---36--36--38---|-36---38---36----36--38--38-38-|-36------38---36--36--38---|
C|-----49--49-------49--49---|------49---------49--49-----57-|-----49--49-------49--49---|


C|------57---------57--57-----57-|-----57--57-------57--57---|------57---------57--57-----57-|
C|------28-------------28--------|-49------28-----------28---|------28-------------28--------|
C|------48------38-38--48-----38-|-38--38--48-----------48---|------48------38-38--48-----38-|
C|------47---41-41-41--47--41-41-|-41--41--47-----------47---|------47---41-41-41--47--41-41-|
C|-36---38---36----36--38--38-38-|-36------38---36--36--38---|-36---38---36----36--38--38-38-|
C|------49---------49--49-----57-|-----49--49-------49--49---|------49---------49--49-----57-|


C|-----57--57-------57--57---|------57---------57--57-----57-|-----57--57-------57--57---|
C|-49------28-----------28---|------28-------------28--------|-49------28-----------28---|
C|-38--38--48-----------48---|------48------38-38--48-----38-|-38--38--48-----------48---|
C|-41--41--47-----------47---|------47---41-41-41--47--41-41-|-41--41--47-----------47---|
C|-36------38---36--36--38---|-36---38---36----36--38--38-38-|-36------38---36--36--38---|
C|-----49--49-------49--49---|------49---------49--49-----57-|-----49--49-------49--49---|


C|------57---------57--57-----57-|-----57--57-------57--57---|------57---------57--57-----57-|
C|------28-------------28--------|-49------28-----------28---|------28-------------28--------|
C|------48------38-38--48-----38-|-38--38--48-----------48---|------48------38-38--48-----38-|
C|------47---41-41-41--47--41-41-|-41--41--47-----------47---|------47---41-41-41--47--41-41-|
C|-36---38---36----36--38--38-38-|-36------38---36--36--38---|-36---38---36----36--38--38-38-|
C|------49---------49--49-----57-|-----49--49-------49--49---|------49---------49--49-----57-|


C|-----57--57-------57--57---|--------|
C|-49------28-----------28---|--------|
C|-38--38--48-----------48---|--------|
C|-41--41--47-----------47---|--------|
C|-36------38---36--36--38---|--------|
C|-----49--49-------49--49---|--------|



← Back to top