Sitting On The Top Of The World

by Cream

Guitar Pro Tab  |  v3.00  |  Posted on March 29, 2007, 10:57 a.m. ← Back

Guitar Pro Tab Summary

Album

Wheels Of Fire (Disc I)

Song Author

Chester Burnett

Tabbed by

C´┐Żneyt Aliustao´┐Żlu (02/October/2002)

Instruments

1st → Lead (Eric Clapton)
2nd → Bass (Jack Bruce)
3rd → Rhytm (Eric Clapton)

File Size

24 KB

Views

4,891

Notice

SITTING ON TOP OF THE WORLD (by Chester Burnett) ----------------------------------------------------------- One summer day, she went away Gone and left me, she's gone to stay. She's gone, but I don't worry, I'm sittin' on top of the world. All the summer, worked on this farm Had to take Christmas in my overalls. She's gone, but I don't worry, I'm sittin' on top of the world. Going down to the freight yard, Gonna catch me a freight train. Gonna leave this town, Work done got to hard. She's gone, but I don't worry, I'm sittin' on top of the world. [Goodbye Cream:] One summer day, she went away Gone and left me, she's gone to stay. She's gone, but I don't worry, Cause I'm sittin' on top of the world. All last summer, worked on this farm Had to take Christmas in my overalls. She's gone, gone, but I don't worry, no Cause I'm sittin', sittin' on top of the world. Going down to the freight yard, yeh, yeh, yeh Gonna catch me a freight train. Gonna leave this town, yeh, yeh, yeh Work done got to hard. She's gone, but I don't worry, Cause I'm sittin', I'm sittin'on top of the world.






Tablature Sheet

Title: Sitting On The Top Of The World
Artist: Cream
Album: Wheels Of Fire (Disc I)
Author: Chester Burnett






Track 1: Lead (Eric Clapton)
Back to top
E|--------------|---------------------3------|-------------------------------------------------|
B|--------------|------------------3---------|------------------------------------11-13----13--|
G|--------------|--------------5---------5---|-3-5-3--5---3--------------------12-------12-----|
D|--------------|----------------------------|------------------------------12-----------------|
A|--------------|----------------------------|-------------------------------------------------|
E|--------------|----------------------------|-------------------------------------------------|


E|--------------------------------------------|----------------------3-------------------------------|
B|----------11----------------15-15-15--15-15-|-13--11131113---------3--3--6-------------------------|
G|-12----------------------12-----------------|-------------------------------5--5--3--5-----3-------|
D|--------------------------------------------|-------------------------------------------5------5---|
A|--------------------------------------------|------------------------------------------------------|
E|--------------------------------------------|------------------------------------------------------|


E|-------------------------------------------|-------------------------------------------------------------|
B|-------------------------------3--6--3-----|-3-----------------------------------------------------------|
G|-------------------------5--5-----------5--|-------5--5--5--5--5--5--5--5--5--5--5--5--5--5--5--3--5--3--|
D|-------------------------------------------|-------------------------------------------------------------|
A|-3---1---2---------------------------------|-------------------------------------------------------------|
E|-------------------------------------------|-------------------------------------------------------------|


E|--------------------|---------------------------------|-----------------------------------------------------|
B|--------------------|------------3--------------8--10-|-8----8--------------3-------------------------------|
G|--------------------|-------4--------5-----9----------|---------------3--4----------------------------------|
D|-5------------------|---------------------------------|-----------------------------------------------------|
A|--------------------|---------------------------------|---------------------------5----5-----3-----1--------|
E|--------------------|---------------------------------|--------------------------------------------------3--|


E|---------------|-------------------------------------|--------|-------------------------------------|
B|---------------|-----------------11-13----13---------|--------|-------------------------------------|
G|---------------|--------------12-------12-------12---|--------|--------3--3--5--3--5-----5----3-----|
D|-5-------------|-----------12------------------------|--------|-------------------------------------|
A|---------------|-------------------------------------|--------|-------------------------------------|
E|---------------|-------------------------------------|--------|-------------------------------------|


E|--------|------------------------------------------|--------|----------------------------------------|
B|--------|------------------------------------------|--------|------------3------------8--10----10----|
G|--------|--------12-12----12-12-12-1012--12--------|--------|-------4--------5-----9--------9--------|
D|--------|------------------------------------100---|--------|----------------------------------------|
A|--------|--------------------------------------0---|--------|----------------------------------------|
E|--------|------------------------------------------|--------|----------------------------------------|


E|----------------------------------------------------------|--------|-------------------------------------|
B|-8---------6--3--------3--3-------------------------------|--------|-----------17---17-------------------|
G|-----------------0--0----------5--3-----------------------|--------|-----------17---17---17-15------18---|
D|-------------------------------------5--------------------|--------|----------------------------17-------|
A|----------------------------------------2-----3-----2-----|--------|-------------------------------------|
E|----------------------------------------------------------|--------|-------------------------------------|


E|------------------|-----------------------------------------0-------|--------|------------5---3----------------------------|
B|------------------|------------------------13---------11----0-------|--------|---------3---------3-----3-------------------|
G|-18---------------|-----------12--------12-------12-------------3---|--------|----------------------5-----3----------------|
D|------------------|-------------------------------------------------|--------|-------------------------------5-------------|
A|------------------|-------------------------------------------------|--------|----------------------------------5----5-----|
E|------------------|-------------------------------------------------|--------|---------------------------------------------|


E|--------|-------------------------------------------|-------------------------------------3-----|
B|--------|------------3------------8--10----8--10----|-8--------------------------------3-----3--|
G|--------|-------4--------5-----9--------9-----------|------------3--------------3---4-----------|
D|--------|-------------------------------------------|---------------5---------------------------|
A|--------|-------------------------------------------|------------------5----5-------------------|
E|--------|-------------------------------------------|-------------------------------------------|


E|------------6---------------------------12---|----------------------------------------------------------------------12|
B|-8-----8----8-----------------11--13--1313---|-----11----------------------11-13-------------------------11-13----1313|
G|--------------------------12--------------12-|-12-----------------------12--------12-------------0---0----------------|
D|----------------------12---------------------|-----------------------12-----------------------12----------------------|
A|---------------------------------------------|------------------------------------------------------------------------|
E|---------------------------------------------|------------------------------------------------------------------------|


E|-------------------------------------------------|-----------------------------------------------------------------|
B|-----11--13-13-13--11-11-----------11--------15--|-15----15-13-15-13-11-11----------------------------8--10----10--|
G|-12----------------------12-12-12----------------|-------------------------12-12----10-12--10------9--------9------|
D|-------------------------------------------------|-----------------------------------------------------------------|
A|-------------------------------------------------|-----------------------------------------------------------------|
E|-------------------------------------------------|-----------------------------------------------------------------|


E|--------------------------------------------|-------------------------------------------------|
B|-8-----10--10--10--10--10---8-----9-----8---|-8---6-----------8---8---8-----8--8--8--8--6-8---|
G|--------------------------------------------|-------------------------------------------------|
D|--------------------------------------------|-------------------------------------------------|
A|--------------------------------------------|-------------------------------------------------|
E|--------------------------------------------|-------------------------------------------------|


E|------------------------------------------------------------|-------3----------------------------------------|
B|-8---8---6--------------------------------------------------|-------3---6------------------6-----3-----------|
G|------------7--6--5--3--------------------------------------|---------------5---3-5---5-------5-----3--------|
D|-------------------------5---3--3--0------5-----5-------5---|-5----------------------------------------5--3--|
A|------------------------------------------------------------|------------------------------------------------|
E|------------------------------------------------------------|------------------------------------------------|


E|---------------------------------------15----------|--------------------------------------------------------------------------|
B|-----------3---------------------------15-18-------|--------------------------------------------------------------------------|
G|------4-------5--3-----------------17--------17-17-|-15------------15--------------15-17-17-----15-17--17--1715--------15-1715|
D|-5-------------------5-----------------------------|-----1717--17------------15-17----------17-----------------171717---------|
A|------------------------5---5----------------------|--------------------------------------------------------------------------|
E|---------------------------------------------------|--------------------------------------------------------------------------|


E|------------------------------------------------------------------15--17----17---|
B|-------18----18-------------------------------------------15--17---------------17|
G|-15--------------------15-17----15-17----17-15------15---------------------------|
D|----17-----------------------17---------------1717-------------------------------|
A|---------------------------------------------------------------------------------|
E|---------------------------------------------------------------------------------|


E|-15-18-18-18-18-151815---15-------15-----------------------------------|-------------------------------------------------------------------------|
B|----------------------18------18-----18--------------------------------|----15-18----15-18----15-18----15-18----15-18----15-18-------------------|
G|----------------------------------------17-17-151715---1517--15--------|-17-------17-------17-------17-------17-------17-------17-17-15-15-------|
D|----------------------------------------------------17-----------17----|-------------------------------------------------------------------17-15-|
A|-----------------------------------------------------------------------|-------------------------------------------------------------------------|
E|-----------------------------------------------------------------------|-------------------------------------------------------------------------|


E|-------------------------------------------|-------17-------------------------------------------|
B|-----------15---17-15----------------------|-------------15----15----15---17-15-----------------|
G|------16--------------17-16----------------|----------------17------------17-15-----------15----|
D|-17-------------------------17----17-------|------------------------------------17-15-17--------|
A|-------------------------------17----------|----------------------------------------------------|
E|-------------------------------------------|----------------------------------------------------|


E|------------------------------------------------------------------|-------------17------17-------18-18-151815---15----15----|
B|-15--15-18-15--15-18-15--15-18------------------------------------|------15-17--------------17---------------17-------------|
G|-17--------17--------17--------17-17-151715---16--------------16--|-16------------------------------------------------------|
D|-------------------------------------------17-----17----1517------|---------------------------------------------------------|
A|-----------------------------------------------------17-----------|---------------------------------------------------------|
E|------------------------------------------------------------------|---------------------------------------------------------|


E|-------15---------------------------------------------|---------15----------15----------15----------------|
B|-18-------18------------------------------------------|-----15----------15----------15--------------------|
G|-------------17-17-15----16---------15----15----15----|-17----------17----------17----------17--15--------|
D|----------------------17----17------15-17-15-17-17----|---------------------------------------------17-15-|
A|-------------------------------17---------------------|---------------------------------------------------|
E|------------------------------------------------------|---------------------------------------------------|


E|---------15----------15-------15-------------------|-------------------------------15------------------|
B|-----15----------15------18------18----------------|-----15-18-----15--18--15----------18--------------|
G|-17----------17---------------------17-15--17------|-17--------17--------------17----------17--15------|
D|-----------------------------------------------17--|-----------------------------------------------17--|
A|---------------------------------------------------|---------------------------------------------------|
E|---------------------------------------------------|---------------------------------------------------|


E|-18--15------18--15--------18--18---15--------15----|-------------------------------|
B|---------15----------15-15-------------18-18-----18-|----------------3--------------|
G|----------------------------------------------------|-15----15-------4--------------|
D|----------------------------------------------------|----------------3--------------|
A|----------------------------------------------------|-------------------------------|
E|----------------------------------------------------|-------------------------------|


E|------------10-10-10-10----12-10-----------|---------------|---------------------------------------------|
B|------------11-11----11-------11-11--------|---------------|---------------3--3-----------------10-10----|
G|-------------------------------------12-10-|-12------------|------4---4----------5---5-----9----------9--|
D|-------------------------------------------|---------------|---------------------------------------------|
A|-------------------------------------------|---------------|---------------------------------------------|
E|-------------------------------------------|---------------|---------------------------------------------|


E|-------------------------------------------------------------------------|
B|-8-------------------6-----3---------------------------------------------|
G|------------------------5-----3--5--4-----4------------------------------|
D|---------------------------------------5-----5---------------------------|
A|------------------------------------------------5--3--2--2----2----2-----|
E|-------------------------------------------------------------------------|









Track 2: Rhytm (Eric Clapton)
Back to top
E|-----------------------------------|-------------------------------------------------------------|
B|-----------------------------------|-10-10-10-9--10----------------------10-10-10-9--10----------|
G|-----------------------------------|-10-10-10-9--10----10-10-10-9--10----10-10-10-9--10----------|
D|-----------------------------------|-9--9--9--8--9-----9--9--9--8--9-----9--9--9--8--9-----------|
A|-----------------------8-----10----|-10-10-10-9--10----10-10-10-9--10----10-10-10-9--10----------|
E|-----------------10----------------|-------------------------------------------------------------|


E|-------------------------------------------------------------|-------------------------------3-----3--3--3--2--3-----------|
B|-10-10-10-9--10----10-10-10-9--10----10-10-10-9--10----------|-3--3--3--2--3-----3--3--3--2--3-----3--3--3--2--3-----------|
G|-10-10-10-9--10----10-10-10-9--10----10-10-10-9--10----------|-3--3--3--2--3-----3--3--3--2--3-----3--3--3--2--3-----------|
D|-9--9--9--8--9-----9--9--9--8--9-----9--9--9--8--9-----------|-2--2--2--1--2-----2--2--2--1--2-----2--2--2--1--2-----------|
A|-10-10-10-9--10----10-10-10-9--10----10-10-10-9--10----------|-3-----------------3--3--3-----------------------------------|
E|-------------------------------------------------------------|-------------------------------------------------------------|


E|-------------------------------3--------------2--3-----------------------|----------------------------------|
B|-3--3--3--2--3-----3--3--3--2--3-----3--3--3--2--3-----------------------|----------------------------------|
G|-3--3--3--2--3-----3--3--3--2--3-----3--3--3--2--3-----------------------|-4-----4----3---4-----------------|
D|-2--2--2--1--2-----2--2--2--1--2-----2--2--2--1--2-----------3-----5-----|-3-----3----2---3-----------------|
A|-3--3--3-----------3-----------------3--3--3--2--3-----5-----------------|-2-----2----1---2-----3---4---5---|
E|-------------------------------------------------------------------------|-3-----3----2---3-----------------|


E|-------------------------------------------|---------------------------------------------|
B|-6-----------------6-----------------------|---------------------------------------------|
G|-5-----------------5-----------------------|-3-------------3-----------------------------|
D|-4---------4-------4-----5-----3-----------|------5--3--5--------5-----------5-------5---|
A|-5-----5-------5---5-----------------5-----|-----------------------------5---------------|
E|-------------------------------------------|---------------------------------------------|


E|-------------------------------------|------------------------------------------------|
B|-------------------------------------|------------------------------------------------|
G|-------------------------------------|------------------------------------------------|
D|-5-----5---3-------------------------|-5-----------------5--------------3---4---5-----|
A|---------------5---3-----3---1-------|-------------5--7------5----5--5----------------|
E|---------------------------------3---|-------5--7-------------------------------------|


E|-------------10------10--10--10--10--------------|-------------------------------------------------|
B|-10--10--10--10--10--10--10--10--10--10--10--9---|-10--10--10--10--10------------------------------|
G|-10--10--10--10--10--10--10--10--10--10--10--9---|-10--10--10--10--10--10--10--10--10--10--10--10--|
D|-------------------------9---9---9---9---9---8---|-9---9---9---9---9---9---9---9---9---9---9---9---|
A|-10--10--10--------------------------10--10--9---|-10--10--10------10--10--10--10--10--10--10--10--|
E|-------------------------------------------------|-------------------------------------------------|


E|-3---3---3---3-------------------------------4---|-3---------------------------3-------------------------|
B|-3---3---3---3---3---2---3---3---3---4---4---4---|-3---3---3---3---3---3---3---3-------------------------|
G|-3---3---3---3---3---2---3---3---3---4---4---4---|-3---3---3---3---3---3---3---3-------------------------|
D|-----2---2---2-------1---2---2---2---3---3---3---|-2---2---2---2---2---2---2---2---2---------3-----5-----|
A|---------------------2---3---3-------4---4---4---|-3-------------------3---3---3---3---5-----------------|
E|-------------------------------------------------|-------------------------------------------------------|


E|----------------------------------|---------------------------------------|---------------------------------------------|
B|----------------------------------|-6-----------------6-------------------|---------------------------------------------|
G|-4-----4----5---4-----------------|-5-----------------5-------------------|-3-------------3-----------------------------|
D|-3-----3----4---3-----------------|-4---------4-------4-----------3-------|------5--3--5--------5-----------5-------5---|
A|-2-----2----3---2-----3---4---5---|-5-----5-------5---5-----5---------5---|-----------------------------5---------------|
E|-3--------------------------------|---------------------------------------|---------------------------------------------|


E|-------------------------------------|------------------------------------------------|
B|-------------------------------------|------------------------------------------------|
G|-------------------------------------|------------------------------------------------|
D|-5-----5---3-------------------------|-5-----------------5--------------3---4---5-----|
A|---------------5---3-----3---1-------|-------------5--7------5----5--5----------------|
E|---------------------------------3---|-------5--7-------------------------------------|


E|-------------------------------------------------------------|-------------------------------------------------------------|
B|-10-10-10-9--10----10-10-10-9--10----10-10-10-9--10----------|-10-10-10-9--10----10-10-10-9--10----10-10-10-9--10----------|
G|-10-10-10-9--10----10-10-10-9--10----10-10-10-9--10----------|-10-10-10-9--10----10-10-10-9--10----10-10-10-9--10----------|
D|-9--9--9--8--9-----9--9--9--8--9-----9--9--9--8--9-----------|-9--9--9--8--9-----9--9--9--8--9-----9--9--9--8--9-----------|
A|-10-10-10-9--10----10-10-10-9--10----10-10-10-9--10----------|-10-10-10-9--10----10-10-10-9--10----10-10-10-9--10----------|
E|-------------------------------------------------------------|-------------------------------------------------------------|


E|-------------------------------------------------------------|-----------------------------------------------------------------------|
B|-3--3--3--2--3-----3--3--3--2--3-----3--3--3--2--3-----------|-3--3--3-----3-----3--3--3--2--3-----3--3--3--2--3---------------------|
G|-3--3--3--2--3-----3--3--3--2--3-----3--3--3--2--3-----------|-3--3--3-----3-----3--3--3--2--3-----3--3--3--2--3---------------------|
D|-2--2--2--1--2-----2--2--2--1--2-----2--2--2--1--2-----------|-2--2--2-----2-----2--2--2--1--2-----2--2--2--1--2---------------5-----|
A|-3--3--3--2--3-----------------------3--3--3--2--3-----------|-3--3--3-----------3--3--3--2--3-----3--3--3--2--3---------4-----------|
E|-------------------------------------------------------------|-----------------------------------------------------------------------|


E|----------------------------------|------------------------------------|---------------------------------------------|
B|----------------------------------|-6--------------6-------------------|---------------------------------------------|
G|-4----------3---4-----------------|-5-----5--------5-------------------|-3-------------3-----------------------------|
D|-3----------2---3-----------------|-4-----4--------4-----------3-------|------5--3--5--------5-----------5-------5---|
A|----------------------3---4---5---|-5-----5----5---5-----5---------5---|-----------------------------5---------------|
E|-3----------3---3-----------------|------------------------------------|---------------------------------------------|


E|-------------------------------------|------------------------------------------------|
B|-------------------------------------|------------------------------------------------|
G|-------------------------------------|------------------------------------------------|
D|-5-----5---3-------------------------|-5-----------------5--------------3---4---5-----|
A|---------------5---3-----3---1-------|-------------5--7------5----5--5----------------|
E|---------------------------------3---|-------5--7-------------------------------------|


E|-------------------------------------------------------------|-------------------------------------------------------------|
B|-10-10-10-9--10----10-10-10-9--10----10-10-10-9--10----------|-10-10-10-9--10----10-10-10-9--10----10-10-10-9--10----------|
G|-10-10-10-9--10----10-10-10-9--10----10-10-10-9--10----------|-10-10-10-9--10----10-10-10-9--10----10-10-10-9--10----------|
D|-9--9--9--8--9-----9--9--9--8--9-----9--9--9--8--9-----------|-9--9--9--8--9-----9--9--9--8--9-----9--9--9--8--9-----------|
A|-10-10-10-9--10----10-10-10-9--10----10-10-10-9--10----------|-10-10-10-9--10----10-10-10-9--10----10-10-10-9--10----------|
E|-------------------------------------------------------------|-------------------------------------------------------------|


E|-------------------------------------------------------------|-----------------------------------------------------------------------|
B|-3--3--3--2--3-----3--3--3--2--3-----3--3--3--2--3-----------|-3--3--3-----3-----3--3--3--2--3-----3--3--3--2--3---------------------|
G|-3--3--3--2--3-----3--3--3--2--3-----3--3--3--2--3-----------|-3--3--3-----3-----3--3--3--2--3-----3--3--3--2--3---------------------|
D|-2--2--2--1--2-----2--2--2--1--2-----2--2--2--1--2-----------|-2--2--2-----2-----2--2--2--1--2-----2--2--2--1--2---------------5-----|
A|-3--3--3--2--3-----------------------3--3--3--2--3-----------|-3--3--3-----------3--3--3--2--3-----3--3--3--2--3---------4-----------|
E|-------------------------------------------------------------|-----------------------------------------------------------------------|


E|----------------------------------|-----------------------------------------|---------------------------------------|
B|----------------------------------|-------------------6---------------------|---------------------------------------|
G|-4-----4----3---4-----------------|-5-----------------5---------------------|-3----------3--------------------------|
D|-3-----3----2---3-----------------|-4---------4-------4-----5-----3---------|------3--5--------5--------5-------5---|
A|-2-----2----1---2-----3---4---5---|-5-----5-------5---5---------------5-----|-----------------------5---------------|
E|-3----------2---3-----------------|-----------------------------------------|---------------------------------------|


E|-------------------------------------|----------------------------------------------|
B|-------------------------------------|----------------------------------------------|
G|-------------------------------------|----------------------------------------------|
D|-5-----5---3-------------------------|-5-----------------5--------------3---4---5---|
A|---------------5---3-----3---1-------|-------------5--7------5----5--5--------------|
E|---------------------------------3---|-------5--7-----------------------------------|


E|-------------------------------------------------------|-------------------------------------------------------|
B|-11-11---------11-11---------11-11---------11--11------|-11-11---------11-11---------11-11---------11--11------|
G|-10-10---------10-10---------10-10---------10--10------|-10-10---------10-10---------10-10---------10--10------|
D|-9--9----------9--9----------9--9----------9---9-------|-9--9----------9--9----------9--9----------9---9-------|
A|-10-10---------10-10---------10-10---------10--10------|-10-10---------10-10---------10-10---------10--10------|
E|-------------------------------------------------------|-------------------------------------------------------|


E|-3--3----------3--3----------3--3----------3---3-------|-3--3----------3--3----------3--3----------------------------|
B|-3--3----------3--3----------3--3----------3---3-------|-3--3----------3--3----------3--3----------------------------|
G|-3--3----------3--3----------3--3----------3---3-------|-3--3----------3--3----------3--3----------------------------|
D|-2--2----------2--2----------2--2----------------------|-2--2----------2--2----------2--2----------------3-----5-----|
A|-3--3----------3--3----------3--3----------------------|-3--3----------3--3----------3--3----------5-----------------|
E|-------------------------------------------------------|-------------------------------------------------------------|


E|-------------------------------------|------------------------------------------|
B|-------------------------------------|-6-----------------6----------------------|
G|-4----4---4----3---4-----------------|-5-----------------5----------------------|
D|-3--------3----2---3-----------------|-4---------4-------4----5-----5---3-------|
A|---------------1---2-----3---4---5---|-5-----5-------5---5------------------5---|
E|-3--------3----3---3-----------------|------------------------------------------|


E|------------------------------------------|-------------------------------------|
B|------------------------------------------|-------------------------------------|
G|-3----------3-----------------------------|-------------------------------------|
D|------3--5--------5-----------5-------5---|-5-----5---3-------------------------|
A|--------------------------5---------------|---------------5---3-----3---1-------|
E|------------------------------------------|---------------------------------3---|


E|------------------------------------------------|-------------------------------------------------------|
B|------------------------------------------------|-11-11---------11-11---------11-11---------11--11------|
G|------------------------------------------------|-10-10---------10-10---------10-10---------10--10------|
D|-5-----------------5--------------3--5--3---5---|-9--9----------9--9----------9--9----------9---9-------|
A|-------------5--7------5----5--5----------------|-10-10---------10-10---------10-10---------10--10------|
E|-------5--7-------------------------------------|-------------------------------------------------------|


E|-------------------------------------------------------|-3-------------3-------------3-------------3---3-------|
B|-11-11---------11-11---------11-11---------11--11------|-3--3----------3--3----------3--3----------3---3-------|
G|-10-10---------10-10---------10-10---------10--10------|-3--3----------3--3----------3--3----------3---3-------|
D|-9--9----------9--9----------9--9----------9---9-------|-2--2----------2--2----------2--2----------------------|
A|-10-10---------10-10---------10-10---------10--10------|-3--3----------3--3----------3--3----------------------|
E|-------------------------------------------------------|-------------------------------------------------------|


E|-3--3----------3--3----------3--3----------------------------|----------------------------------|
B|-3--3----------3--3----------3--3----------------------------|----------------------------------|
G|-3--3----------3--3----------3--3----------------------------|-4-----4----3---4-----------------|
D|-2--2----------2--2----------2--2----------------3-----5-----|-3-----3----2---3-----------------|
A|-3--3----------3--3----------3--3----------5-----------------|----------------------3---4---5---|
E|-------------------------------------------------------------|-3-----3----3---3-----------------|


E|----------------------------------|------------------------------------------|-------------------------------------|
B|-6-----6--------6-----------------|------------------------------------------|-------------------------------------|
G|-5-----5----4---5-----------------|-3----------3-----------------------------|-------------------------------------|
D|-4-----4--------4-----5---3-------|------3--5--------5-----------5-------5---|-5-----5---3-------------------------|
A|-5-----5--------5-------------5---|--------------------------5---------------|---------------5---3-----3---1-------|
E|----------------------------------|------------------------------------------|---------------------------------3---|


E|--------------------------------------------|
B|----------12----11-----11---11--------------|
G|----------11----10-----10---10--------------|
D|-5--------10----9------9----9---------------|
A|----------11----10-----10---10--------------|
E|--------------------------------------------|









Track 3: Bass (Jack Bruce)
Back to top
G|--------------------------|-------------------------------------------------------------------|
D|------------------3---5---|-------------------------------------------------------2-----------|
A|--------------5-----------|-----------------------------------------------------------5---2---|
E|--------------------------|-3--3--3--2--3-----3--3--3--2--3-----3--3--3--2--3-----------------|


G|-------------------------------------------------------2-----------|-------------------------------------------------------3---2-------|
D|-----------------------------------------------------------5-------|---------------------------------------------------------------5---|
A|---------------------------------------------------------------4---|-3--3--3--2--3-----3--3--3--2--3-----3--3--3--2--3-----------------|
E|-3--3--3--2--3-----3--3--3--2--3-----3--3--3--2--3-----------------|-------------------------------------------------------------------|


G|-------------------------------------------------------------------------|---------------------------------------|
D|-------------------------------------------------------3-----3-----3-----|-5-----5-------5---3-----3---5-----3---|
A|-3--3--3--2--3-----3--3--3--2--3-----3--3--3--2--3-----------------------|---------------------------------------|
E|-------------------------------------------------------------------------|---------------------------------------|


G|-------------------------------|-3--------3--------------------------|-------------------------------------|
D|-------------------3-------5---|------5---------5--------5-----------|-----------3-------------------------|
A|-5-----5-----5-----------------|---------------------5---------------|---------------5---3-----3-----------|
E|-------------------------------|---------------------------------3---|-3---------------------------6---3---|


G|----------------------------------------------------------------|--------------------------------------------------------------|
D|----------------------------------------------------2-----------|--------------------------------------------------------------|
A|-------------------------------------------------------5--2-----|--------------------------------------------------------1--2--|
E|-3--3--3--2--3--2--3----3--2--3--2--3--2--3--2--3------------5--|-3--3--3--2--3--3--3----3--2--3--3--3--2--3--2--3----3--------|


G|--------------------------------------------------------------|-----------------------------------------------------------|
D|--------------------------------------------------------------|-----------------------------------------------------------|
A|--------------------------------------------------------1--2--|-3--3--3--2--3--2--3----1--2--3--3--3--2--3--2--3----1--2--|
E|-3--3--3--2--3--3--3----3--2--3--3--3--2--3--2--3----3--------|-----------------------------------------------------------|


G|---------------------------------------------------------|---------------------------------------------------|
D|---------------------------------------------------------|-5-----5---3---------------------------------------|
A|-3--3--3--2--3--3--3----3--3--3--3----3--3---3---1-------|-----------------5----------------0--2----3--3--4--|
E|-----------------------------------------------------3---|-----------------------3----3--3-------------------|


G|-------------------------------------------|-3--------3--------------------------|
D|-----------3---5---------3-----3-----5-----|------5---------5--------5-------5---|
A|-5-----------------5-----------------------|---------------------5---------------|
E|-------------------------------------------|-------------------------------------|


G|-------------------------5-----5-----3-----------|---------------------------------------------------|
D|-5-----5-----3-----------------------------5-----|-------------------5-------------------------------|
A|-------------------5-----------------------------|-------------5--7--------5----5--5--5--3-----------|
E|-------------------------------------------------|-3-----5--7--------------------------------6---3---|


G|-------------------------------------------------------------------|------------------------------------------------------------------------|
D|-5--5--5--4--5-----5--5--5--4--5-----5--5--5--4--5-------------2---|-----------------------------------------------------------2--2---------|
A|-------------------------------------------------------2---5-------|-------------------------------------------------------2---------5--3---|
E|-------------------------------------------------------------------|-3--3--3--2--3-----3--3--3--2--3-----3--3--3--2--3----------------------|


G|-------------------------------------------------------3---2------------|-------------------------------------------------------------------|
D|---------------------------------------------------------------5--5--2--|-------------------------------------------------------2---3---4---|
A|-3--3--3--2--3-----3--3--3--2--3-----3--3--3--2--3----------------------|-3--3--3--2--3-----3--3--3--2--3-----3--3--3--2--3-----------------|
E|------------------------------------------------------------------------|-------------------------------------------------------------------|


G|----------------------------------|-------------------------------------------|-3--------3--------------------------|
D|-5-----5--------------------------|-----------3--3------3-------------3---5---|------5---------5--------5-------5---|
A|-----------2---5--------------2---|-5-----5---------5-------5-----5-----------|---------------------5---------------|
E|-------------------3--------------|-------------------------------------------|-------------------------------------|


G|-------------------------------------------|---------------------------------------------------|
D|-5-----5-----3-----------------------------|-5-----------------5-------------------------------|
A|-------------------5-----3-----3-----------|-------------5--7--------5----5--5--5--3-----------|
E|-----------------------------------6---3---|-------5--7--------------------------------6---3---|


G|---------------------------------------------------------------------|-------------------------------------------------------------------|
D|-5---5--4--5-----5--5--5--4--5-----5--5--5--4--5---------------------|-------------------------------------------------------5---3-------|
A|-----------------------------------------------------7--5--7--5------|---------------------------------------------------------------4---|
E|-----------------------------------------------------------------7---|-3--3--3--2--3-----3--3--3--2--3-----3--3--3--2--3-----------------|


G|-------------------------------------------------------2-----------|-------------------------------------------------------------------------|
D|-----------------------------------------------------------5---2---|----------------------------------------------------------------------2--|
A|-5--5--5--4--5-----5--5--5--4--5-----5--5--5--4--5-----------------|-3--3--3--2--3-----3--3--3--2--3-----3--3--3--2--3-----3--2--3--4--5-----|
E|-------------------------------------------------------------------|-------------------------------------------------------------------------|


G|-------------------------------------|----------------------------------------------|
D|-5-----5-------------------------5---|----------------------------------3-------5---|
A|-----------2---5---------2---5-------|-5-------5---5-------5---5----5---------------|
E|-------------------3-----------------|----------------------------------------------|


G|-3--------3--------------------------|-------------------5-----5---3-------|---------------------------------------------------------|
D|------5---------5--------5-------5---|-5-----5---3---------------------5---|-------------------5-------------------------------------|
A|---------------------5---------------|---------------5---------------------|-------------5--7--------5----5--5--5--3-----------------|
E|-------------------------------------|-------------------------------------|-3-----5--7----------------------------------6-----3-----|


G|----------------------------------------------|----------------------------------------------|
D|-5--5-------5--5-------5--5-------------------|------------5--5-------5--5-------5---6-------|
A|----------------------------------7---5-------|------------------------------------------4---|
E|------------------------------------------7---|-3--3-----------------------------------------|


G|----------------------------------5--3--5--3------|----------------------------------5--3--5--3--------|
D|----------------------------------------------5---|----------------------------------------------3--4--|
A|-3--3-------3--3-------3--3-----------------------|-3--3-------3--3-------3--3-------------------------|
E|--------------------------------------------------|----------------------------------------------------|


G|------------------------------------------|----------------------------------------------------|
D|-5-----5------------------------------2---|----------------------------------------3-----5-----|
A|-----------2---5-------------2--2--5------|-5----5---5-------5---5-------5---5-----------------|
E|-------------------3----------------------|----------------------------------------------------|


G|-3--------3--------------------------|-------------------------------------|----------------------------------------------|
D|------5---------5--------5-------5---|-5-----5---3-------------------------|-5-----------------5--------------------------|
A|---------------------5---------------|---------------5---3-----3-----------|-------------5--7--------5----5---3-----------|
E|-------------------------------------|-----------------------------6---3---|-------5--7---------------------------6---3---|


G|----------------------------------------------3-----|----------------------------------------------------|
D|-5--5-------5--5-------5--5-------3-----5-----------|-5--5-------5--5-------5--5-------3-----6-----------|
A|----------------------------------------------------|----------------------------------------------4-----|
E|----------------------------------------------------|----------------------------------------------------|


G|----------------------------------------------|----------------------------------------------|
D|----------------------------------10--10------|----------------------------------------------|
A|-3--3-------3--3-------3--3---------------5---|-3--3-------3--3-------3--3-------------------|
E|----------------------------------------------|----------------------------------0---1---2---|


G|----------------------------------|------------7----7--7--5-----5---------------|
D|---------------2---5-----5----2---|---------------------------------------5-----|
A|-------2---5----------------------|-5----5--------------------------5-----------|
E|-3--------------------------------|---------------------------------------------|


G|-3--------3-----------------------|-------------------------------------|---------------------------------------|
D|------5---------5--------5----5---|-5-----5---3-------------------------|-5-------------------------------------|
A|---------------------5------------|---------------5---3-----3-----------|---------------------------------------|
E|----------------------------------|-----------------------------6---3---|----------4-----3------3---------------|



← Back to top