I Am The Black Wizards

by Emperor

Guitar Pro Tab  |  v4.00  |  Posted on March 29, 2007, 10:59 a.m. ← Back

Guitar Pro Tab Summary

Album

In The Nightside Eclipse

Song Author

Kieran Smith/James Frazzetto

Tabbed by

unknown

Instruments

1st → Ishanth
2nd → Tchort3
3rd → Samoth1
4th → Faust
5th → Keyboard

File Size

64 KB

Views

1,152

Notice

James Frazzetto - Guitars, Bass, Keyboards Kieran Smith - Drums, Keyboards Szymek G´┐Żbski (Emperial Yog) - Drums (I fix the drums.) Your's tab is great!






Related guitar pro tabs

Tablature Sheet

Title: I Am The Black Wizards
Artist: Emperor
Album: In The Nightside Eclipse
Author: Kieran Smith/James Frazzetto 






Track 1: Ishanth
Back to top
E|-------------------------------------------------|------------------------------------------|
B|-------------------------------------------------|------------------------------------------|
G|-------------------------------------------------|------------------------------------------|
D|-------------------------------------------------|------------------------------------------|
A|-------------------------------------------------|-------------------------------------7----|
E|-0--0--0--0--0--0--0--0--0--0--0--0--0--0--0--0--|-0--0--0--0--0--0--0--0--0--0--0--0-------|


E|-------------------------------------------------|-------------------------------------------------|
B|-------------------------------------------------|-------------------------------------------------|
G|-------------------------------------------------|-------------------------------------------------|
D|-------------------------------------------------|-------------------------3--3--3--3--3--3--3--3--|
A|-------------------------------------------------|-3--3--3--3--3--3--3--3--------------------------|
E|-1--1--1--1--1--1--1--1--1--1--1--1--1--1--1--1--|-------------------------------------------------|


E|-------------------------------------------------|------------------------------------------|
B|-------------------------------------------------|------------------------------------------|
G|-------------------------------------------------|------------------------------------------|
D|-------------------------------------------------|------------------------------------------|
A|-------------------------------------------------|-------------------------------------7----|
E|-0--0--0--0--0--0--0--0--0--0--0--0--0--0--0--0--|-0--0--0--0--0--0--0--0--0--0--0--0-------|


E|-------------------------------------------------|-------------------------------------------------|
B|-------------------------------------------------|-------------------------------------------------|
G|-------------------------------------------------|-------------------------------------------------|
D|-------------------------------------------------|-------------------------3--3--3--3--3--3--3--3--|
A|-------------------------------------------------|-3--3--3--3--3--3--3--3--------------------------|
E|-1--1--1--1--1--1--1--1--1--1--1--1--1--1--1--1--|-------------------------------------------------|


E|-------------------------------------------------|-------------------------------------------------|
B|-------------------------------------------------|-------------------------------------------------|
G|-------------------------------------------------|-------------------------------------------------|
D|-------------------------------------------------|-------------------------------------------------|
A|-------------------------------------------------|-------------------------------------------------|
E|-0--0--0--0--0--0--0--0--0--0--0--0--0--0--0--0--|-0--0--0--0--0--0--0--0--0--0--0--0--0--0--0--0--|


E|-------------------------------------------------|-------------------------------------------------|
B|-------------------------------------------------|-------------------------------------------------|
G|-------------------------------------------------|-------------------------------------------------|
D|-------------------------------------------------|-------------------------3--3--3--3--3--3--3--3--|
A|-------------------------------------------------|-3--3--3--3--3--3--3--3--------------------------|
E|-1--1--1--1--1--1--1--1--1--1--1--1--1--1--1--1--|-------------------------------------------------|


E|-------------------------------------------------|-------------------------------------------------|
B|-------------------------------------------------|-------------------------------------------------|
G|-------------------------------------------------|-------------------------------------------------|
D|-------------------------------------------------|-------------------------------------------------|
A|-------------------------------------------------|-------------------------------------------------|
E|-0--0--0--0--0--0--0--0--0--0--0--0--0--0--0--0--|-0--0--0--0--0--0--0--0--0--0--0--0--0--0--0--0--|


E|-------------------------------------------------|-------------------------------------------------|
B|-------------------------------------------------|-------------------------------------------------|
G|-------------------------------------------------|-------------------------------------------------|
D|-------------------------------------------------|-------------------------3--3--3--3--3--3--3--3--|
A|-------------------------------------------------|-3--3--3--3--3--3--3--3--------------------------|
E|-1--1--1--1--1--1--1--1--1--1--1--1--1--1--1--1--|-------------------------------------------------|


E|-------------------------------------------------|-------------------------------------------------|
B|-------------------------------------------------|-------------------------------------------------|
G|-------------------------------------------------|-------------------------------------------------|
D|-------------------------------------------------|-------------------------------------------------|
A|-------------------------------------------------|-------------------------------------------------|
E|-0--0--0--0--0--0--0--0--0--0--0--0--0--0--0--0--|-0--0--0--0--0--0--0--0--0--0--0--0--0--0--0--0--|


E|-------------------------------------------------|-------------------------------------------------|
B|-------------------------------------------------|-------------------------------------------------|
G|-------------------------------------------------|-------------------------------------------------|
D|-------------------------------------------------|-------------------------3--3--3--3--3--3--3--3--|
A|-------------------------------------------------|-3--3--3--3--3--3--3--3--------------------------|
E|-1--1--1--1--1--1--1--1--1--1--1--1--1--1--1--1--|-------------------------------------------------|


E|-------------------------------------------------|-------------------------------------------------|
B|-------------------------------------------------|-------------------------------------------------|
G|-------------------------------------------------|-------------------------------------------------|
D|-------------------------------------------------|-------------------------------------------------|
A|-------------------------------------------------|-------------------------------------------------|
E|-0--0--0--0--0--0--0--0--0--0--0--0--0--0--0--0--|-0--0--0--0--0--0--0--0--0--0--0--0--0--0--0--0--|


E|-------------------------------------------------|-------------------------------------------------|
B|-------------------------------------------------|-------------------------------------------------|
G|-------------------------------------------------|-------------------------------------------------|
D|-------------------------------------------------|-------------------------3--3--3--3--3--3--3--3--|
A|-------------------------------------------------|-3--3--3--3--3--3--3--3--------------------------|
E|-1--1--1--1--1--1--1--1--1--1--1--1--1--1--1--1--|-------------------------------------------------|


E|--------|--------|--------|-------------|-------------------------------------------------|
B|--------|--------|--------|-------------|-------------------------------------------------|
G|-5------|-5------|-5------|-------------|-------------------------------------------------|
D|-5------|-5------|-5------|-------------|-0--0--0--0--0--0--0--0--0--0--0--0--0--0--0--0--|
A|-3------|-3------|-3------|-6-----6-----|-2--2--2--2--2--2--2--2--2--2--2--2--2--2--2--2--|
E|--------|--------|--------|-4-----3-----|-------------------------------------------------|


E|-------------------------------------------------|-------------------------------------------------|
B|-------------------------------------------------|-------------------------------------------------|
G|-------------------------------------------------|-------------------------------------------------|
D|-0--0--0--0--0--0--0--0--0--0--0--0--0--0--0--0--|-0--0--0--0--0--0--0--0--0--0--0--0--0--0--0--0--|
A|-1--1--1--1--1--1--1--1--1--1--1--1--1--1--1--1--|-2--2--2--2--2--2--2--2--2--2--2--2--2--2--2--2--|
E|-------------------------------------------------|-------------------------------------------------|


E|-------------------------------------------------|-------------------------------------------------|
B|-------------------------------------------------|-------------------------------------------------|
G|-------------------------------------------------|-------------------------------------------------|
D|-3--3--3--3--------------------------4--4--4--4--|-0--0--0--0--0--0--0--0--0--0--0--0--0--0--0--0--|
A|-------------------------3--3--3--3--------------|-2--2--2--2--2--2--2--2--2--2--2--2--2--2--2--2--|
E|-------------2--2--2--2--------------------------|-------------------------------------------------|


E|-------------------------------------------------|-------------------------------------------------|
B|-------------------------------------------------|-------------------------------------------------|
G|-------------------------------------------------|-------------------------------------------------|
D|-0--0--0--0--0--0--0--0--0--0--0--0--0--0--0--0--|-0--0--0--0--0--0--0--0--0--0--0--0--0--0--0--0--|
A|-1--1--1--1--1--1--1--1--1--1--1--1--1--1--1--1--|-2--2--2--2--2--2--2--2--2--2--2--2--2--2--2--2--|
E|-------------------------------------------------|-------------------------------------------------|


E|-------------------------------------------------|-------------------------------------------------|
B|-------------------------------------------------|-------------------------------------------------|
G|-------------------------------------------------|-------------------------------------------------|
D|-3--3--3--3--------------------------4--4--4--4--|-0--0--0--0--0--0--0--0--0--0--0--0--0--0--0--0--|
A|-------------------------3--3--3--3--------------|-2--2--2--2--2--2--2--2--2--2--2--2--2--2--2--2--|
E|-------------2--2--2--2--------------------------|-------------------------------------------------|


E|-------------------------------------------------|-------------------------------------------------|
B|-------------------------------------------------|-------------------------------------------------|
G|-------------------------------------------------|-------------------------------------------------|
D|-0--0--0--0--0--0--0--0--0--0--0--0--0--0--0--0--|-0--0--0--0--0--0--0--0--0--0--0--0--0--0--0--0--|
A|-1--1--1--1--1--1--1--1--1--1--1--1--1--1--1--1--|-2--2--2--2--2--2--2--2--2--2--2--2--2--2--2--2--|
E|-------------------------------------------------|-------------------------------------------------|


E|-------------------------------------------------|-------------------------------------------------|
B|-------------------------------------------------|-------------------------------------------------|
G|-------------------------------------------------|-------------------------------------------------|
D|-3--3--3--3--------------------------4--4--4--4--|-0--0--0--0--0--0--0--0--0--0--0--0--0--0--0--0--|
A|-------------------------3--3--3--3--------------|-2--2--2--2--2--2--2--2--2--2--2--2--2--2--2--2--|
E|-------------2--2--2--2--------------------------|-------------------------------------------------|


E|-------------------------------------------------|-------------------------------------------------|
B|-------------------------------------------------|-------------------------------------------------|
G|-------------------------------------------------|-------------------------------------------------|
D|-0--0--0--0--0--0--0--0--0--0--0--0--0--0--0--0--|-0--0--0--0--0--0--0--0--0--0--0--0--0--0--0--0--|
A|-1--1--1--1--1--1--1--1--1--1--1--1--1--1--1--1--|-2--2--2--2--2--2--2--2--2--2--2--2--2--2--2--2--|
E|-------------------------------------------------|-------------------------------------------------|


E|-------------------------------------------------|-------------------------------------------------|
B|-------------------------------------------------|-------------------------------------------------|
G|-1--1--1--1--------------------------2--2--2--2--|-------------------------------------------------|
D|-3--3--3--3--------------1--1--1--1--4--4--4--4--|-------------------------------------------------|
A|-------------0--0--0--0--3--3--3--3--------------|-------------------------------------------------|
E|-------------2--2--2--2--------------------------|-0--0--0--0--0--0--0--0--0--0--0--0--0--0--0--0--|


E|-------------------------------------------------|-------------------------------------------------|
B|-------------------------------------------------|-------------------------------------------------|
G|-------------------------------------------------|-------------------------------------------------|
D|-------------------------------------------------|-------------------------------------------------|
A|-------------------------------------------------|-------------------------------------------------|
E|-0--0--0--0--0--0--0--0--0--0--0--0--0--0--0--0--|-1--1--1--1--1--1--1--1--1--1--1--1--1--1--1--1--|


E|-------------------------------------------------|-------------------------------------------------|
B|-------------------------------------------------|-------------------------------------------------|
G|-------------------------------------------------|-------------------------------------------------|
D|-------------------------3--3--3--3--3--3--3--3--|-------------------------------------------------|
A|-3--3--3--3--3--3--3--3--------------------------|-------------------------------------------------|
E|-------------------------------------------------|-0--0--0--0--0--0--0--0--0--0--0--0--0--0--0--0--|


E|-------------------------------------------------|-------------------------------------------------|
B|-------------------------------------------------|-------------------------------------------------|
G|-------------------------------------------------|-------------------------------------------------|
D|-------------------------------------------------|-------------------------------------------------|
A|-------------------------------------------------|-------------------------------------------------|
E|-0--0--0--0--0--0--0--0--0--0--0--0--0--0--0--0--|-1--1--1--1--1--1--1--1--1--1--1--1--1--1--1--1--|


E|-------------------------------------------------|-------------------------------------------------|
B|-------------------------------------------------|-------------------------------------------------|
G|-------------------------------------------------|-------------------------------------------------|
D|-------------------------3--3--3--3--3--3--3--3--|-------------------------------------------------|
A|-3--3--3--3--3--3--3--3--------------------------|-------------------------------------------------|
E|-------------------------------------------------|-0--0--0--0--0--0--0--0--0--0--0--0--0--0--0--0--|


E|-------------------------------------------------|-------------------------------------------------|
B|-------------------------------------------------|-------------------------------------------------|
G|-------------------------------------------------|-------------------------------------------------|
D|-------------------------------------------------|-------------------------------------------------|
A|-------------------------------------------------|-------------------------------------------------|
E|-0--0--0--0--0--0--0--0--0--0--0--0--0--0--0--0--|-1--1--1--1--1--1--1--1--1--1--1--1--1--1--1--1--|


E|-------------------------------------------------|-------------------------------------------------|
B|-------------------------------------------------|-------------------------------------------------|
G|-------------------------------------------------|-------------------------------------------------|
D|-------------------------3--3--3--3--3--3--3--3--|-------------------------------------------------|
A|-3--3--3--3--3--3--3--3--------------------------|-------------------------------------------------|
E|-------------------------------------------------|-0--0--0--0--0--0--0--0--0--0--0--0--0--0--0--0--|


E|-------------------------------------------------|-------------------------------------------------|
B|-------------------------------------------------|-------------------------------------------------|
G|-------------------------------------------------|-------------------------------------------------|
D|-------------------------------------------------|-------------------------------------------------|
A|-------------------------------------------------|-------------------------------------------------|
E|-0--0--0--0--0--0--0--0--0--0--0--0--0--0--0--0--|-1--1--1--1--1--1--1--1--1--1--1--1--1--1--1--1--|


E|-------------------------------------------------|-------------------------------------------------|
B|-------------------------------------------------|-------------------------------------------------|
G|-------------------------------------------------|-------------------------------------------------|
D|-------------------------3--3--3--3--3--3--3--3--|-0--0--0--0--0--0--0--0--0--0--0--0--0--0--0--0--|
A|-3--3--3--3--3--3--3--3--------------------------|-2--2--2--2--2--2--2--2--2--2--2--2--2--2--2--2--|
E|-------------------------------------------------|-------------------------------------------------|


E|-------------------------------------------------|-------------------------------------------------|
B|-------------------------------------------------|-------------------------------------------------|
G|-------------------------------------------------|-------------------------------------------------|
D|-0--0--0--0--0--0--0--0--0--0--0--0--0--0--0--0--|-0--0--0--0--0--0--0--0--0--0--0--0--0--0--0--0--|
A|-1--1--1--1--1--1--1--1--1--1--1--1--1--1--1--1--|-2--2--2--2--2--2--2--2--2--2--2--2--2--2--2--2--|
E|-------------------------------------------------|-------------------------------------------------|


E|-------------------------------------------------|-------------------------------------------------|
B|-------------------------------------------------|-------------------------------------------------|
G|-------------------------------------------------|-------------------------------------------------|
D|-3--3--3--3--------------------------4--4--4--4--|-0--0--0--0--0--0--0--0--0--0--0--0--0--0--0--0--|
A|-------------------------3--3--3--3--------------|-2--2--2--2--2--2--2--2--2--2--2--2--2--2--2--2--|
E|-------------2--2--2--2--------------------------|-------------------------------------------------|


E|-------------------------------------------------|-------------------------------------------------|
B|-------------------------------------------------|-------------------------------------------------|
G|-------------------------------------------------|-------------------------------------------------|
D|-0--0--0--0--0--0--0--0--0--0--0--0--0--0--0--0--|-0--0--0--0--0--0--0--0--0--0--0--0--0--0--0--0--|
A|-1--1--1--1--1--1--1--1--1--1--1--1--1--1--1--1--|-2--2--2--2--2--2--2--2--2--2--2--2--2--2--2--2--|
E|-------------------------------------------------|-------------------------------------------------|


E|-------------------------------------------------|-------------------------------------------------|
B|-------------------------------------------------|-------------------------------------------------|
G|-------------------------------------------------|-------------------------------------------------|
D|-3--3--3--3--------------------------4--4--4--4--|-0--0--0--0--0--0--0--0--0--0--0--0--0--0--0--0--|
A|-------------------------3--3--3--3--------------|-2--2--2--2--2--2--2--2--2--2--2--2--2--2--2--2--|
E|-------------2--2--2--2--------------------------|-------------------------------------------------|


E|-------------------------------------------------|-------------------------------------------------|
B|-------------------------------------------------|-------------------------------------------------|
G|-------------------------------------------------|-------------------------------------------------|
D|-0--0--0--0--0--0--0--0--0--0--0--0--0--0--0--0--|-0--0--0--0--0--0--0--0--0--0--0--0--0--0--0--0--|
A|-1--1--1--1--1--1--1--1--1--1--1--1--1--1--1--1--|-2--2--2--2--2--2--2--2--2--2--2--2--2--2--2--2--|
E|-------------------------------------------------|-------------------------------------------------|


E|-------------------------------------------------|-------------------------------------------------|
B|-------------------------------------------------|-------------------------------------------------|
G|-------------------------------------------------|-------------------------------------------------|
D|-3--3--3--3--------------------------4--4--4--4--|-0--0--0--0--0--0--0--0--0--0--0--0--0--0--0--0--|
A|-------------------------3--3--3--3--------------|-2--2--2--2--2--2--2--2--2--2--2--2--2--2--2--2--|
E|-------------2--2--2--2--------------------------|-------------------------------------------------|


E|-------------------------------------------------|-------------------------------------------------|
B|-------------------------------------------------|-------------------------------------------------|
G|-------------------------------------------------|-------------------------------------------------|
D|-0--0--0--0--0--0--0--0--0--0--0--0--0--0--0--0--|-0--0--0--0--0--0--0--0--0--0--0--0--0--0--0--0--|
A|-1--1--1--1--1--1--1--1--1--1--1--1--1--1--1--1--|-2--2--2--2--2--2--2--2--2--2--2--2--2--2--2--2--|
E|-------------------------------------------------|-------------------------------------------------|


E|-------------------------------------------------|--------|--------------------|
B|-------------------------------------------------|--------|-2--------------4---|
G|-1--1--1--1--------------------------2--2--2--2--|-7------|-3---------6----3---|
D|-3--3--3--3--------------1--1--1--1--4--4--4--4--|-7------|-3---------6----1---|
A|-------------0--0--0--0--3--3--3--3--------------|-5------|-1---------4----1---|
E|-------------2--2--2--2--------------------------|-5------|-----------4--------|


E|--------|---------------------------------------------|--------|--------------------|
B|--------|--------3----------3----------3----------3---|-3------|-1------------------|
G|-7------|-----3----------2----------1----------2------|-5------|-3---------6----8---|
D|-7------|-0----------0----------0----------0----------|-5------|-3---------6----8---|
A|-5------|---------------------------------------------|-3------|-1---------4----6---|
E|-5------|---------------------------------------------|--------|-----------4----6---|


E|--------|---------------------|--------|--------------------|--------|---------------------|
B|-6------|---------------------|-3------|-1------------------|-6------|---------------------|
G|-7------|-3----2----1----2----|-5------|-3---------6----8---|-7------|-3----2----1----2----|
D|-7------|-0----0----0----0----|-5------|-3---------6----8---|-7------|-0----0----0----0----|
A|-5------|---------------------|-3------|-1---------4----6---|-5------|---------------------|
E|-5------|---------------------|--------|-----------4----6---|-5------|---------------------|


E|--------|--------------------|--------|---------------------|--------|--------------------|
B|-3------|-1------------------|-6------|---------------------|-3------|-1------------------|
G|-5------|-3---------6----8---|-7------|-3----2----1----2----|-5------|-3---------6----8---|
D|-5------|-3---------6----8---|-7------|-0----0----0----0----|-5------|-3---------6----8---|
A|-3------|-1---------4----6---|-5------|---------------------|-3------|-1---------4----6---|
E|--------|-----------4----6---|-5------|---------------------|--------|-----------4----6---|


E|--------|---------------------|--------|--------------------|--------|---------------------|
B|-6------|---------------------|-3------|-1------------------|-6------|---------------------|
G|-7------|-3----2----1----2----|-5------|-3---------6----8---|-7------|-3----2----1----2----|
D|-7------|-0----0----0----0----|-5------|-3---------6----8---|-7------|-0----0----0----0----|
A|-5------|---------------------|-3------|-1---------4----6---|-5------|---------------------|
E|-5------|---------------------|--------|-----------4----6---|-5------|---------------------|


E|-------------------------------------------|-------------------------------------------|
B|-------------------------------------------|-------------------------------------------|
G|-----2-------------------------------------|-------------------------------------------|
D|-7---7-7---7---7--7---7---7-7---7---7--7---|-------------------------------------------|
A|-5---5-5---5---5--5---5---5-5---5---5--5---|-5-----5---5---3--5---6---6-6---6---6--6---|
E|-5-----5---5---5--5---5-----5---5---5--5---|-3---3-3---3---1--3---4---4-4---4---4--4---|


E|-------------------------------------------|-------------------------------------------------|
B|-------------------------------------------|-------------------------------------------------|
G|-------------------------------------------|-------------------------------------------------|
D|-7---7-7---7---7--7---7---7-7---7---7--7---|-------------3---3-3-3---------------------------|
A|-5---5-5---5---5--5---5---5-5---5---5--5---|-5---5-5-5---1---1-1-1---3---3-3-3---6---6-6-6---|
E|-5-----5---5---5--5---5-----5---5---5--5---|-3---3-3-3---------------1---1-1-1---4---4-4-4---|


E|-------------------------------------------|-------------------------------------------|
B|-------------------------------------------|-------------------------------------------|
G|-------------------------------------------|-------------------------------------------|
D|-7---7-7---7---7--7---7---7-7---7---7--7---|-------------------------------------------|
A|-5---5-5---5---5--5---5---5-5---5---5--5---|-5-----5---5---3--5---6---6-6---6---6--6---|
E|-5-----5---5---5--5---5-----5---5---5--5---|-3---3-3---3---1--3---4---4-4---4---4--4---|


E|-------------------------------------------|-------------------------------------------------|
B|-------------------------------------------|-------------------------------------------------|
G|-------------------------------------------|-------------------------------------------------|
D|-7---7-7---7---7--7---7---7-7---7---7--7---|-------------3---3-3-3---------------------------|
A|-5---5-5---5---5--5---5---5-5---5---5--5---|-5---5-5-5---1---1-1-1---3---3-3-3---6---6-6-6---|
E|-5-----5---5---5--5---5-----5---5---5--5---|-3---3-3-3---------------1---1-1-1---4---4-4-4---|


E|-------------------------------------------------------------------------|-------------------------------------------------------------------------|
B|-------------------------------------------------------------------------|-------------------------------------------------------------------------|
G|-------------------------------------------------------------------------|-------------------------------------------------------------------------|
D|-------------------------------------------------------------------------|-------------------------------------------------------------------------|
A|-------------------------------------------------------------------------|-------------------------------------------------------------------------|
E|-5--5--5--5--5--5--5--5--5--5--5--5--5--5--5--5--5--5--5--5--5--5--5--5--|-7--7--7--7--7--7--7--7--7--7--7--7--6--6--6--6--6--6--6--6--6--6--6--6--|


E|-------------------------------------------------------------------------|-------------------------------------------------------------------------|
B|-------------------------------------------------------------------------|-------------------------------------------------------------------------|
G|-------------------------------------------------------------------------|-------------------------------------------------------------------------|
D|-------------------------------------------------------------------------|-------------------------------------------------------------------------|
A|-------------------------------------------------------------------------|-------------------------------------------------------------------------|
E|-5--5--5--5--5--5--5--5--5--5--5--5--5--5--5--5--5--5--5--5--5--5--5--5--|-7--7--7--7--7--7--10-10-10-10-10-10-5--5--5--5--5--5--8--8--8--8--8--8--|


E|-------------------------------------------------------------------------|-------------------------------------------------------------------------|
B|-------------------------------------------------------------------------|-------------------------------------------------------------------------|
G|-------------------------------------------------------------------------|-------------------------------------------------------------------------|
D|-------------------------------------------------------------------------|-------------------------------------------------------------------------|
A|-------------------------------------------------------------------------|-------------------------------------------------------------------------|
E|-5--5--5--5--5--5--5--5--5--5--5--5--5--5--5--5--5--5--5--5--5--5--5--5--|-7--7--7--7--7--7--7--7--7--7--7--7--6--6--6--6--6--6--6--6--6--6--6--6--|


E|-------------------------------------------------------------------------|-------------------------------------------------------------------------|
B|-------------------------------------------------------------------------|-------------------------------------------------------------------------|
G|-------------------------------------------------------------------------|-------------------------------------------------------------------------|
D|-------------------------------------------------------------------------|-------------------------------------------------------------------------|
A|-------------------------------------------------------------------------|-------------------------------------------------------------------------|
E|-5--5--5--5--5--5--5--5--5--5--5--5--5--5--5--5--5--5--5--5--5--5--5--5--|-7--7--7--7--7--7--10-10-10-10-10-10-5--5--5--5--5--5--8--8--8--8--8--8--|


E|--------|--------------------|--------|--------|--------|--------------------|--------|
B|-3------|-2--------------4---|--------|--------|-3------|-1------------------|--------|
G|-5------|-3---------6----3---|-7------|-7------|-5------|-3---------6----8---|-7------|
D|-5------|-3---------6----1---|-7------|-7------|-5------|-3---------6----8---|-7------|
A|-3------|-1---------4----1---|-5------|-5------|-3------|-1---------4----6---|-5------|
E|--------|-----------4--------|-5------|--------|--------|-----------4----6---|-5------|


E|---------------------|--------|--------------------|--------|---------------------|
B|---------------------|-3------|-1------------------|--------|---------------------|
G|-3----2----1----2----|-5------|-3---------6----8---|-7------|-3----2----1----2----|
D|-0----0----0----0----|-5------|-3---------6----8---|-7------|-0----0----0----0----|
A|---------------------|-3------|-1---------4----6---|-5------|---------------------|
E|---------------------|--------|-----------4----6---|-5------|---------------------|


E|--------|--------------------|--------|---------------------|---------------------|
B|-3------|-1------------------|--------|---------------------|---------------------|
G|-5------|-3---------6----8---|-7------|-3----2----1----2----|---------------------|
D|-5------|-3---------6----8---|-7------|-0----0----0----0----|------3----2---------|
A|-3------|-1---------4----6---|-5------|---------------------|-2----1----0----3----|
E|--------|-----------4----6---|-5------|---------------------|-0--------------1----|


E|---------------------------|---------------------|---------------------------|---------------------|
B|---------------------------|---------------------|---------------------------|---------------------|
G|---------------------------|---------------------|---------------------------|---------------------|
D|---------------------------|------3----2---------|---------------------------|------3----2---------|
A|-6----3---2---3---2---3----|-2----1----0----3----|-6----3---2---3---2---2----|-2----1----0----3----|
E|-4----1---0---1---0---1----|-0--------------1----|-4----1---0---1---0---0----|-0--------------1----|


E|---------------------------|---------------------|---------------------------|---------------------|
B|---------------------------|---------------------|---------------------------|---------------------|
G|---------------------------|---------------------|---------------------------|---------------------|
D|---------------------------|------3----2---------|---------------------------|------3----2---------|
A|-6----3---2---3---2---3----|-2----1----0----3----|-6----3---2---3---2---2----|-2----1----0----3----|
E|-4----1---0---1---0---1----|-0--------------1----|-4----1---0---1---0---0----|-0--------------1----|


E|---------------------------|---------------------|---------------------------|---------------------|
B|---------------------------|---------------------|---------------------------|---------------------|
G|---------------------------|---------------------|---------------------------|---------------------|
D|---------------------------|------3----2---------|---------------------------|------3----2---------|
A|-6----3---2---3---2---3----|-2----1----0----3----|-6----3---2---3---2---2----|-2----1----0----3----|
E|-4----1---0---1---0---1----|-0--------------1----|-4----1---0---1---0---0----|-0--------------1----|


E|---------------------------|---------------------|---------------------------|---------------------|
B|---------------------------|---------------------|---------------------------|---------------------|
G|---------------------------|---------------------|---------------------------|---------------------|
D|---------------------------|------3----2---------|---------------------------|------3----2---------|
A|-6----3---2---3---2---3----|-2----1----0----3----|-6----3---2---3---2---2----|-2----1----0----3----|
E|-4----1---0---1---0---1----|-0--------------1----|-4----1---0---1---0---0----|-0--------------1----|


E|---------------------------|---------------------|---------------------------|--------|
B|---------------------------|---------------------|---------------------------|--------|
G|---------------------------|---------------------|---------------------------|--------|
D|---------------------------|------3----2---------|---------------------------|--------|
A|-6----3---2---3---2---3----|-2----1----0----3----|-6----3---2---3---2---2----|-2------|
E|-4----1---0---1---0---1----|-0--------------1----|-4----1---0---1---0---0----|-0------|


E|-----------------|--------|-----------------|--------|-----------------|--------|
B|-----------------|--------|-----------------|--------|-----------------|--------|
G|-----------------|--------|-----------------|--------|-----------------|--------|
D|-----------------|--------|-----------------|--------|-----------------|--------|
A|-2-----2----2----|-3------|-3-----3----3----|-2------|-2-----2----2----|-3------|
E|-0-----0----0----|-1------|-1-----1----1----|-0------|-0-----0----0----|-1------|


E|-----------------|--------|-----------------|--------|-----------------|--------|
B|-----------------|--------|-----------------|--------|-----------------|--------|
G|-----------------|--------|-----------------|--------|-----------------|--------|
D|-----------------|--------|-----------------|--------|-----------------|--------|
A|-3-----3----3----|-2------|-2-----2----2----|-3------|-3-----3----3----|-2------|
E|-1-----1----1----|-0------|-0-----0----0----|-1------|-1-----1----1----|-0------|


E|-----------------|--------|-----------------|--------|-----------------|--------|
B|-----------------|--------|-----------------|--------|-----------------|--------|
G|-----------------|--------|-----------------|--------|-----------------|--------|
D|-----------------|--------|-----------------|--------|-----------------|--------|
A|-2-----2----2----|-3------|-3-----3----3----|-2------|-2-----2----2----|-3------|
E|-0-----0----0----|-1------|-1-----1----1----|-0------|-0-----0----0----|-1------|


E|-----------------|--------|-----------------|--------|-----------------|--------|
B|-----------------|--------|-----------------|--------|-----------------|--------|
G|-----------------|--------|-----------------|--------|-----------------|--------|
D|-----------------|--------|-----------------|--------|-----------------|--------|
A|-3-----3----3----|-2------|-2-----2----2----|-3------|-3-----3----3----|-2------|
E|-1-----1----1----|-0------|-0-----0----0----|-1------|-1-----1----1----|-0------|


E|-----------------|--------|-----------------|--------|-----------------|--------|
B|-----------------|--------|-----------------|--------|-----------------|--------|
G|-----------------|--------|-----------------|--------|-----------------|--------|
D|-----------------|--------|-----------------|--------|-----------------|--------|
A|-2-----2----2----|-3------|-3-----3----3----|-2------|-2-----2----2----|-3------|
E|-0-----0----0----|-1------|-1-----1----1----|-0------|-0-----0----0----|-1------|


E|-----------------|--------|--------|--------|
B|-----------------|--------|--------|--------|
G|-----------------|--------|--------|--------|
D|-----------------|--------|--------|--------|
A|-3-----3----3----|-2------|--------|--------|
E|-1-----1----1----|-0------|--------|--------|









Track 2: Samoth
Back to top
E|--------|--------|--------|--------|--------|--------|--------|--------|-------------------------------------------------|
B|--------|--------|--------|--------|--------|--------|--------|--------|-------------------------------------------------|
G|--------|--------|--------|--------|--------|--------|--------|--------|-------------9--9--9--9--------------------------|
D|--------|--------|--------|--------|--------|--------|--------|--------|-------------------------9--9--9--9--------------|
A|--------|--------|--------|--------|--------|--------|--------|--------|-7--7--7--7--------------------------10-10-10-10-|
E|--------|--------|--------|--------|--------|--------|--------|--------|-------------------------------------------------|


E|-------------------------------------------------|-------------------------------------------------|
B|-------------------------------------------------|-------------------------------------------------|
G|-------------------------------------------------|-------------10-10-10-10-9--9--9--9--7--7--7--7--|
D|-------------------------7--7--7--7--9--9--9--9--|-------------------------------------------------|
A|-9--9--9--9--10-10-10-10-------------------------|-8--8--8--8--------------------------------------|
E|-------------------------------------------------|-------------------------------------------------|


E|-------------------------------------------------|-------------------------------------------------|
B|-------------------------------------------------|-------------------------------------------------|
G|-9--9--9--9--------------------------------------|-------------9--9--9--9--------------------------|
D|-------------10-10-10-10-9--9--9--9--10-10-10-10-|-------------------------9--9--9--9--------------|
A|-------------------------------------------------|-7--7--7--7--------------------------10-10-10-10-|
E|-------------------------------------------------|-------------------------------------------------|


E|-------------------------------------------------|-------------------------------------------------|
B|-------------------------------------------------|-------------------------------------------------|
G|-------------------------------------------------|-------------10-10-10-10-9--9--9--9--------------|
D|-------------------------7--7--7--7--9--9--9--9--|-------------------------------------10-10-10-10-|
A|-9--9--9--9--10-10-10-10-------------------------|-8--8--8--8--------------------------------------|
E|-------------------------------------------------|-------------------------------------------------|


E|-------------------------------------------------|-------------------------------------------------|
B|-------------------------------------------------|-------------------------------------------------|
G|-9--9--9--9--------------------------------------|-------------9--9--9--9--------------------------|
D|-------------10-10-10-10-9--9--9--9--10-10-10-10-|-------------------------9--9--9--9--------------|
A|-------------------------------------------------|-7--7--7--7--------------------------10-10-10-10-|
E|-------------------------------------------------|-------------------------------------------------|


E|-------------------------------------------------|-------------------------------------------------|
B|-------------------------------------------------|-------------------------------------------------|
G|-------------------------------------------------|-------------10-10-10-10-9--9--9--9--7--7--7--7--|
D|-------------------------7--7--7--7--9--9--9--9--|-------------------------------------------------|
A|-9--9--9--9--10-10-10-10-------------------------|-8--8--8--8--------------------------------------|
E|-------------------------------------------------|-------------------------------------------------|


E|-------------------------------------------------|-------------------------------------------------|
B|-------------------------------------------------|-------------------------------------------------|
G|-9--9--9--9--------------------------------------|-------------9--9--9--9--------------------------|
D|-------------10-10-10-10-9--9--9--9--10-10-10-10-|-------------------------9--9--9--9--------------|
A|-------------------------------------------------|-7--7--7--7--------------------------10-10-10-10-|
E|-------------------------------------------------|-------------------------------------------------|


E|-------------------------------------------------|-------------------------------------------------|
B|-------------------------------------------------|-------------------------------------------------|
G|-------------------------------------------------|-------------10-10-10-10-9--9--9--9--7--7--7--7--|
D|-------------------------7--7--7--7--9--9--9--9--|-------------------------------------------------|
A|-9--9--9--9--10-10-10-10-------------------------|-8--8--8--8--------------------------------------|
E|-------------------------------------------------|-------------------------------------------------|


E|-------------------------------------------------|-------------3-------------|-------------4-------------|
B|-------------------------------------------------|---------4--------4--------|---------3--------3---1----|
G|-9--9--9--9--------------------------------------|-----5----------------5----|-----5---------------------|
D|-------------10-10-10-10-9--9--9--9--10-10-10-10-|-5-------------------------|-5-------------------------|
A|-------------------------------------------------|-3-------------------------|-3-------------------------|
E|-------------------------------------------------|---------------------------|---------------------------|


E|-------------6-----------6-------|--------|--------|--------|--------|--------|--------|
B|---------4-------4-----------4---|--------|--------|--------|--------|--------|--------|
G|-----5---------------5-----------|--------|--------|--------|--------|--------|--------|
D|-3-------------------------------|--------|--------|--------|--------|--------|--------|
A|-3-------------------------------|--------|--------|--------|--------|--------|--------|
E|---------------------------------|--------|--------|--------|--------|--------|--------|


E|--------|--------|--------|--------|--------|--------|--------|--------|--------|
B|--------|--------|--------|--------|--------|--------|--------|--------|--------|
G|--------|--------|--------|--------|--------|--------|--------|--------|--------|
D|--------|--------|--------|--------|--------|--------|--------|--------|--------|
A|--------|--------|--------|--------|--------|--------|--------|--------|--------|
E|--------|--------|--------|--------|--------|--------|--------|--------|--------|


E|--------|--------|-------------------------------------------------|-------------------------------------------------|
B|--------|--------|-------------------------------------------------|-------------------------------------------------|
G|--------|--------|-------------9--9--9--9--------------------------|-------------------------------------------------|
D|--------|--------|-------------------------9--9--9--9--------------|-------------------------7--7--7--7--9--9--9--9--|
A|--------|--------|-7--7--7--7--------------------------10-10-10-10-|-9--9--9--9--10-10-10-10-------------------------|
E|--------|--------|-------------------------------------------------|-------------------------------------------------|


E|-------------------------------------------------|-------------------------------------------------|
B|-------------------------------------------------|-------------------------------------------------|
G|-------------10-10-10-10-9--9--9--9--7--7--7--7--|-9--9--9--9--------------------------------------|
D|-------------------------------------------------|-------------10-10-10-10-9--9--9--9--10-10-10-10-|
A|-8--8--8--8--------------------------------------|-------------------------------------------------|
E|-------------------------------------------------|-------------------------------------------------|


E|-------------------------------------------------|-------------------------------------------------|
B|-------------------------------------------------|-------------------------------------------------|
G|-------------9--9--9--9--------------------------|-------------------------------------------------|
D|-------------------------9--9--9--9--------------|-------------------------7--7--7--7--9--9--9--9--|
A|-7--7--7--7--------------------------10-10-10-10-|-9--9--9--9--10-10-10-10-------------------------|
E|-------------------------------------------------|-------------------------------------------------|


E|-------------------------------------------------|-------------------------------------------------|
B|-------------------------------------------------|-------------------------------------------------|
G|-------------10-10-10-10-9--9--9--9--7--7--7--7--|-9--9--9--9--------------------------------------|
D|-------------------------------------------------|-------------10-10-10-10-9--9--9--9--10-10-10-10-|
A|-8--8--8--8--------------------------------------|-------------------------------------------------|
E|-------------------------------------------------|-------------------------------------------------|


E|-------------------------------------------------|-------------------------------------------------|
B|-------------------------------------------------|-------------------------------------------------|
G|-------------9--9--9--9--------------------------|-------------------------------------------------|
D|-------------------------9--9--9--9--------------|-------------------------7--7--7--7--9--9--9--9--|
A|-7--7--7--7--------------------------10-10-10-10-|-9--9--9--9--10-10-10-10-------------------------|
E|-------------------------------------------------|-------------------------------------------------|


E|-------------------------------------------------|-------------------------------------------------|
B|-------------------------------------------------|-------------------------------------------------|
G|-------------10-10-10-10-9--9--9--9--7--7--7--7--|-9--9--9--9--------------------------------------|
D|-------------------------------------------------|-------------10-10-10-10-9--9--9--9--10-10-10-10-|
A|-8--8--8--8--------------------------------------|-------------------------------------------------|
E|-------------------------------------------------|-------------------------------------------------|


E|-------------------------------------------------|-------------------------------------------------|
B|-------------------------------------------------|-------------------------------------------------|
G|-------------9--9--9--9--------------------------|-------------------------------------------------|
D|-------------------------9--9--9--9--------------|-------------------------7--7--7--7--9--9--9--9--|
A|-7--7--7--7--------------------------10-10-10-10-|-9--9--9--9--10-10-10-10-------------------------|
E|-------------------------------------------------|-------------------------------------------------|


E|-------------------------------------------------|-------------------------------------------------|
B|-------------------------------------------------|-------------------------------------------------|
G|-------------10-10-10-10-9--9--9--9--7--7--7--7--|-9--9--9--9--------------------------------------|
D|-------------------------------------------------|-------------10-10-10-10-9--9--9--9--10-10-10-10-|
A|-8--8--8--8--------------------------------------|-------------------------------------------------|
E|-------------------------------------------------|-------------------------------------------------|


E|--------|--------|--------|--------|--------|--------|--------|--------|--------|
B|--------|--------|--------|--------|--------|--------|--------|--------|--------|
G|--------|--------|--------|--------|--------|--------|--------|--------|--------|
D|--------|--------|--------|--------|--------|--------|--------|--------|--------|
A|--------|--------|--------|--------|--------|--------|--------|--------|--------|
E|--------|--------|--------|--------|--------|--------|--------|--------|--------|


E|--------|--------|--------|--------|--------|--------|--------|--------|--------|
B|--------|--------|--------|--------|--------|--------|--------|--------|--------|
G|--------|--------|--------|--------|--------|--------|--------|--------|--------|
D|--------|--------|--------|--------|--------|--------|--------|--------|--------|
A|--------|--------|--------|--------|--------|--------|--------|--------|--------|
E|--------|--------|--------|--------|--------|--------|--------|--------|--------|


E|--------|--------|-------------3-----------------------3-----------|-------------1-----------------------1-----------|
B|--------|--------|-----------------3-----------------------3-------|-----------------1-----------------------1-------|
G|--------|--------|---------5-----------5-----------5-----------5---|---------3-----------3-----------3-----------3---|
D|--------|--------|-----5-----------------------5-------------------|-----3-----------------------3-------------------|
A|--------|--------|-3-----------------------3-----------------------|-1-----------------------1-----------------------|
E|--------|--------|-------------------------------------------------|-------------------------------------------------|


E|-------------5-----------------------5-----------|-------------------------------------------------|
B|---------6-------6---------------6-------6-------|---------3-----------3-----------3-----------3---|
G|-----7---------------7-------7---------------7---|-----3-----------2-----------1-----------2-------|
D|-------------------------------------------------|-0-----------0-----------0-----------0-----------|
A|-5-----------------------5-----------------------|-------------------------------------------------|
E|-------------------------------------------------|-------------------------------------------------|


E|-------------3-----------------------3-----------|-------------1-----------------------1-----------|
B|-----------------3-----------------------3-------|-----------------1-----------------------1-------|
G|---------5-----------5-----------5-----------5---|---------3-----------3-----------3-----------3---|
D|-----5-----------------------5-------------------|-----3-----------------------3-------------------|
A|-3-----------------------3-----------------------|-1-----------------------1-----------------------|
E|-------------------------------------------------|-------------------------------------------------|


E|-------------5-----------------------5-----------|-------------------------------------------------|
B|---------6-------6---------------6-------6-------|---------3-----------3-----------3-----------3---|
G|-----7---------------7-------7---------------7---|-----3-----------2-----------1-----------2-------|
D|-------------------------------------------------|-0-----------0-----------0-----------0-----------|
A|-5-----------------------5-----------------------|-------------------------------------------------|
E|-------------------------------------------------|-------------------------------------------------|


E|-------------3-----------------------3-----------|-------------1-----------------------1-----------|
B|-----------------3-----------------------3-------|-----------------1-----------------------1-------|
G|---------5-----------5-----------5-----------5---|---------3-----------3-----------3-----------3---|
D|-----5-----------------------5-------------------|-----3-----------------------3-------------------|
A|-3-----------------------3-----------------------|-1-----------------------1-----------------------|
E|-------------------------------------------------|-------------------------------------------------|


E|-------------5-----------------------5-----------|-------------------------------------------------|
B|---------6-------6---------------6-------6-------|---------3-----------3-----------3-----------3---|
G|-----7---------------7-------7---------------7---|-----3-----------2-----------1-----------2-------|
D|-------------------------------------------------|-0-----------0-----------0-----------0-----------|
A|-5-----------------------5-----------------------|-------------------------------------------------|
E|-------------------------------------------------|-------------------------------------------------|


E|-------------3-----------------------3-----------|-------------1-----------------------1-----------|
B|-----------------3-----------------------3-------|-----------------1-----------------------1-------|
G|---------5-----------5-----------5-----------5---|---------3-----------3-----------3-----------3---|
D|-----5-----------------------5-------------------|-----3-----------------------3-------------------|
A|-3-----------------------3-----------------------|-1-----------------------1-----------------------|
E|-------------------------------------------------|-------------------------------------------------|


E|-------------5-----------------------5-----------|-------------------------------------------------|
B|---------6-------6---------------6-------6-------|---------3-----------3-----------3-----------3---|
G|-----7---------------7-------7---------------7---|-----3-----------2-----------1-----------2-------|
D|-------------------------------------------------|-0-----------0-----------0-----------0-----------|
A|-5-----------------------5-----------------------|-------------------------------------------------|
E|-------------------------------------------------|-------------------------------------------------|


E|-------------3-----------------------3-----------|-------------1-----------------------1-----------|
B|-----------------3-----------------------3-------|-----------------1-----------------------1-------|
G|---------5-----------5-----------5-----------5---|---------3-----------3-----------3-----------3---|
D|-----5-----------------------5-------------------|-----3-----------------------3-------------------|
A|-3-----------------------3-----------------------|-1-----------------------1-----------------------|
E|-------------------------------------------------|-------------------------------------------------|


E|-------------5-----------------------5-----------|-------------------------------------------------|
B|---------6-------6---------------6-------6-------|---------3-----------3-----------3-----------3---|
G|-----7---------------7-------7---------------7---|-----3-----------2-----------1-----------2-------|
D|-------------------------------------------------|-0-----------0-----------0-----------0-----------|
A|-5-----------------------5-----------------------|-------------------------------------------------|
E|-------------------------------------------------|-------------------------------------------------|


E|-----------------------------------------------------------------|---------------------------------------|
B|-----------------------------------------------------------------|-3--------------------------------7----|
G|-----------------------------------------------------------------|----------------------------------8----|
D|-7---0--0--0--0--5---0--0--0--0--7---0--0--0--0--8---0--0--0--0--|----------------------------------8----|
A|-----------------------------------------------------------------|-5---------------5---3---5---6----6----|
E|-----------------------------------------------------------------|-----3--3--3--3------------------------|


E|-----------------------------------------------------------------|--------|-----------------------------------------------------------------|
B|-----------------------------------------------------------------|--------|-----------------------------------------------------------------|
G|-----------------------------------------------------------------|--------|-----------------------------------------------------------------|
D|-7---0--0--0--0--5---0--0--0--0--7---0--0--0--0--8---0--0--0--0--|--------|-7---0--0--0--0--5---0--0--0--0--7---0--0--0--0--8---0--0--0--0--|
A|-----------------------------------------------------------------|--------|-----------------------------------------------------------------|
E|-----------------------------------------------------------------|--------|-----------------------------------------------------------------|


E|---------------------------------------|-----------------------------------------------------------------|
B|-7--------------------------------7----|-----------------------------------------------------------------|
G|----------------------------------8----|-----------------------------------------------------------------|
D|----------------------------------8----|-7---0--0--0--0--5---0--0--0--0--7---0--0--0--0--8---0--0--0--0--|
A|-5---------------5---3---5---6----6----|-----------------------------------------------------------------|
E|-----3--3--3--3------------------------|-----------------------------------------------------------------|


E|--------|-----------------------------------------------------------------|-----------------------------------------------------------------|
B|--------|-----------------------------------------------------------------|-----------------------------------------------------------------|
G|--------|-----------------------------------------------------------------|-----------------------------------------------------------------|
D|--------|-----------------------------------------------------------------|-4---------------4---------------3---------------3---------------|
A|--------|-7---------------5---------------7---------------8---------------|-2---2--2--2--2--2---2--2--2--2--1---1--1--1--1--1---1--1--1--1--|
E|--------|-5---5--5--5--5--5---5--5--5--5--5---5--5--5--5--5---5--5--5--5--|-----------------------------------------------------------------|


E|-----------------------------------------------------------------|--------|-----------------------------------------------------------------|
B|-----------------------------------------------------------------|--------|-----------------------------------------------------------------|
G|-----------------------------------------------------------------|--------|-----------------------------------------------------------------|
D|-----------------------------------------------------------------|--------|-----------------------------------------------------------------|
A|-7---------------5---------------7---------------8---------------|--------|-7---------------5---------------7---------------8---------------|
E|-5---5--5--5--5--5---5--5--5--5--5---5--5--5--5--5---5--5--5--5--|--------|-5---5--5--5--5--5---5--5--5--5--5---5--5--5--5--5---5--5--5--5--|


E|-----------------------------------------------------------------|-----------------------------------------------------------------|
B|-----------------------------------------------------------------|-----------------------------------------------------------------|
G|-----------------------------------------------------------------|-----------------------------------------------------------------|
D|-4---------------4---------------3---------------3---------------|-----------------------------------------------------------------|
A|-2---2--2--2--2--2---2--2--2--2--1---1--1--1--1--1---1--1--1--1--|-7---------------5---------------7---------------8---------------|
E|-----------------------------------------------------------------|-5---5--5--5--5--5---5--5--5--5--5---5--5--5--5--5---5--5--5--5--|


E|--------|-------------3-----------------------3-----------|-------------1-----------------------1-----------|
B|--------|-----------------3-----------------------3-------|-----------------1-----------------------1-------|
G|--------|---------5-----------5-----------5-----------5---|---------3-----------3-----------3-----------3---|
D|--------|-----5-----------------------5-------------------|-----3-----------------------3-------------------|
A|--------|-3-----------------------3-----------------------|-1-----------------------1-----------------------|
E|--------|-------------------------------------------------|-------------------------------------------------|


E|-------------5-----------------------5-----------|-------------------------------------------------|
B|---------6-------6---------------6-------6-------|---------3-----------3-----------3-----------3---|
G|-----7---------------7-------7---------------7---|-----3-----------2-----------1-----------2-------|
D|-------------------------------------------------|-0-----------0-----------0-----------0-----------|
A|-5-----------------------5-----------------------|-------------------------------------------------|
E|-------------------------------------------------|-------------------------------------------------|


E|-------------3-----------------------3-----------|-------------1-----------------------1-----------|
B|-----------------3-----------------------3-------|-----------------1-----------------------1-------|
G|---------5-----------5-----------5-----------5---|---------3-----------3-----------3-----------3---|
D|-----5-----------------------5-------------------|-----3-----------------------3-------------------|
A|-3-----------------------3-----------------------|-1-----------------------1-----------------------|
E|-------------------------------------------------|-------------------------------------------------|


E|-------------5-----------------------5-----------|-------------------------------------------------|
B|---------6-------6---------------6-------6-------|---------3-----------3-----------3-----------3---|
G|-----7---------------7-------7---------------7---|-----3-----------2-----------1-----------2-------|
D|-------------------------------------------------|-0-----------0-----------0-----------0-----------|
A|-5-----------------------5-----------------------|-------------------------------------------------|
E|-------------------------------------------------|-------------------------------------------------|


E|-------------3-----------------------3-----------|-------------1-----------------------1-----------|
B|-----------------3-----------------------3-------|-----------------1-----------------------1-------|
G|---------5-----------5-----------5-----------5---|---------3-----------3-----------3-----------3---|
D|-----5-----------------------5-------------------|-----3-----------------------3-------------------|
A|-3-----------------------3-----------------------|-1-----------------------1-----------------------|
E|-------------------------------------------------|-------------------------------------------------|


E|-------------5-----------------------5-----------|-------------------------------------------------|
B|---------6-------6---------------6-------6-------|---------3-----------3-----------3-----------3---|
G|-----7---------------7-------7---------------7---|-----3-----------2-----------1-----------2-------|
D|-------------------------------------------------|-0-----------0-----------0-----------0-----------|
A|-5-----------------------5-----------------------|-------------------------------------------------|
E|-------------------------------------------------|-------------------------------------------------|


E|-------------3-----------------------3-----------|-------------1-----------------------1-----------|
B|-----------------3-----------------------3-------|-----------------1-----------------------1-------|
G|---------5-----------5-----------5-----------5---|---------3-----------3-----------3-----------3---|
D|-----5-----------------------5-------------------|-----3-----------------------3-------------------|
A|-3-----------------------3-----------------------|-1-----------------------1-----------------------|
E|-------------------------------------------------|-------------------------------------------------|


E|-------------5-----------------------5-----------|-------------------------------------------------|
B|---------6-------6---------------6-------6-------|---------3-----------3-----------3-----------3---|
G|-----7---------------7-------7---------------7---|-----3-----------2-----------1-----------2-------|
D|-------------------------------------------------|-0-----------0-----------0-----------0-----------|
A|-5-----------------------5-----------------------|-------------------------------------------------|
E|-------------------------------------------------|-------------------------------------------------|


E|--------|---------------------------|---------------------|---------------------------|
B|--------|---------------------------|---------------------|----------------------17---|
G|--------|---------------------------|---------------------|---------------------------|
D|--------|---------------------------|------3----2---------|---------------------------|
A|--------|------3---2---3---2---3----|-2----1----0----3----|-6----3---2---3---2--------|
E|--------|------1---0---1---0---1----|-0--------------1----|-4----1---0---1---0--------|


E|------------------------|---------------------------|---------------------|---------------------------|
B|------------------------|---------------------------|---------------------|----------------------17---|
G|-9---10--9----7---------|-7----10--9---10--9---10---|------7----6---------|-5-------------------------|
D|-------------------6----|---------------------------|-6--------------7----|------6---5---6---5--------|
A|------------------------|---------------------------|---------------------|---------------------------|
E|------------------------|---------------------------|---------------------|---------------------------|


E|------------------------|---------------------------|---------------------|---------------------------|
B|------------------------|---------------------------|---------------------|----------------------17---|
G|-9---10--9----7---------|-7----10--9---10--9---10---|------7----6---------|-5-------------------------|
D|-------------------6----|---------------------------|-6--------------7----|------6---5---6---5--------|
A|------------------------|---------------------------|---------------------|---------------------------|
E|------------------------|---------------------------|---------------------|---------------------------|


E|------------------------|---------------------------|---------------------|---------------------------|
B|------------------------|---------------------------|---------------------|----------------------17---|
G|-9---10--9----7---------|-7----10--9---10--9---10---|------7----6---------|-5-------------------------|
D|-------------------6----|---------------------------|-6--------------7----|------6---5---6---5--------|
A|------------------------|---------------------------|---------------------|---------------------------|
E|------------------------|---------------------------|---------------------|---------------------------|


E|------------------------|---------------------------|---------------------|---------------------------|
B|------------------------|---------------------------|---------------------|----------------------17---|
G|-9---10--9----7---------|-7----10--9---10--9---10---|------7----6---------|-5-------------------------|
D|-------------------6----|---------------------------|-6--------------7----|------6---5---6---5--------|
A|------------------------|---------------------------|---------------------|---------------------------|
E|------------------------|---------------------------|---------------------|---------------------------|


E|---------------------|---------------------|---------------------|---------------------|
B|---------------------|---------------------|---------------------|---------------------|
G|------9--------------|---------------------|------10---9----7----|-9-------------------|
D|-----------9---------|-----------7----9----|---------------------|------10---9----10---|
A|-7--------------10---|-9----10-------------|-8-------------------|---------------------|
E|---------------------|---------------------|---------------------|---------------------|


E|---------------------|---------------------|---------------------|---------------------|
B|---------------------|---------------------|---------------------|---------------------|
G|------9--------------|---------------------|------10---9----7----|-9-------------------|
D|-----------9---------|-----------7----9----|---------------------|------10---9----10---|
A|-7--------------10---|-9----10-------------|-8-------------------|---------------------|
E|---------------------|---------------------|---------------------|---------------------|


E|---------------------|---------------------|---------------------|---------------------|
B|---------------------|---------------------|---------------------|---------------------|
G|------9--------------|---------------------|------10---9----7----|-9-------------------|
D|-----------9---------|-----------7----9----|---------------------|------10---9----10---|
A|-7--------------10---|-9----10-------------|-8-------------------|---------------------|
E|---------------------|---------------------|---------------------|---------------------|


E|---------------------|---------------------|---------------------|---------------------|
B|---------------------|---------------------|---------------------|---------------------|
G|------9--------------|---------------------|------10---9----7----|-9-------------------|
D|-----------9---------|-----------7----9----|---------------------|------10---9----10---|
A|-7--------------10---|-9----10-------------|-8-------------------|---------------------|
E|---------------------|---------------------|---------------------|---------------------|


E|---------------------|---------------------|---------------------|---------------------|
B|---------------------|---------------------|---------------------|---------------------|
G|------9--------------|---------------------|------10---9----7----|-9-------------------|
D|-----------9---------|-----------7----9----|---------------------|------10---9----10---|
A|-7--------------10---|-9----10-------------|-8-------------------|---------------------|
E|---------------------|---------------------|---------------------|---------------------|


E|---------------------|---------------------|---------------------|---------------------|
B|---------------------|---------------------|---------------------|---------------------|
G|------9--------------|---------------------|------10---9----7----|-9-------------------|
D|-----------9---------|-----------7----9----|---------------------|------10---9----10---|
A|-7--------------10---|-9----10-------------|-8-------------------|---------------------|
E|---------------------|---------------------|---------------------|---------------------|


E|---------------------|---------------------|---------------------|---------------------|
B|---------------------|---------------------|---------------------|---------------------|
G|------9--------------|---------------------|------10---9----7----|-9-------------------|
D|-----------9---------|-----------7----9----|---------------------|------10---9----10---|
A|-7--------------10---|-9----10-------------|-8-------------------|---------------------|
E|---------------------|---------------------|---------------------|---------------------|


E|---------------------|---------------------|---------------------|---------------------|
B|---------------------|---------------------|---------------------|---------------------|
G|------9--------------|---------------------|------10---9----7----|-9-------------------|
D|-----------9---------|-----------7----9----|---------------------|------10---9----10---|
A|-7--------------10---|-9----10-------------|-8-------------------|---------------------|
E|---------------------|---------------------|---------------------|---------------------|


E|--------|--------|--------|
B|--------|--------|--------|
G|--------|--------|--------|
D|--------|--------|--------|
A|-2------|--------|--------|
E|-0------|--------|--------|









Track 3: Tchort
Back to top
G|-------------------------------------------------|------------------------------------------|
D|-------------------------------------------------|-------------------------------------2----|
A|-------------------------------------------------|------------------------------------------|
E|-0--0--0--0--0--0--0--0--0--0--0--0--0--0--0--0--|-0--0--0--0--0--0--0--0--0--0--0--0-------|


G|-------------------------------------------------|-------------------------------------------------|
D|-------------------------------------------------|-------------------------3--3--3--3--3--3--3--3--|
A|-------------------------------------------------|-3--3--3--3--3--3--3--3--------------------------|
E|-1--1--1--1--1--1--1--1--1--1--1--1--1--1--1--1--|-------------------------------------------------|


G|-------------------------------------------------|------------------------------------------|
D|-------------------------------------------------|-------------------------------------2----|
A|-------------------------------------------------|------------------------------------------|
E|-0--0--0--0--0--0--0--0--0--0--0--0--0--0--0--0--|-0--0--0--0--0--0--0--0--0--0--0--0-------|


G|-------------------------------------------------|-------------------------------------------------|
D|-------------------------------------------------|-------------------------3--3--3--3--3--3--3--3--|
A|-------------------------------------------------|-3--3--3--3--3--3--3--3--------------------------|
E|-1--1--1--1--1--1--1--1--1--1--1--1--1--1--1--1--|-------------------------------------------------|


G|-------------------------------------------------|-------------------------------------------------|
D|-------------------------------------------------|-------------------------------------------------|
A|-------------------------------------------------|-------------------------------------------------|
E|-0--0--0--0--0--0--0--0--0--0--0--0--0--0--0--0--|-0--0--0--0--0--0--0--0--0--0--0--0--0--0--0--0--|


G|-------------------------------------------------|-------------------------------------------------|
D|-------------------------------------------------|-------------------------3--3--3--3--3--3--3--3--|
A|-------------------------------------------------|-3--3--3--3--3--3--3--3--------------------------|
E|-1--1--1--1--1--1--1--1--1--1--1--1--1--1--1--1--|-------------------------------------------------|


G|-------------------------------------------------|-------------------------------------------------|
D|-------------------------------------------------|-------------------------------------------------|
A|-------------------------------------------------|-------------------------------------------------|
E|-0--0--0--0--0--0--0--0--0--0--0--0--0--0--0--0--|-0--0--0--0--0--0--0--0--0--0--0--0--0--0--0--0--|


G|-------------------------------------------------|-------------------------------------------------|
D|-------------------------------------------------|-------------------------3--3--3--3--3--3--3--3--|
A|-------------------------------------------------|-3--3--3--3--3--3--3--3--------------------------|
E|-1--1--1--1--1--1--1--1--1--1--1--1--1--1--1--1--|-------------------------------------------------|


G|-------------------------------------------------|-------------------------------------------------|
D|-------------------------------------------------|-------------------------------------------------|
A|-------------------------------------------------|-------------------------------------------------|
E|-0--0--0--0--0--0--0--0--0--0--0--0--0--0--0--0--|-0--0--0--0--0--0--0--0--0--0--0--0--0--0--0--0--|


G|-------------------------------------------------|-------------------------------------------------|
D|-------------------------------------------------|-------------------------3--3--3--3--3--3--3--3--|
A|-------------------------------------------------|-3--3--3--3--3--3--3--3--------------------------|
E|-1--1--1--1--1--1--1--1--1--1--1--1--1--1--1--1--|-------------------------------------------------|


G|-------------------------------------------------|-------------------------------------------------|
D|-------------------------------------------------|-------------------------------------------------|
A|-------------------------------------------------|-------------------------------------------------|
E|-0--0--0--0--0--0--0--0--0--0--0--0--0--0--0--0--|-0--0--0--0--0--0--0--0--0--0--0--0--0--0--0--0--|


G|-------------------------------------------------|-------------------------------------------------|
D|-------------------------------------------------|-------------------------3--3--3--3--3--3--3--3--|
A|-------------------------------------------------|-3--3--3--3--3--3--3--3--------------------------|
E|-1--1--1--1--1--1--1--1--1--1--1--1--1--1--1--1--|-------------------------------------------------|


G|--------|--------|--------|-------------|-------------------------------------------------|
D|--------|--------|--------|-------------|-------------------------------------------------|
A|-3------|-3------|-3------|-------------|-2--2--2--2--2--2--2--2--2--2--2--2--2--2--2--2--|
E|--------|--------|--------|-4-----3-----|-------------------------------------------------|


G|-------------------------------------------------|-------------------------------------------------|
D|-------------------------------------------------|-------------------------------------------------|
A|-1--1--1--1--1--1--1--1--1--1--1--1--1--1--1--1--|-2--2--2--2--2--2--2--2--2--2--2--2--2--2--2--2--|
E|-------------------------------------------------|-------------------------------------------------|


G|-------------------------------------------------|-------------------------------------------------|
D|-3--3--3--3--------------------------4--4--4--4--|-------------------------------------------------|
A|-------------------------3--3--3--3--------------|-2--2--2--2--2--2--2--2--2--2--2--2--2--2--2--2--|
E|-------------2--2--2--2--------------------------|-------------------------------------------------|


G|-------------------------------------------------|-------------------------------------------------|
D|-------------------------------------------------|-------------------------------------------------|
A|-1--1--1--1--1--1--1--1--1--1--1--1--1--1--1--1--|-2--2--2--2--2--2--2--2--2--2--2--2--2--2--2--2--|
E|-------------------------------------------------|-------------------------------------------------|


G|-------------------------------------------------|-------------------------------------------------|
D|-3--3--3--3--------------------------4--4--4--4--|-------------------------------------------------|
A|-------------------------3--3--3--3--------------|-2--2--2--2--2--2--2--2--2--2--2--2--2--2--2--2--|
E|-------------2--2--2--2--------------------------|-------------------------------------------------|


G|-------------------------------------------------|-------------------------------------------------|
D|-------------------------------------------------|-------------------------------------------------|
A|-1--1--1--1--1--1--1--1--1--1--1--1--1--1--1--1--|-2--2--2--2--2--2--2--2--2--2--2--2--2--2--2--2--|
E|-------------------------------------------------|-------------------------------------------------|


G|-------------------------------------------------|-------------------------------------------------|
D|-3--3--3--3--------------------------4--4--4--4--|-------------------------------------------------|
A|-------------------------3--3--3--3--------------|-2--2--2--2--2--2--2--2--2--2--2--2--2--2--2--2--|
E|-------------2--2--2--2--------------------------|-------------------------------------------------|


G|-------------------------------------------------|-------------------------------------------------|
D|-------------------------------------------------|-------------------------------------------------|
A|-1--1--1--1--1--1--1--1--1--1--1--1--1--1--1--1--|-2--2--2--2--2--2--2--2--2--2--2--2--2--2--2--2--|
E|-------------------------------------------------|-------------------------------------------------|


G|-------------------------------------------------|-------------------------------------------------|
D|-3--3--3--3--------------------------4--4--4--4--|-------------------------------------------------|
A|-------------------------3--3--3--3--------------|-------------------------------------------------|
E|-------------2--2--2--2--------------------------|-0--0--0--0--0--0--0--0--0--0--0--0--0--0--0--0--|


G|-------------------------------------------------|-------------------------------------------------|
D|-------------------------------------------------|-------------------------------------------------|
A|-------------------------------------------------|-------------------------------------------------|
E|-0--0--0--0--0--0--0--0--0--0--0--0--0--0--0--0--|-1--1--1--1--1--1--1--1--1--1--1--1--1--1--1--1--|


G|-------------------------------------------------|-------------------------------------------------|
D|-------------------------3--3--3--3--3--3--3--3--|-------------------------------------------------|
A|-3--3--3--3--3--3--3--3--------------------------|-------------------------------------------------|
E|-------------------------------------------------|-0--0--0--0--0--0--0--0--0--0--0--0--0--0--0--0--|


G|-------------------------------------------------|-------------------------------------------------|
D|-------------------------------------------------|-------------------------------------------------|
A|-------------------------------------------------|-------------------------------------------------|
E|-0--0--0--0--0--0--0--0--0--0--0--0--0--0--0--0--|-1--1--1--1--1--1--1--1--1--1--1--1--1--1--1--1--|


G|-------------------------------------------------|-------------------------------------------------|
D|-------------------------3--3--3--3--3--3--3--3--|-------------------------------------------------|
A|-3--3--3--3--3--3--3--3--------------------------|-------------------------------------------------|
E|-------------------------------------------------|-0--0--0--0--0--0--0--0--0--0--0--0--0--0--0--0--|


G|-------------------------------------------------|-------------------------------------------------|
D|-------------------------------------------------|-------------------------------------------------|
A|-------------------------------------------------|-------------------------------------------------|
E|-0--0--0--0--0--0--0--0--0--0--0--0--0--0--0--0--|-1--1--1--1--1--1--1--1--1--1--1--1--1--1--1--1--|


G|-------------------------------------------------|-------------------------------------------------|
D|-------------------------3--3--3--3--3--3--3--3--|-------------------------------------------------|
A|-3--3--3--3--3--3--3--3--------------------------|-------------------------------------------------|
E|-------------------------------------------------|-0--0--0--0--0--0--0--0--0--0--0--0--0--0--0--0--|


G|-------------------------------------------------|-------------------------------------------------|
D|-------------------------------------------------|-------------------------------------------------|
A|-------------------------------------------------|-------------------------------------------------|
E|-0--0--0--0--0--0--0--0--0--0--0--0--0--0--0--0--|-1--1--1--1--1--1--1--1--1--1--1--1--1--1--1--1--|


G|-------------------------------------------------|-------------------------------------------------|
D|-------------------------3--3--3--3--3--3--3--3--|-------------------------------------------------|
A|-3--3--3--3--3--3--3--3--------------------------|-2--2--2--2--2--2--2--2--2--2--2--2--2--2--2--2--|
E|-------------------------------------------------|-------------------------------------------------|


G|-------------------------------------------------|-------------------------------------------------|
D|-------------------------------------------------|-------------------------------------------------|
A|-1--1--1--1--1--1--1--1--1--1--1--1--1--1--1--1--|-2--2--2--2--2--2--2--2--2--2--2--2--2--2--2--2--|
E|-------------------------------------------------|-------------------------------------------------|


G|-------------------------------------------------|-------------------------------------------------|
D|-3--3--3--3--------------------------4--4--4--4--|-------------------------------------------------|
A|-------------------------3--3--3--3--------------|-2--2--2--2--2--2--2--2--2--2--2--2--2--2--2--2--|
E|-------------2--2--2--2--------------------------|-------------------------------------------------|


G|-------------------------------------------------|-------------------------------------------------|
D|-------------------------------------------------|-------------------------------------------------|
A|-1--1--1--1--1--1--1--1--1--1--1--1--1--1--1--1--|-2--2--2--2--2--2--2--2--2--2--2--2--2--2--2--2--|
E|-------------------------------------------------|-------------------------------------------------|


G|-------------------------------------------------|-------------------------------------------------|
D|-3--3--3--3--------------------------4--4--4--4--|-------------------------------------------------|
A|-------------------------3--3--3--3--------------|-2--2--2--2--2--2--2--2--2--2--2--2--2--2--2--2--|
E|-------------2--2--2--2--------------------------|-------------------------------------------------|


G|-------------------------------------------------|-------------------------------------------------|
D|-------------------------------------------------|-------------------------------------------------|
A|-1--1--1--1--1--1--1--1--1--1--1--1--1--1--1--1--|-2--2--2--2--2--2--2--2--2--2--2--2--2--2--2--2--|
E|-------------------------------------------------|-------------------------------------------------|


G|-------------------------------------------------|-------------------------------------------------|
D|-3--3--3--3--------------------------4--4--4--4--|-------------------------------------------------|
A|-------------------------3--3--3--3--------------|-2--2--2--2--2--2--2--2--2--2--2--2--2--2--2--2--|
E|-------------2--2--2--2--------------------------|-------------------------------------------------|


G|-------------------------------------------------|-------------------------------------------------|
D|-------------------------------------------------|-------------------------------------------------|
A|-1--1--1--1--1--1--1--1--1--1--1--1--1--1--1--1--|-2--2--2--2--2--2--2--2--2--2--2--2--2--2--2--2--|
E|-------------------------------------------------|-------------------------------------------------|


G|-------------------------------------------------|--------|--------------------|
D|-3--3--3--3--------------------------4--4--4--4--|--------|--------------------|
A|-------------------------3--3--3--3--------------|--------|-1------------------|
E|-------------2--2--2--2--------------------------|-5------|-----------4----1---|


G|--------|--------|--------|--------------------|--------|-3----2----1----2----|--------|
D|--------|--------|--------|--------------------|--------|---------------------|--------|
A|--------|--------|-3------|-1------------------|--------|---------------------|-3------|
E|-5------|--------|--------|-----------4----6---|-5------|---------------------|--------|


G|--------------------|--------|-3----2----1----2----|--------|--------------------|
D|--------------------|--------|---------------------|--------|--------------------|
A|-1------------------|--------|---------------------|-3------|-1------------------|
E|-----------4----6---|-5------|---------------------|--------|-----------4----6---|


G|--------|-3----2----1----2----|--------|--------------------|--------|-3----2----1----2----|
D|--------|---------------------|--------|--------------------|--------|---------------------|
A|--------|---------------------|-3------|-1------------------|--------|---------------------|
E|-5------|---------------------|--------|-----------4----6---|-5------|---------------------|


G|--------|--------------------|--------|-3----2----1----2----|-------------------------------------------|
D|--------|--------------------|--------|---------------------|-------------------------------------------|
A|-3------|-1------------------|--------|---------------------|-------------------------------------------|
E|--------|-----------4----6---|-5------|---------------------|-5---5-5---5---5--5---5---5-5---5---5--5---|


G|-------------------------------------------|-------------------------------------------|
D|-------------------------------------------|-------------------------------------------|
A|-------------------------------------------|-------------------------------------------|
E|-3---3-3---3---1--3---4---4-4---4---4--4---|-5---5-5---5---5--5---5---5-5---5---5--5---|


G|-------------------------------------------------|-------------------------------------------|
D|-------------------------------------------------|-------------------------------------------|
A|-------------1---1-1-1---------------------------|-------------------------------------------|
E|-3---3-3-3---------------1---1-1-1---4---4-4-4---|-5---5-5---5---5--5---5---5-5---5---5--5---|


G|-------------------------------------------|-------------------------------------------|
D|-------------------------------------------|-------------------------------------------|
A|-------------------------------------------|-------------------------------------------|
E|-3---3-3---3---1--3---4---4-4---4---4--4---|-5---5-5---5---5--5---5---5-5---5---5--5---|


G|-------------------------------------------------|-------------------------------------------------------------------------|
D|-------------------------------------------------|-------------------------------------------------------------------------|
A|-------------1---1-1-1---------------------------|-------------------------------------------------------------------------|
E|-3---3-3-3---------------1---1-1-1---4---4-4-4---|-5--5--5--5--5--5--5--5--5--5--5--5--5--5--5--5--5--5--5--5--5--5--5--5--|


G|-------------------------------------------------------------------------|-------------------------------------------------------------------------|
D|-------------------------------------------------------------------------|-------------------------------------------------------------------------|
A|-------------------------------------------------------------------------|-------------------------------------------------------------------------|
E|-7--7--7--7--7--7--7--7--7--7--7--7--6--6--6--6--6--6--6--6--6--6--6--6--|-5--5--5--5--5--5--5--5--5--5--5--5--5--5--5--5--5--5--5--5--5--5--5--5--|


G|-------------------------------------------------------------------------|-------------------------------------------------------------------------|
D|-------------------------------------------------------------------------|-------------------------------------------------------------------------|
A|-------------------------------------------------------------------------|-------------------------------------------------------------------------|
E|-7--7--7--7--7--7--10-10-10-10-10-10-5--5--5--5--5--5--8--8--8--8--8--8--|-5--5--5--5--5--5--5--5--5--5--5--5--5--5--5--5--5--5--5--5--5--5--5--5--|


G|-------------------------------------------------------------------------|-------------------------------------------------------------------------|
D|-------------------------------------------------------------------------|-------------------------------------------------------------------------|
A|-------------------------------------------------------------------------|-------------------------------------------------------------------------|
E|-7--7--7--7--7--7--7--7--7--7--7--7--6--6--6--6--6--6--6--6--6--6--6--6--|-5--5--5--5--5--5--5--5--5--5--5--5--5--5--5--5--5--5--5--5--5--5--5--5--|


G|-------------------------------------------------------------------------|--------|
D|-------------------------------------------------------------------------|--------|
A|-------------------------------------------------------------------------|-3------|
E|-7--7--7--7--7--7--10-10-10-10-10-10-5--5--5--5--5--5--8--8--8--8--8--8--|--------|


G|--------------------|--------|--------|--------|--------------------|--------|-3----2----1----2----|
D|--------------------|--------|--------|--------|--------------------|--------|---------------------|
A|-1--------------1---|--------|--------|-3------|-1------------------|--------|---------------------|
E|-----------4--------|-5------|-5------|--------|-----------4----6---|-5------|---------------------|


G|--------|--------------------|--------|-3----2----1----2----|--------|--------------------|
D|--------|--------------------|--------|---------------------|--------|--------------------|
A|-3------|-1------------------|--------|---------------------|-3------|-1------------------|
E|--------|-----------4----6---|-5------|---------------------|--------|-----------4----6---|


G|--------|-3----2----1----2----|---------------------|---------------------------|
D|--------|---------------------|---------------------|---------------------------|
A|--------|---------------------|------1----0---------|---------------------------|
E|-5------|---------------------|-0--------------1----|-4----1---0---1---0---1----|


G|---------------------|---------------------------|---------------------|---------------------------|
D|---------------------|---------------------------|---------------------|---------------------------|
A|------1----0---------|---------------------------|------1----0---------|---------------------------|
E|-0--------------1----|-4----1---0---1---0---1----|-0--------------1----|-4----1---0---1---0---1----|


G|---------------------|---------------------------|---------------------|---------------------------|
D|---------------------|---------------------------|---------------------|---------------------------|
A|------1----0---------|---------------------------|------1----0---------|---------------------------|
E|-0--------------1----|-4----1---0---1---0---1----|-0--------------1----|-4----1---0---1---0---1----|


G|---------------------|---------------------------|---------------------|---------------------------|
D|---------------------|---------------------------|---------------------|---------------------------|
A|------1----0---------|---------------------------|------1----0---------|---------------------------|
E|-0--------------1----|-4----1---0---1---0---1----|-0--------------1----|-4----1---0---1---0---1----|


G|---------------------|---------------------------|---------------------|---------------------------|
D|---------------------|---------------------------|---------------------|---------------------------|
A|------1----0---------|---------------------------|------1----0---------|---------------------------|
E|-0--------------1----|-4----1---0---1---0---1----|-0--------------1----|-4----1---0---1---0---1----|


G|---------------------|---------------------------|--------|-----------------|--------|
D|---------------------|---------------------------|--------|-----------------|--------|
A|------1----0---------|---------------------------|--------|-----------------|--------|
E|-0--------------1----|-4----1---0---1---0---1----|-0------|-0-----0----0----|-1------|


G|-----------------|--------|-----------------|--------|-----------------|--------|
D|-----------------|--------|-----------------|--------|-----------------|--------|
A|-----------------|--------|-----------------|--------|-----------------|--------|
E|-1-----1----1----|-0------|-0-----0----0----|-1------|-1-----1----1----|-0------|


G|-----------------|--------|-----------------|--------|-----------------|--------|
D|-----------------|--------|-----------------|--------|-----------------|--------|
A|-----------------|--------|-----------------|--------|-----------------|--------|
E|-0-----0----0----|-1------|-1-----1----1----|-0------|-0-----0----0----|-1------|


G|-----------------|--------|-----------------|--------|-----------------|--------|
D|-----------------|--------|-----------------|--------|-----------------|--------|
A|-----------------|--------|-----------------|--------|-----------------|--------|
E|-1-----1----1----|-0------|-0-----0----0----|-1------|-1-----1----1----|-0------|


G|-----------------|--------|-----------------|--------|-----------------|--------|
D|-----------------|--------|-----------------|--------|-----------------|--------|
A|-----------------|--------|-----------------|--------|-----------------|--------|
E|-0-----0----0----|-1------|-1-----1----1----|-0------|-0-----0----0----|-1------|


G|-----------------|--------|-----------------|--------|-----------------|--------|
D|-----------------|--------|-----------------|--------|-----------------|--------|
A|-----------------|--------|-----------------|--------|-----------------|--------|
E|-1-----1----1----|-0------|-0-----0----0----|-1------|-1-----1----1----|-0------|


G|--------|--------|
D|--------|--------|
A|--------|--------|
E|--------|--------|









Track 4: Keyboard
Back to top
E|-------------|-------------|-------------|-------------|-------------|-------------|
B|-------------|-------------|-------------|-------------|-------------|-------------|
G|-------------|-------------|-------------|-------------|-------------|-------------|
D|-------------|-------------|-------------|-------------|-------------|-------------|
A|-------------|-------------|-------------|-------------|-------------|-------------|
E|-------------|-------------|-------------|-------------|-------------|-------------|


E|-------------|-------------|-------------|-------------|-------------|-------------|
B|-------------|-------------|-------------|-------------|-------------|-------------|
G|-------------|-------------|-------------|-------------|-------------|-------------|
D|-------------|-------------|-------------|-------------|-------------|-------------|
A|-------------|-------------|-------------|-------------|-------------|-------------|
E|-------------|-------------|-------------|-------------|-------------|-------------|


E|-------------|-------------|-------------|-------------|-------------|-------------|
B|-------------|-------------|-------------|-------------|-------------|-------------|
G|-------------|-------------|-------------|-------------|-------------|-------------|
D|-------------|-------------|-------------|-------------|-------------|-------------|
A|-------------|-------------|-------------|-------------|-------------|-------------|
E|-------------|-------------|-------------|-------------|-------------|-------------|


E|-------------|-------------|-------------|-------------|-------------|-------------|
B|-------------|-------------|-------------|-------------|-------------|-------------|
G|-------------|-------------|-------------|-------------|-------------|-------------|
D|-------------|-------------|-------------|-------------|-------------|-------------|
A|-------------|-------------|-------------|-------------|-------------|-------------|
E|-------------|-------------|-------------|-------------|-------------|-------------|


E|-------------|-------------|-------------|-------------|------------------------|
B|-------------|-------------|-------------|-------------|------------------------|
G|-------------|-------------|-------------|-------------|------------------------|
D|-------------|-------------|-------------|-------------|-0----------------------|
A|-------------|-------------|-------------|-------------|-2----------------------|
E|-------------|-------------|-------------|-------------|------------------------|


E|------------------------|------------------------|-------------|------------------------|
B|------------------------|------------------------|-------------|------------------------|
G|------------------------|------------------------|-------------|------------------------|
D|-0----------------------|-0---0------------------|-------------|-0----------------------|
A|-1----------------------|-2---2------------------|-------------|-2----------------------|
E|------------------------|------------------------|-------------|------------------------|


E|------------------------|------------------------|-------------|--------|--------|
B|------------------------|------------------------|-------------|--------|--------|
G|------------------------|------------------------|-------------|--------|--------|
D|-0----------------------|-0---0------------------|-------------|--------|--------|
A|-1----------------------|-2---2------------------|-------------|-2------|-1------|
E|------------------------|------------------------|-------------|--------|--------|


E|--------|-------------|--------|--------|--------|-------------|-------------|-------------|
B|--------|-------------|--------|--------|--------|-------------|-------------|-------------|
G|--------|-------------|--------|--------|--------|-------------|-------------|-------------|
D|--------|-------------|--------|--------|--------|-------------|-------------|-------------|
A|-2------|-------------|-2------|-1------|-2------|-------------|-------------|-------------|
E|--------|-------------|--------|--------|--------|-------------|-------------|-------------|


E|-------------|-------------|-------------|-------------|-------------|-------------|
B|-------------|-------------|-------------|-------------|-------------|-------------|
G|-------------|-------------|-------------|-------------|-------------|-------------|
D|-------------|-------------|-------------|-------------|-------------|-------------|
A|-------------|-------------|-------------|-------------|-------------|-------------|
E|-------------|-------------|-------------|-------------|-------------|-------------|


E|-------------|-------------|-------------|-------------|-------------|-------------|
B|-------------|-------------|-------------|-------------|-------------|-------------|
G|-------------|-------------|-------------|-------------|-------------|-------------|
D|-------------|-------------|-------------|-------------|-------------|-------------|
A|-------------|-------------|-------------|-------------|-------------|-------------|
E|-------------|-------------|-------------|-------------|-------------|-------------|


E|-------------|-------------|-------------|-------------|-------------|-------------|
B|-------------|-------------|-------------|-------------|-------------|-------------|
G|-------------|-------------|-------------|-------------|-------------|-------------|
D|-------------|-------------|-------------|-------------|-------------|-------------|
A|-------------|-------------|-------------|-------------|-------------|-------------|
E|-------------|-------------|-------------|-------------|-------------|-------------|


E|-------------|-------------|-------------|-------------|-------------|-------------|
B|-------------|-------------|-------------|-------------|-------------|-------------|
G|-------------|-------------|-------------|-------------|-------------|-------------|
D|-------------|-------------|-------------|-------------|-------------|-------------|
A|-------------|-------------|-------------|-------------|-------------|-------------|
E|-------------|-------------|-------------|-------------|-------------|-------------|


E|-------------|-------------|-------------|-------------|-------------|-------------|
B|-------------|-------------|-------------|-------------|-------------|-------------|
G|-------------|-------------|-------------|-------------|-------------|-------------|
D|-------------|-------------|-------------|-------------|-------------|-------------|
A|-------------|-------------|-------------|-------------|-------------|-------------|
E|-------------|-------------|-------------|-------------|-------------|-------------|


E|--------|--------|--------|--------|--------|--------|--------|--------|--------|
B|--------|--------|--------|--------|-3------|-1------|-6------|-6------|-3------|
G|-7------|-6------|-7------|-7------|-5------|-3------|-7------|-7------|-5------|
D|-7------|-8------|-7------|-7------|-5------|-3------|-7------|-7------|-5------|
A|-5------|-8------|-5------|-5------|-3------|-1------|-5------|-5------|-3------|
E|-5------|-6------|-5------|-5------|--------|--------|-5------|-5------|--------|


E|--------|--------|--------|--------|--------|--------|--------|--------|--------|
B|-1------|-6------|-6------|-3------|-1------|-6------|-6------|-3------|-1------|
G|-3------|-7------|-7------|-5------|-3------|-7------|-7------|-5------|-3------|
D|-3------|-7------|-7------|-5------|-3------|-7------|-7------|-5------|-3------|
A|-1------|-5------|-5------|-3------|-1------|-5------|-5------|-3------|-1------|
E|--------|-5------|-5------|--------|--------|-5------|-5------|--------|--------|


E|--------|--------|--------|--------|--------|--------|-------------|-------------|
B|-6------|-6------|-3------|-1------|-6------|-6------|-------------|-------------|
G|-7------|-7------|-5------|-3------|-7------|-7------|-------------|-------------|
D|-7------|-7------|-5------|-3------|-7------|-7------|-------------|-------------|
A|-5------|-5------|-3------|-1------|-5------|-5------|-------------|-------------|
E|-5------|-5------|--------|--------|-5------|-5------|-------------|-------------|


E|-------------|-------------|-------------|-------------|-------------|-------------|
B|-------------|-------------|-------------|-------------|-------------|-------------|
G|-------------|-------------|-------------|-------------|-------------|-------------|
D|-------------|-------------|-------------|-------------|-------------|-------------|
A|-------------|-------------|-------------|-------------|-------------|-------------|
E|-------------|-------------|-------------|-------------|-------------|-------------|


E|-------------|-------------|-------------|-------------|-------------|-------------|
B|-------------|-------------|-------------|-------------|-------------|-------------|
G|-------------|-------------|-------------|-------------|-------------|-------------|
D|-------------|-------------|-------------|-------------|-------------|-------------|
A|-------------|-------------|-------------|-------------|-------------|-------------|
E|-------------|-------------|-------------|-------------|-------------|-------------|


E|-------------|-------------|--------|--------|--------|--------|--------|--------|
B|-------------|-------------|-3------|-1------|-6------|-6------|-3------|-1------|
G|-------------|-------------|-5------|-3------|-7------|-7------|-5------|-3------|
D|-------------|-------------|-5------|-3------|-7------|-7------|-5------|-3------|
A|-------------|-------------|-3------|-1------|-5------|-5------|-3------|-1------|
E|-------------|-------------|--------|--------|-5------|-5------|--------|--------|


E|--------|--------|--------|--------|--------|--------|--------|--------|--------|
B|-6------|-6------|-3------|-1------|-6------|-6------|-3------|-1------|-6------|
G|-7------|-7------|-5------|-3------|-7------|-7------|-5------|-3------|-7------|
D|-7------|-7------|-5------|-3------|-7------|-7------|-5------|-3------|-7------|
A|-5------|-5------|-3------|-1------|-5------|-5------|-3------|-1------|-5------|
E|-5------|-5------|--------|--------|-5------|-5------|--------|--------|-5------|


E|--------|-------------|-------------|-------------|-------------|-------------|-------------|
B|-6------|-------------|-------------|-------------|-------------|-------------|-------------|
G|-7------|-------------|-------------|-------------|-------------|-------------|-------------|
D|-7------|-------------|-------------|-------------|-------------|-------------|-------------|
A|-5------|-------------|-------------|-------------|-------------|-------------|-------------|
E|-5------|-------------|-------------|-------------|-------------|-------------|-------------|


E|-------------|-------------|-------------|-------------|-------------|-------------|
B|-------------|-------------|-------------|-------------|-------------|-------------|
G|-------------|-------------|-------------|-------------|-------------|-------------|
D|-------------|-------------|-------------|-------------|-------------|-------------|
A|-------------|-------------|-------------|-------------|-------------|-------------|
E|-------------|-------------|-------------|-------------|-------------|-------------|


E|-------------|-------------|-------------|-------------|-------------|-------------|
B|-------------|-------------|-------------|-------------|-------------|-------------|
G|-------------|-------------|-------------|-------------|-------------|-------------|
D|-------------|-------------|-------------|-------------|-------------|-------------|
A|-------------|-------------|-------------|-------------|-------------|-------------|
E|-------------|-------------|-------------|-------------|-------------|-------------|


E|-------------|-------------|-------------|-------------|-------------|-------------|
B|-------------|-------------|-------------|-------------|-------------|-------------|
G|-------------|-------------|-------------|-------------|-------------|-------------|
D|-------------|-------------|-------------|-------------|-------------|-------------|
A|-------------|-------------|-------------|-------------|-------------|-------------|
E|-------------|-------------|-------------|-------------|-------------|-------------|


E|-------------|-------------|-------------|-------------|-------------|-------------|
B|-------------|-------------|-------------|-------------|-------------|-------------|
G|-------------|-------------|-------------|-------------|-------------|-------------|
D|-------------|-------------|-------------|-------------|-------------|-------------|
A|-------------|-------------|-------------|-------------|-------------|-------------|
E|-------------|-------------|-------------|-------------|-------------|-------------|


E|-------------|-------------|-------------|-------------|-------------|-------------|
B|-------------|-------------|-------------|-------------|-------------|-------------|
G|-------------|-------------|-------------|-------------|-------------|-------------|
D|-------------|-------------|-------------|-------------|-------------|-------------|
A|-------------|-------------|-------------|-------------|-------------|-------------|
E|-------------|-------------|-------------|-------------|-------------|-------------|


E|-------------|-------------|-------------|-------------|-------------|-------------|
B|-------------|-------------|-------------|-------------|-------------|-------------|
G|-------------|-------------|-------------|-------------|-------------|-------------|
D|-------------|-------------|-------------|-------------|-------------|-------------|
A|-------------|-------------|-------------|-------------|-------------|-------------|
E|-------------|-------------|-------------|-------------|-------------|-------------|


E|-------------|-------------|-------------|-------------|-------------|-------------|
B|-------------|-------------|-------------|-------------|-------------|-------------|
G|-------------|-------------|-------------|-------------|-------------|-------------|
D|-------------|-------------|-------------|-------------|-------------|-------------|
A|-------------|-------------|-------------|-------------|-------------|-------------|
E|-------------|-------------|-------------|-------------|-------------|-------------|


E|-------------|-------------|-------------|-------------|-------------|-------------|
B|-------------|-------------|-------------|-------------|-------------|-------------|
G|-------------|-------------|-------------|-------------|-------------|-------------|
D|-------------|-------------|-------------|-------------|-------------|-------------|
A|-------------|-------------|-------------|-------------|-------------|-------------|
E|-------------|-------------|-------------|-------------|-------------|-------------|


E|-------------|
B|-------------|
G|-------------|
D|-------------|
A|-------------|
E|-------------|









Track 5: Faust
Back to top
C|-------------|-------------|-------------|-------------|-------------|-------------|
C|-------------|-------------|-------------|-------------|-------------|-------------|
C|-------------|-------------|-------------|-------------|-------------|-------------|
C|-------------|-------------|-------------|-------------|-------------|-------------|
C|-------------|-------------|-------------|-------------|-------------|-------------|
C|-------------|-------------|-------------|-------------|-------------|-------------|


C|-------------|-------------|-------------------------------------------------|-------------------------------------------------|
C|-------------|-------------|-49----------------------------------------------|-------------------------------------------------|
C|-------------|-------------|-------46----------46----------46----------46----|-------46----------46----------46----------46----|
C|-------------|-------------|-------38----------38----------38----------38----|-------38----------38----------38----------38----|
C|-------------|-------------|-------------------------------------------------|-------------------------------------------------|
C|-------------|-------------|-36-36-36-36-36-36-36-36-36-36-36-36-36-36-36-36-|-36-36-36-36-36-36-36-36-36-36-36-36-36-36-36-36-|


C|-------------------------------------------------|-----------------------------------------|
C|-49----------------------------------------------|-----------------------------------------|
C|-------46----------46----------46----------46----|-----------------------------------------|
C|-------38----------38----------38----------38----|-------38--47-45-------38--------38--38--|
C|-------------------------------------------------|---------------------------47-45---------|
C|-36-36-36-36-36-36-36-36-36-36-36-36-36-36-36-36-|-36-36-----------36-36-------------------|


C|-------------------------------------------------|-------------------------------------------------|
C|-49----------------------------------------------|-------------------------------------------------|
C|-------46----------46----------46----------46----|-------46----------46----------46----------46----|
C|-------38----------38----------38----------38----|-------38----------38----------38----------38----|
C|-------------------------------------------------|-------------------------------------------------|
C|-36-36-36-36-36-36-36-36-36-36-36-36-36-36-36-36-|-36-36-36-36-36-36-36-36-36-36-36-36-36-36-36-36-|


C|-------------------------------------------------|---------------------------------------------|
C|-49----------------------------------------------|---------------------------------------------|
C|-------46----------46----------46----------46----|---------------------------------------------|
C|-------38----------38----------38----------38----|-------48-47-43-45-38-47-45-43-41-41-45--45--|
C|-------------------------------------------------|---------------------------------------------|
C|-36-36-36-36-36-36-36-36-36-36-36-36-36-36-36-36-|-36-36---------------------------------------|


C|-------------------------------------------------|-------------------------------------------------|
C|-49----------------------------------------------|-------------------------------------------------|
C|-------46----------46----------46----------46----|-------46----------46----------46----------46----|
C|-------38----------38----------38----------38----|-------38----------38----------38----------38----|
C|-------------------------------------------------|-------------------------------------------------|
C|-36-36-36-36-36-36-36-36-36-36-36-36-36-36-36-36-|-36-36-36-36-36-36-36-36-36-36-36-36-36-36-36-36-|


C|-------------------------------------------------|-----------------------------------------|
C|-49----------------------------------------------|-----------------------------------------|
C|-------46----------46----------46----------46----|-----------------------------------------|
C|-------38----------38----------38----------38----|-------38--47-45-------38--------38--38--|
C|-------------------------------------------------|---------------------------47-45---------|
C|-36-36-36-36-36-36-36-36-36-36-36-36-36-36-36-36-|-36-36-----------36-36-------------------|


C|-------------------------------------------------|-------------------------------------------------|
C|-49----------------------------------------------|-------------------------------------------------|
C|-------46----------46----------46----------46----|-------46----------46----------46----------46----|
C|-------38----------38----------38----------38----|-------38----------38----------38----------38----|
C|-------------------------------------------------|-------------------------------------------------|
C|-36-36-36-36-36-36-36-36-36-36-36-36-36-36-36-36-|-36-36-36-36-36-36-36-36-36-36-36-36-36-36-36-36-|


C|-------------------------------------------------|---------------------------------------------|
C|-49----------------------------------------------|---------------------------------------------|
C|-------46----------46----------46----------46----|---------------------------------------------|
C|-------38----------38----------38----------38----|-------48-47-43-45-38-47-45-43-41-41-45--45--|
C|-------------------------------------------------|---------------------------------------------|
C|-36-36-36-36-36-36-36-36-36-36-36-36-36-36-36-36-|-36-36---------------------------------------|


C|--------|-------------|-------------|-------------|--------|--------|------------------------|
C|-55-----|-------------|-------------|-------------|-49-----|-49-----|-49--49-----------------|
C|--------|-------------|-------------|-------------|--------|--------|------------------------|
C|--------|-------------|-------------|-------------|--------|--------|------------------------|
C|--------|-------------|-------------|-------------|--------|--------|------------------------|
C|--------|-------------|-------------|-------------|-36-----|-36-----|-36--36-----------------|


C|---------------------|--------|--------|------------------------|------------------------------------------|
C|-49---49---49---49---|-49-----|-49-----|-49--49-----------------|-------------------------------------49---|
C|---------------------|--------|--------|------------------------|------------------------------------------|
C|---------------------|--------|--------|------------------------|-45-45-------43-43------------------------|
C|---------------------|--------|--------|------------------------|-------41-41-------41-41-41-41-41-41------|
C|-36---36---36---36---|-36-----|-36-----|-36--36-----------------|------------------------------------------|


C|-------------------------------------------------|-------------------------------------------------|
C|-49----------------------------------------------|-------------------------------------------------|
C|-------46----------46----------46----------46----|-------46----------46----------46----------46----|
C|-------38----------38----------38----------38----|-------38----------38----------38----------38----|
C|-------------------------------------------------|-------------------------------------------------|
C|-36-36-36-36-36-36-36-36-36-36-36-36-36-36-36-36-|-36-36-36-36-36-36-36-36-36-36-36-36-36-36-36-36-|


C|-------------------------------------------------|-------------------------------------------------|
C|-49----------------------------------------------|-49----------49----------49----------49----------|
C|-------46----------46----------46----------46----|-------------------------------------------------|
C|-------38----------38----------38----------38----|----38-38-38----38-38-38----38-38-38-38-38-38-38-|
C|-------------------------------------------------|-------------------------------------------------|
C|-36-36-36-36-36-36-36-36-36-36-36-36-36-36-36-36-|-36----------36----------36----------------------|


C|-------------------------------------------------|-------------------------------------------------|
C|-49----------------------------------------------|-------------------------------------------------|
C|-------46----------46----------46----------46----|-------46----------46----------46----------46----|
C|-------38----------38----------38----------38----|-------38----------38----------38----------38----|
C|-------------------------------------------------|-------------------------------------------------|
C|-36-36-36-36-36-36-36-36-36-36-36-36-36-36-36-36-|-36-36-36-36-36-36-36-36-36-36-36-36-36-36-36-36-|


C|-------------------------------------------------|-------------------------------------------------|
C|-49----------------------------------------------|-------------------------------------------------|
C|-------46----------46----------46----------46----|-47-45-43-41-------------------------------------|
C|-------38----------38----------38----------38----|-------------45-43-43-41-43-43-41-41-------------|
C|-------------------------------------------------|-------------------------------------36-36-36-36-|
C|-36-36-36-36-36-36-36-36-36-36-36-36-36-36-36-36-|-36----------36----------36----------------------|


C|-------------------------------------------------|-------------------------------------------------|
C|-------------------------------------------------|-------------------------------------------------|
C|-------46----------46----------46----------46----|-------46----------46----------46----------46----|
C|-------38----------38----------38----------38----|-------38----------38----------38----------38----|
C|-------------------------------------------------|-------------------------------------------------|
C|-36-36-36-36-36-36-36-36-36-36-36-36-36-36-36-36-|-36-36-36-36-36-36-36-36-36-36-36-36-36-36-36-36-|


C|-------------------------------------------------|-----------------------------------------|
C|-------------------------------------------------|-----------------------------------------|
C|-------46----------46----------46----------46----|-----------------------------------------|
C|-------38----------38----------38----------38----|-------38--47-45-------38--------38--38--|
C|-------------------------------------------------|---------------------------47-45---------|
C|-36-36-36-36-36-36-36-36-36-36-36-36-36-36-36-36-|-36-36-----------36-36-------------------|


C|-------------------------------------------------|-------------------------------------------------|
C|-49----------------------------------------------|-------------------------------------------------|
C|-------46----------46----------46----------46----|-------46----------46----------46----------46----|
C|-------38----------38----------38----------38----|-------38----------38----------38----------38----|
C|-------------------------------------------------|-------------------------------------------------|
C|-36-36-36-36-36-36-36-36-36-36-36-36-36-36-36-36-|-36-36-36-36-36-36-36-36-36-36-36-36-36-36-36-36-|


C|-------------------------------------------------|---------------------------------------------|
C|-49----------------------------------------------|---------------------------------------------|
C|-------46----------46----------46----------46----|---------------------------------------------|
C|-------38----------38----------38----------38----|-------48-47-43-45-38-47-45-43-41-41-45--45--|
C|-------------------------------------------------|---------------------------------------------|
C|-36-36-36-36-36-36-36-36-36-36-36-36-36-36-36-36-|-36-36---------------------------------------|


C|-------------------------------------------------|-------------------------------------------------|
C|-49----------------------------------------------|-------------------------------------------------|
C|-------46----------46----------46----------46----|-------46----------46----------46----------46----|
C|-------38----------38----------38----------38----|-------38----------38----------38----------38----|
C|-------------------------------------------------|-------------------------------------------------|
C|-36-36-36-36-36-36-36-36-36-36-36-36-36-36-36-36-|-36-36-36-36-36-36-36-36-36-36-36-36-36-36-36-36-|


C|-------------------------------------------------|-----------------------------------------|
C|-49----------------------------------------------|-----------------------------------------|
C|-------46----------46----------46----------46----|-----------------------------------------|
C|-------38----------38----------38----------38----|-------38--47-45-------38--------38--38--|
C|-------------------------------------------------|---------------------------47-45---------|
C|-36-36-36-36-36-36-36-36-36-36-36-36-36-36-36-36-|-36-36-----------36-36-------------------|


C|-------------------------------------------------|-------------------------------------------------|
C|-49----------------------------------------------|-------------------------------------------------|
C|-------46----------46----------46----------46----|-------46----------46----------46----------46----|
C|-------38----------38----------38----------38----|-------38----------38----------38----------38----|
C|-------------------------------------------------|-------------------------------------------------|
C|-36-36-36-36-36-36-36-36-36-36-36-36-36-36-36-36-|-36-36-36-36-36-36-36-36-36-36-36-36-36-36-36-36-|


C|-------------------------------------------------|-------------------------------------------|
C|-49----------------------------------------------|-49----------------------------------------|
C|-------46----------46----------46----------46----|-------------------------------------------|
C|-------38----------38----------38----------38----|-----48-47-43-45-38-47-45-43-41-41-45--45--|
C|-------------------------------------------------|-------------------------------------------|
C|-36-36-36-36-36-36-36-36-36-36-36-36-36-36-36-36-|-36----------------------------------------|


C|-------------------------------------------------|-------------------------------------------------|
C|-49----------------------------------------------|-------------------------------------------------|
C|-------46----------46----------46----------46----|-------46----------46----------46----------46----|
C|-------38----------38----------38----------38----|-------38----------38----------38----------38----|
C|-------------------------------------------------|-------------------------------------------------|
C|-36-36-36-36-36-36-36-36-36-36-36-36-36-36-36-36-|-36-36-36-36-36-36-36-36-36-36-36-36-36-36-36-36-|


C|-------------------------------------------------|-------------------------------------------------|
C|-49----------------------------------------------|-------------------------------------------------|
C|-------46----------46----------46----------46----|-47-45-43-41-------------------------------------|
C|-------38----------38----------38----------38----|-------------45-43-43-41-43-43-41-41-------------|
C|-------------------------------------------------|-------------------------------------43-41-43-41-|
C|-36-36-36-36-36-36-36-36-36-36-36-36-36-36-36-36-|-36----------36----------36----------------------|


C|-------------------------------------------------|-------------------------------------------------|
C|-49----------------------------------------------|-49----------------------------------------------|
C|-------46----------46----------46----------46----|-------46----------46----------46----------46----|
C|-------38----------38----------38----------38----|-------38----------38----------38----------38----|
C|-------------------------------------------------|-------------------------------------------------|
C|-36-36-36-36-36-36-36-36-36-36-36-36-36-36-36-36-|-36-36-36-36-36-36-36-36-36-36-36-36-36-36-36-36-|


C|-------------------------------------------------|------------------------------------------|
C|-49----------------------------------------------|------------------------------------------|
C|-------46----------46----------46----------46----|-47-45-43-41------------------------------|
C|-------38----------38----------38----------38----|-------------45-43-43-41-43-43-41-41------|
C|-------------------------------------------------|-------------------------------------36---|
C|-36-36-36-36-36-36-36-36-36-36-36-36-36-36-36-36-|-36----------36----------36---------------|


C|-------------------------------------------------|---------------------------------------|
C|-49----------------------------------------------|---------------------------------------|
C|-------46----------46----------46----------46----|-------46--------46------46--------46--|
C|-------38----------38----------38----------38----|-------38--47-45-----38--------38--38--|
C|-------------------------------------------------|-------------------------47-45---------|
C|-36-36-36-36-36-36-36-36-36-36-36-36-36-36-36-36-|-36-36-----------36--------------------|


C|-------------------------------------------------|-------------------------------------------------|
C|-49----------------------------------------------|-49----------49----------49----------49----------|
C|-------46----------46----------46----------46----|-------------------------------------------------|
C|-------38----------38----------38----------38----|----38-38-38----38-38-38----38-38-38-38-38-38-38-|
C|-------------------------------------------------|-------------------------------------------------|
C|-36-36-36-36-36-36-36-36-36-36-36-36-36-36-36-36-|-36----------36----------36----------------------|


C|-------------------------------------------------|---------------------------------------|
C|-49----------------------------------------------|----49---------------49----------------|
C|-------46----------46----------46----------46----|-------46--------46------46--------46--|
C|-------38----------38----------38----------38----|-------38--47-45-----38--------38--38--|
C|-------------------------------------------------|-------------------------47-45---------|
C|-36-36-36-36-36-36-36-36-36-36-36-36-36-36-36-36-|-36-36-----------36--------------------|


C|-------------------------------------------------|-------------------------------------------------|
C|-49----------------------------------------------|-------------------------------------------------|
C|-------46----------46----------46----------46----|-47-45-43-41-------------------------------------|
C|-------38----------38----------38----------38----|-------------45-43-43-41-43-43-41-41-------------|
C|-------------------------------------------------|-------------------------------------43-41-43-41-|
C|-36-36-36-36-36-36-36-36-36-36-36-36-36-36-36-36-|-36----------36----------36----------------------|


C|--------|--------------------|--------|---------------------------------------------|
C|-49-----|--------------------|--------|-49------------------------------------------|
C|--------|-----------45---45--|-45-----|---------------------------------------------|
C|--------|--------------------|--------|-----484847-48--474745-47--454543-45--434341-|
C|--------|--------------------|--------|---------------------------------------------|
C|--------|--------------------|--------|---------------------------------------------|


C|-------------------------------------------------|-------------------------------------------------|
C|-49----------------------------------------------|-------------------------------------------------|
C|-------------------------------------------------|-------------------------------------------------|
C|-------------38----------------------38----------|-------------38----------------------38------38--|
C|---------46--46--46--46--46--46--46--46--46--46--|-46--46--46--46--46--46--46--46--46--46--46--46--|
C|---------36--36--36--36--36--36--36------36--36--|-36--36--36--36--36--36--36--36--36------36--36--|


C|-------------------------------------------------|-------------------------------------------------|
C|-------------------------------------------------|-------------------------------------------------|
C|-------------------------------------------------|-------------------------------------------------|
C|-------------38----------------------38----------|-------------38----------------------38------38--|
C|-46--46--46--46--46--46--46--46--46--46--46--46--|-46--46--46--46--46--46--46--46--46--46--46--46--|
C|-36--36--36--36--36--36--36--36--36------36--36--|-36--36--36--36--36--36--36--36--36------36--36--|


C|-------------------------------------------------|-------------------------------------------------|
C|-49----------------------------------------------|---------------------------------------------49--|
C|-------------------------------------------------|-------------------------------------------------|
C|-------------38----------------------38----------|-------------38------------------------------38--|
C|-46--46--46--46--46--46--46--46--46--46--46--46--|-46--46--46--46--46--46--46--46--46--46--46--46--|
C|-36--36--36--36--36--36--36--36--36------36--36--|-36--36--36--36--36--36--36--36--36--36--36--36--|


C|-------------------------------------------------|-------------------------------------------------|
C|-49----------------------------------------------|-------------------------------------------------|
C|-------------------------------------------------|-------------------------------------------------|
C|-------------38----------------------38----------|-------------38----------------------38------38--|
C|-46--46--46--46--46--46--46--46--46--46--46--46--|-46--46--46--46--46--46--46--46--46--46--46--46--|
C|-36--36--36--36--36--36--36--36--36------36--36--|-36--36--36--36--36--36--36--36--36------36--36--|


C|-------------------------------------------------|-------------------------------------------------|
C|-49----------------------------------------------|-------------55----------55------55------55------|
C|-------------------------------------------------|-------------------------------------------------|
C|-------------38----------------------38----------|-------------38----------------------38----------|
C|-46--46--46--46--46--46--46--46--46--46--46--46--|-46--46--46--46--46--46--46--46--46--46--46--46--|
C|-36--36--36--36--36--36--36--36--36------36--36--|-36--36--36--36--36--36--36--36--36------36--36--|


C|-------------------------------------------------|-------------------------------------------------|
C|-49----------------------------------------------|-------------------------------------------------|
C|-------------------------------------------------|-------------------------------------------------|
C|-------------38----------------------38----------|-------------38----------------------38------38--|
C|-46--46--46--46--46--46--46--46--46--46--46--46--|-46--46--46--46--46--46--46--46--46--46--46--46--|
C|-36--36--36--36--36--36--36--36--36------36--36--|-36--36--36--36--36--36--36--36--36------36--36--|


C|-------------------------------------------------|-------------------------------------------------|
C|-49----------------------------------------------|-------------------------------------------------|
C|-------------------------------------------------|-------------------------------------------------|
C|-------------38----------------------38----------|-------------38----------------------38------38--|
C|-46--46--46--46--46--46--46--46--46--46--46--46--|-46--46--46--46--46--46--46--46--46--46--46--46--|
C|-36--36--36--36--36--36--36--36--36------36--36--|-36--36--36--36--36--36--36--36--36------36--36--|


C|-------------------------------------------------|-------------------------------------------------|
C|-49----------------------------------------------|-------------------------------------------------|
C|-------------------------------------------------|-------------------------------------------------|
C|-------------38----------------------38----------|-------------38----------------------38------38--|
C|-46--46--46--46--46--46--46--46--46--46--46--46--|-46--46--46--46--46--46--46--46--46--46--46--46--|
C|-36--36--36--36--36--36--36--36--36------36--36--|-36--36--36--36--36--36--36--36--36------36--36--|


C|-------------------------------------------------|-------------------------------------------------|
C|-49----------------------------------------------|-------------------------------------------------|
C|-------------------------------------------------|-------------------------------------------------|
C|-------------38----------------------38----------|-------------38------------------------------38--|
C|-46--46--46--46--46--46--46--46--46--46--46--46--|-46--46--46--46--46--46--46--46--46--46--46--46--|
C|-36--36--36--36--36--36--36--36--36------36--36--|-36--36--36--36--36--36--36--36--36--36--36--36--|


C|-------------------------------------------------|--------------------------------------------|
C|-49----------------------------------------------|--------------------------------------------|
C|-------------------------------------------------|---------55--49-----------------------------|
C|-------------38----------------------38----------|-------------38-4545454343-41--43--41--49---|
C|-46--46--46--46--46--46--46--46--46--46--46--46--|-46--46--46---------------------------------|
C|-36--36--36--36--36--36--36--36--36------36--36--|-36--36--36--36-----------------------------|


C|-------------------------------------------------|-------------------------------------------------|
C|-55----------------------------------------------|-------------------------------------------------|
C|-------------------------------------------------|-------------------------------------------------|
C|-------------38----------------------38----------|-------------38----------------------38--55--49--|
C|-46--46--46--46--46--46--46--46--46--46--46--46--|-46--46--46--46--46--46--46--46--46--46--46--46--|
C|-36--36--36--36--36--36--36--36--36------36--36--|-36--36--36--36--36--36--36--36--36------36--36--|


C|-------------------------------------------------|-----------------------------------------------------|
C|-49----------------------------------------------|-----------------------------------------------------|
C|-------------------------------------------------|-----------------------------------------------------|
C|-------------38----------------------38----------|-------------38----------------------38--38-38-38-38-|
C|-46--46--46--46--46--46--46--46--46--46------46--|-46--46--46--46--46--46--46--46--46--46--------------|
C|-36--36--36--36--36--36--36--36--36------36--36--|-36--36--36--36--36--36--36--36--36------------------|


C|-------------------------------------------------|-------------------------------------------------|
C|-49----------------------------------------------|-------------------------------------------------|
C|-------------------------------------------------|-------------------------------------------------|
C|-------------38----------------------38----------|-------------38----------------------38------38--|
C|-46--46--46--46--46--46--46--46--46--46--46--46--|-46--46--46--46--46--46--46--46--46--46--46--46--|
C|-36--36--36--36--36--36--36--36--36------36--36--|-36--36--36--36--36--36--36--36--36------36--36--|


C|-------------------------------------------------|---------------------------------------------------------------|
C|-49----------------------------------------------|---------------------------------------------------------------|
C|-------------------------------------------------|--------------------49-----------------------------------------|
C|-------------38----------------------38----------|-------------38------------------------------------------------|
C|-46--46--46--46--46--46--46--46--46--46--46--46--|-46--46--46--46--47-45-47--38-47-47-45-47-45-38-43-45-43-43-41-|
C|-36--36--36--36--36--36--36--36--36------36--36--|-36--36--36--36--------36--------------------------------------|


C|-------------------------------------------------|-------------------------------------------------|
C|-49----------------------------------------------|-------------------------------------------------|
C|-------------------------------------------------|-------------------------49------49------49------|
C|-------------38----------38----------38----------|-38----------38----------38------38------38------|
C|-46--46--46--46--46--46--46--46--46--46--46--46--|-46--46--46--46--46--46------46------46------46--|
C|-36--36--36--36--36--36--36--36--36------36--36--|-36--36--36--36--36--36--36--36--36------36--36--|


C|-------------------------------------------------|-------------------------------------------------|
C|-49----------------------------------------------|-------------------------------------49----------|
C|-------------------------------------------------|-------------------------------------------------|
C|-38----------38----------38----------38----------|-38----------38----------38------38--38------38--|
C|-----46--46--46--46--46--46--46--46--46--46--46--|-46--46--46--46--46--46--46--46--46--46--46--46--|
C|-36--36--36--36--36--36--36--36--36------36--36--|-36--36--36--36--36--36--36--36--36------36--36--|


C|-------------------------------------------------|-------------------------------------------------|
C|-49----------------------------------------------|-------------------------------------------------|
C|-------------------------------------------------|-------------------------------------------------|
C|-38----------38----------38----------38----------|-38----------38----------38------38--38------38--|
C|-----46--46--46--46--46--46--46--46--46--46--46--|-46--46--46--46--46--46--46--46--46--46--46--46--|
C|-36--36--36--36--36--36--36--36--36------36--36--|-36--36--36--36--36--36--36--36--36------36--36--|


C|-------------------------------------------------|-------------------------------------------------------|
C|-49----------------------------------------------|-------------------------------------------------------|
C|-------------------------------------------------|-------------------------------------------------------|
C|-38----------38----------38----------38----------|-38----------38----------45--43-43-45-45-43--43-41-41--|
C|-----46--46--46--46--46--46--46--46--46--46--46--|-46--46--46--46--46--46--------------------------------|
C|-36--36--36--36--36--36--36--36--36------36--36--|-36--36--36--36--36--36--------------------------------|


C|-------------------------------------------------|-------------------------------------------------|
C|-49----------------------------------------------|-------------------------------------------------|
C|-------------------------------------------------|-------------------------------------------------|
C|-------------38----------------------38----------|-------------38----------------------38------38--|
C|-46--46--46--46--46--46--46--46--46--46--46--46--|-46--46--46--46--46--46--46--46--46--46--46--46--|
C|-36--36--36--36--36--36--36--36--36------36--36--|-36--36--36--36--36--36--36--36--36--36--36--36--|


C|-------------------------------------------------|-----------------------------------------------------|
C|-49----------------------------------------------|-------------55----------55------55--55--------------|
C|-------------------------------------------------|-----------------------------------------------------|
C|-------------38----------------------38----------|-------------38----------------------38--38-38-38-38-|
C|-46--46--46--46--46--46--46--46--46--46--46--46--|-46--46--46--46--46--46--46--46--46--46--------------|
C|-36--36--36--36--36--36--36--36--36------36--36--|-36--36--36--36--36--36--36--36--36------------------|


C|-------------------------------------------------|-------------------------------------------------|
C|-49----------------------------------------------|-------------------------------------------------|
C|-------------------------------------------------|---------------------------------------------49--|
C|-------------38----------------------38----------|-------------38------------------------------38--|
C|-46--46--46--46--46--46--46--46--46--46--46--46--|-46--46--46--46--46--46--46--46--46--46--46------|
C|-36--36--36--36--36--36--36--36--36------36--36--|-36--36--36--36--36--36--36--36--36--36--36--36--|


C|-------------------------------------------------|-------------------------------------------------|
C|-49----------------------------------------------|-------------------------------------------------|
C|-------------------------------------------------|-------------------------49----------49----------|
C|-------------38----------------------38----------|-------------38----------38----------38----------|
C|-46--46--46--46--46--46--46--46--46--46--46--46--|-46--46--46--46--46--46------46--46------46--46--|
C|-36--36--36--36--36--36--36--36--36------36--36--|-36--36--36--36--36--36------36--36------36--36--|


C|-------------------------------------------------|-------------------------------------------------|
C|-49----------------------------------------------|-------------------------------------------------|
C|-------------------------------------------------|-------------------------------------------------|
C|-------------38----------------------38----------|-------------38----------------------38------38--|
C|-46--46--46--46--46--46--46--46--46--46--46--46--|-46--46--46--46--46--46--46--46------46--46--46--|
C|-36--36--36--36--36--36--36--36--36------36--36--|-36--36--36--36--36--36--36--36--36--36--36--36--|


C|-------------------------------------------------|-------------------------------------------------|
C|-49----------------------------------------------|-------------------------------------------------|
C|-------------------------------------------------|-------------------------------------------------|
C|-------------38----------------------38----------|-------------38----------------------38----------|
C|-46--46--46--46--46--46--46--46--46--46--46--46--|-46--46--46--46--46--46--46--46--46--46--46--46--|
C|-36--36--36--36--36--36--36--36--36------36--36--|-36--36--36--36--36--36--36--36--36--36--36--36--|


C|-------------------------------------------------|-------------------------------------------------|
C|-49----------------------------------------------|-------------------------------------------------|
C|-------------------------------------------------|-------------------------------------------------|
C|-------------38----------------------38----------|-------------38----------------------38------38--|
C|-46--46--46--46--46--46--46--46--46--46--46--46--|-46--46--46--46--46--46--46--46--46--46------46--|
C|-36--36--36--36--36--36--36--36--36------36--36--|-36--36--36--36--36--36--36--36--36--36--36--36--|


C|-------------------------------------------------|-------------------------------------------------|
C|-49----------------------------------------------|-------------------------------------------------|
C|-------------------------------------------------|-------------------------49----------49----------|
C|-------------38----------------------38----------|-------------38----------38----------38----------|
C|-46--46--46--46--46--46--46--46--46--46--46--46--|-46--46--46--46--46--46------46--46------46--46--|
C|-36--36--36--36--36--36--36--36--36------36--36--|-36--36--36--36--36--36--36--36--36------36--36--|


C|-------------|------------------------------|------------------------------------|
C|-------------|------------------------------|------------------------------------|
C|-------------|--------------------------57--|-49---------------------------------|
C|-------------|------------------------------|-38--------------38------38-----4747|
C|-------------|------38--36--38--45--38--43--|-46--46--46--46--46--46--46--46-----|
C|-------------|--------------36--36--36--36--|------------------------------------|


C|---------------------------------------|---------------------------------|---------------------------------------|
C|---------------------------------------|---------------------------------|---------------------------------------|
C|-4745-45-45-45-----------------57------|-49------------------------------|---------------------------------------|
C|---------------43---43-45---43-45--49--|-38--------------38--------------|---------------------38--------38--57--|
C|-----------------------------------38--|-----46--46--46--46--46--46--46--|-46--46--46----454545------------------|
C|---------------------------------------|-36----------36--------------36--|-36------36--45----------36-36---------|


C|------------------------------------|--------------------------------------|---------------------------------|
C|------------------------------------|--------------------------------------|---------------------------------|
C|-49---------------------------------|---------------------------------57---|-49------------------------------|
C|-38--------------38---------38------|---------38------------4747------38---|-38--------------38--------------|
C|-----46--46--46--46--46-454546--46--|-46--46--46--46--454545----45454543---|-----46--46--46--46--46--46--46--|
C|-36----------36---------------------|--------------------------------------|-36----------36--------------36--|


C|-------------------------------------|------------------------------------|-----------------------------------------|
C|-------------------------------------|------------------------------------|-----------------------------------------|
C|-------------------------------------|-49---------------------------------|---------------------------------57------|
C|---------------------38------38--57--|-38--------------38---------38------|---------38------------4747------38------|
C|-46--46--46----454545----------------|-----46--46--46--46--46-454546--46--|-46--46--46--46--454545----45454543------|
C|-36------36--45----------36----------|-36----------36---------------------|---------------------------------36--36--|


C|---------------------------------|-------------------------------------|---------------------------------|
C|---------------------------------|-------------------------------------|---------------------------------|
C|-49------------------------------|-------------------------------------|-49------------------------------|
C|-38--------------38--------------|---------------------38------38--57--|-38--------------38----------38--|
C|-----46--46--46--46--46--46--46--|-46--46--46----454545----------------|-----46--46--46--46--46--46--46--|
C|-36----------36--------------36--|-36------36--45----------36----------|-36----------36----------36--36--|


C|-------------------------------------------|---------------------------------|-------------------------------------|
C|-------------------------------------------|---------------------------------|-------------------------------------|
C|-------------------------------------------|-49------------------------------|-------------------------------------|
C|----38-----38-----38-------38----------49--|-38--------------38--------------|---------------------38------38--57--|
C|---------------------------------------38--|-----46--46--46--46--46--46--46--|-46--46--46----454545----------------|
C|-36----36------36----36-36-36-36-36-36-----|-36----------36--------------36--|-36------36--45----------36----------|


C|---------------------------------|-----------------------------------------------------|
C|---------------------------------|-----------------------------------------------------|
C|-49------------------------------|-----------------------------------------------------|
C|-38--------------38----------38--|----38-----38-----38-384538454543------------38------|
C|-----46--46--46--46--46--46--46--|---------------------------------384343413843--454341|
C|-36----------36----------36--36--|-36----36------36------------------------------------|


C|---------------------------------|-------------------------------------|---------------------------------|
C|---------------------------------|-------------------------------------|---------------------------------|
C|-49------------------------------|---------------------------------57--|-49------------------------------|
C|-----------------38--------------|-----------------38----------38------|-----------------38--------------|
C|-46--46--46--46--46--46--46--46--|-46--46--46--46--46--4645454546--46--|-46--46--46--46--46--46--46--46--|
C|-------------36----------36--36--|-----36------36------------------36--|-------------36----------36--36--|


C|-----------------------------------------------|---------------------------------|
C|-----------------------------------------------|---------------------------------|
C|-------------------------------------------57--|-49------------------------------|
C|-38-------38-------38-------38-------38----38--|-----------------38--------------|
C|-46----46----46----46----46----46----46--------|-46--46--46--46--46--46--46--46--|
C|----36-36-36-36-36-36-36-36-36-36-36-36-36-36--|-------------36----------36--36--|


C|-------------------------------------|-------------------------------------|-----------------------------------------|
C|-------------------------------------|-------------------------------------|-----------------------------------------|
C|---------------------------------57--|-49------------------------------55--|-----------------49----------------------|
C|-----------------38----------38------|-----------------38----------38--38--|---------38------------38----38-------38-|
C|-46--46--46--46--46--4645454546--46--|-46--46--46--46--46--4645454546--46--|-46--46--46--46--46-------45----43-41----|
C|-----36------36------------------36--|-------------36----------------------|-36--36------36-----36-------------------|


C|---------------------------------|-------------------------------------|---------------------------------|
C|---------------------------------|-------------------------------------|---------------------------------|
C|-49------------------------------|---------------------------------57--|-49------------------------------|
C|-----------------38--------------|-----------------38----------38------|-----------------38--------------|
C|-46--46--46--46--46--46--46--46--|-46--46--46--46--46--4645454546--46--|-46--46--46--46--46--46--46--46--|
C|-------------36----------36--36--|-----36------36------------------36--|-------------36----------36--36--|


C|-----------------------------------------------|---------------------------------|
C|-----------------------------------------------|---------------------------------|
C|-------------------------------------------57--|-49------------------------------|
C|-38-------38-------38-------38-------38----38--|-----------------38--------------|
C|-46----46----46----46----46----46----46--------|-46--46--46--46--46--46--46--46--|
C|----36-36-36-36-36-36-36-36-36-36-36-36-36-36--|-------------36----------36--36--|


C|-------------------------------------|---------------------------------|-----------------------------------------------|
C|-------------------------------------|---------------------------------|-----------------------------------------------|
C|---------------------------------57--|-49------------------------------|-49-------49-------49-------49-------49----57--|
C|-----------------38----------38------|-----------------38----------38--|-38-------38-------38-------38-------38----38--|
C|-46--46--46--46--46--4645454546--46--|-46--46--46--46--46--46--46--46--|-------46----46----------46----46--------------|
C|-----36------36------------------36--|-------------36----------36--36--|----36-36-36-36-36-36-36-36-36-36-36-36-36-36--|


C|---------------------------------|-------------------------------------|---------------------------------|
C|---------------------------------|-------------------------------------|---------------------------------|
C|-49------------------------------|---------------------------------57--|-49------------------------------|
C|-----------------38--------------|-----------------38----------38------|-----------------38--------------|
C|-46--46--46--46--46--46--46--46--|-46--46--46--46--46--4645454546--46--|-46--46--46--46--46--46--46--46--|
C|-------------36----------36--36--|-----36------36------------------36--|-------------36----------36--36--|


C|-----------------------------------------------|---------------------------------|
C|-----------------------------------------------|---------------------------------|
C|-------------------------------------------57--|-49------------------------------|
C|-38-------38-------38-------38-------38----38--|-----------------38--------------|
C|-46----46----46----46----46----46----46--------|-46--46--46--46--46--46--46--46--|
C|----36-36-36-36-36-36-36-36-36-36-36-36-36-36--|-------------36----------36--36--|


C|-------------------------------------|-------------------------------------|---------------------------------------------------------|
C|-------------------------------------|-------------------------------------|---------------------------------------------------------|
C|---------------------------------57--|-49------------------------------57--|-49------------------------------------------------------|
C|-----------------38----------38------|-----------------38----------38------|-38-----38-------3845434138454341454543434545414138434141|
C|-46--46--46--46--46--4645454546--46--|-46--46--46--46--46--4645454546--46--|-46------------------------------------------------------|
C|-----36------36------------------36--|-------------36----------------------|-----36----36-36-----------------------------------------|


C|---------------------------------|-------------------------------------|---------------------------------|
C|---------------------------------|-------------------------------------|---------------------------------|
C|-49--------------49--------------|-49--------------49--------------57--|-49--------------49--------------|
C|-----------------38--------------|-----------------38----------38------|-----------------38--------------|
C|-46--46--46--46--46--46--46--46--|-46--46--46--46--46--4645454546--46--|-46--46--46--46--46--46--46--46--|
C|-------------36----------36--36--|-----36------36------------------36--|-------------36----------36--36--|


C|-------------------------------------|---------------------------------|-------------------------------------|
C|-------------------------------------|---------------------------------|-------------------------------------|
C|-49--------------49--------------57--|-49--------------49--------------|---------------------------------57--|
C|-----------------38----------38------|-----------------38--------------|-----------------38----------38------|
C|-46--46--46--46------4645454546--46--|-46--46--46--46------46--46--46--|-46--46--46--46--46--4645454546--46--|
C|-----36------36------------------36--|-------------36----------36--36--|-----36------36------------------36--|


C|---------------------------------|-----------------------------------------------------------------|
C|---------------------------------|-----------------------------------------------------------------|
C|-49--------------49--------------|-49------49--------------49--------------------------------------|
C|-----------------38--------------|-3845434138454341414141413841454538434145414141414543434141414141|
C|-46--46--46--46------46--46--46--|-----------------------------------------------------------------|
C|-------------36----------36--36--|-----------------------------------------------------------------|


C|--------|--------|-------------|
C|--------|--------|-------------|
C|-49-----|--------|-------------|
C|-38-----|--------|-------------|
C|--------|--------|-------------|
C|--------|--------|-------------|



← Back to top