I Am The Black Wizards

by Emperor

Guitar Pro Tab  |  v4.06  |  Posted on March 29, 2007, 11 a.m. ← Back

Guitar Pro Tab Summary

Album

In The Nightside Eclipse

Song Author

Kieran Smith/James Frazzetto

Tabbed by

unknown

Instruments

1st → Ihsahnh
2nd → Tchort
3rd → Samoth
4th → Faust
5th → Keyboard
6th → tempo

File Size

72 KB

Views

3,936

Notice

James Frazzetto - Guitars, Bass, Keyboards Kieran Smith - Drums, Keyboards Szymek G´┐Żbski (Emperial Yog) - Drums (I fix the drums.) Your's tab is great! ========================================== correction by A. Heiskanen (arttu_heiskanen@hotmail.com) - changed the chord on bar 81 (and other similar parts) to major - fixed the chords on bars 117-120 - added keyb to bars 109-116 & outro - made the dynamics less shitty on guitars - added a tempo-track - fixed the intro - fixed the drums a bit - changed Samoth's part to "let rings" on bars 81-100 & 117-132 ==========================================






Related guitar pro tabs

Tablature Sheet

Title: I Am The Black Wizards
Artist: Emperor
Album: In The Nightside Eclipse
Author: Kieran Smith/James Frazzetto 






Track 1: Ihsahn
Back to top
E|-------------------------------------------------|------------------------------------------|
B|-------------------------------------------------|------------------------------------------|
G|-------------------------------------------------|------------------------------------------|
D|-------------------------------------------------|------------------------------------------|
A|-------------------------------------------------|-------------------------------------7----|
E|-0--0--0--0--0--0--0--0--0--0--0--0--0--0--0--0--|-0--0--0--0--0--0--0--0--0--0--0--0-------|


E|-------------------------------------------------|-------------------------------------------------|
B|-------------------------------------------------|-------------------------------------------------|
G|-------------------------------------------------|-------------------------------------------------|
D|-------------------------------------------------|-------------------------3--3--3--3--3--3--3--3--|
A|-------------------------------------------------|-------3--3--3--3--3--3--------------------------|
E|-1--1--1--1--1--1--1--1--1--1--1--1--1--1--1--1--|-1--1--------------------------------------------|


E|-------------------------------------------------|------------------------------------------|
B|-------------------------------------------------|------------------------------------------|
G|-------------------------------------------------|------------------------------------------|
D|-------------------------------------------------|------------------------------------------|
A|-------------------------------------------------|-------------------------------------7----|
E|-0--0--0--0--0--0--0--0--0--0--0--0--0--0--0--0--|-0--0--0--0--0--0--0--0--0--0--0--0-------|


E|-------------------------------------------------|-------------------------------------------------|
B|-------------------------------------------------|-------------------------------------------------|
G|-------------------------------------------------|-------------------------------------------------|
D|-------------------------------------------------|-------------------------3--3--3--3--3--3--3--3--|
A|-------------------------------------------------|-------3--3--3--3--3--3--------------------------|
E|-1--1--1--1--1--1--1--1--1--1--1--1--1--1--1--1--|-1--1--------------------------------------------|


E|-------------------------------------------------|-------------------------------------------------|
B|-------------------------------------------------|-------------------------------------------------|
G|-------------------------------------------------|-------------------------------------------------|
D|-------------------------------------------------|-------------------------------------------------|
A|-------------------------------------------------|-------------------------------------------------|
E|-0--0--0--0--0--0--0--0--0--0--0--0--0--0--0--0--|-0--0--0--0--0--0--0--0--0--0--0--0--0--0--0--0--|


E|-------------------------------------------------|-------------------------------------------------|
B|-------------------------------------------------|-------------------------------------------------|
G|-------------------------------------------------|-------------------------------------------------|
D|-------------------------------------------------|-------------------------3--3--3--3--3--3--3--3--|
A|-------------------------------------------------|-3--3--3--3--3--3--3--3--------------------------|
E|-1--1--1--1--1--1--1--1--1--1--1--1--1--1--1--1--|-------------------------------------------------|


E|-------------------------------------------------|-------------------------------------------------|
B|-------------------------------------------------|-------------------------------------------------|
G|-------------------------------------------------|-------------------------------------------------|
D|-------------------------------------------------|-------------------------------------------------|
A|-------------------------------------------------|-------------------------------------------------|
E|-0--0--0--0--0--0--0--0--0--0--0--0--0--0--0--0--|-0--0--0--0--0--0--0--0--0--0--0--0--0--0--0--0--|


E|-------------------------------------------------|-------------------------------------------------|
B|-------------------------------------------------|-------------------------------------------------|
G|-------------------------------------------------|-------------------------------------------------|
D|-------------------------------------------------|-------------------------3--3--3--3--3--3--3--3--|
A|-------------------------------------------------|-3--3--3--3--3--3--3--3--------------------------|
E|-1--1--1--1--1--1--1--1--1--1--1--1--1--1--1--1--|-------------------------------------------------|


E|-------------------------------------------------|-------------------------------------------------|
B|-------------------------------------------------|-------------------------------------------------|
G|-------------------------------------------------|-------------------------------------------------|
D|-------------------------------------------------|-------------------------------------------------|
A|-------------------------------------------------|-------------------------------------------------|
E|-0--0--0--0--0--0--0--0--0--0--0--0--0--0--0--0--|-0--0--0--0--0--0--0--0--0--0--0--0--0--0--0--0--|


E|-------------------------------------------------|-------------------------------------------------|
B|-------------------------------------------------|-------------------------------------------------|
G|-------------------------------------------------|-------------------------------------------------|
D|-------------------------------------------------|-------------------------3--3--3--3--3--3--3--3--|
A|-------------------------------------------------|-3--3--3--3--3--3--3--3--------------------------|
E|-1--1--1--1--1--1--1--1--1--1--1--1--1--1--1--1--|-------------------------------------------------|


E|-------------------------------------------------|-------------------------------------------------|
B|-------------------------------------------------|-------------------------------------------------|
G|-------------------------------------------------|-------------------------------------------------|
D|-------------------------------------------------|-------------------------------------------------|
A|-------------------------------------------------|-------------------------------------------------|
E|-0--0--0--0--0--0--0--0--0--0--0--0--0--0--0--0--|-0--0--0--0--0--0--0--0--0--0--0--0--0--0--0--0--|


E|-------------------------------------------------|-------------------------------------------------|
B|-------------------------------------------------|-------------------------------------------------|
G|-------------------------------------------------|-------------------------------------------------|
D|-------------------------------------------------|-------------------------3--3--3--3--3--3--3--3--|
A|-------------------------------------------------|-3--3--3--3--3--3--3--3--------------------------|
E|-1--1--1--1--1--1--1--1--1--1--1--1--1--1--1--1--|-------------------------------------------------|


E|--------|--------|--------|-----------------|-------------------------------------------------|
B|--------|--------|--------|-----------------|-------------------------------------------------|
G|-5------|-5------|-5------|-----------------|-------------------------------------------------|
D|-5------|-5------|-5------|-----------------|-------------------------------------------------|
A|-3------|-3------|-3------|-6-----6---6-----|-2--2--2--2--2--2--2--2--2--2--2--2--2--2--2--2--|
E|--------|--------|--------|-4-----3---3-----|-------------------------------------------------|


E|-------------------------------------------------|-------------------------------------------------|
B|-------------------------------------------------|-------------------------------------------------|
G|-------------------------------------------------|-------------------------------------------------|
D|-------------------------------------------------|-------------------------------------------------|
A|-1--1--1--1--1--1--1--1--1--1--1--1--1--1--1--1--|-2--2--2--2--2--2--2--2--2--2--2--2--2--2--2--2--|
E|-------------------------------------------------|-------------------------------------------------|


E|-------------------------------------------------|-------------------------------------------------|
B|-------------------------------------------------|-------------------------------------------------|
G|-------------------------------------------------|-------------------------------------------------|
D|-3--3--3--3--------------------------4--4--4--4--|-------------------------------------------------|
A|-------------------------3--3--3--3--------------|-2--2--2--2--2--2--2--2--2--2--2--2--2--2--2--2--|
E|-------------2--2--2--2--------------------------|-------------------------------------------------|


E|-------------------------------------------------|-------------------------------------------------|
B|-------------------------------------------------|-------------------------------------------------|
G|-------------------------------------------------|-------------------------------------------------|
D|-------------------------------------------------|-------------------------------------------------|
A|-1--1--1--1--1--1--1--1--1--1--1--1--1--1--1--1--|-2--2--2--2--2--2--2--2--2--2--2--2--2--2--2--2--|
E|-------------------------------------------------|-------------------------------------------------|


E|-------------------------------------------------|-------------------------------------------------|
B|-------------------------------------------------|-------------------------------------------------|
G|-------------------------------------------------|-------------------------------------------------|
D|-3--3--3--3--------------------------4--4--4--4--|-0--0--0--0--0--0--0--0--0--0--0--0--0--0--0--0--|
A|-------------------------3--3--3--3--------------|-2--2--2--2--2--2--2--2--2--2--2--2--2--2--2--2--|
E|-------------2--2--2--2--------------------------|-------------------------------------------------|


E|-------------------------------------------------|-------------------------------------------------|
B|-------------------------------------------------|-------------------------------------------------|
G|-------------------------------------------------|-------------------------------------------------|
D|-0--0--0--0--0--0--0--0--0--0--0--0--0--0--0--0--|-0--0--0--0--0--0--0--0--0--0--0--0--0--0--0--0--|
A|-1--1--1--1--1--1--1--1--1--1--1--1--1--1--1--1--|-2--2--2--2--2--2--2--2--2--2--2--2--2--2--2--2--|
E|-------------------------------------------------|-------------------------------------------------|


E|-------------------------------------------------|-------------------------------------------------|
B|-------------------------------------------------|-------------------------------------------------|
G|-------------------------------------------------|-------------------------------------------------|
D|-3--3--3--3--------------------------4--4--4--4--|-0--0--0--0--0--0--0--0--0--0--0--0--0--0--0--0--|
A|-------------------------3--3--3--3--------------|-2--2--2--2--2--2--2--2--2--2--2--2--2--2--2--2--|
E|-------------2--2--2--2--------------------------|-------------------------------------------------|


E|-------------------------------------------------|-------------------------------------------------|
B|-------------------------------------------------|-------------------------------------------------|
G|-------------------------------------------------|-------------------------------------------------|
D|-0--0--0--0--0--0--0--0--0--0--0--0--0--0--0--0--|-0--0--0--0--0--0--0--0--0--0--0--0--0--0--0--0--|
A|-1--1--1--1--1--1--1--1--1--1--1--1--1--1--1--1--|-2--2--2--2--2--2--2--2--2--2--2--2--2--2--2--2--|
E|-------------------------------------------------|-------------------------------------------------|


E|-------------------------------------------------|-------------------------------------------------|
B|-------------------------------------------------|-------------------------------------------------|
G|-------------------------------------------------|-------------------------------------------------|
D|-3--3--3--3--------------------------4--4--4--4--|-------------------------------------------------|
A|-------------------------3--3--3--3--------------|-------------------------------------------------|
E|-------------2--2--2--2--------------------------|-0--0--0--0--0--0--0--0--0--0--0--0--0--0--0--0--|


E|-------------------------------------------------|-------------------------------------------------|
B|-------------------------------------------------|-------------------------------------------------|
G|-------------------------------------------------|-------------------------------------------------|
D|-------------------------------------------------|-------------------------------------------------|
A|-------------------------------------------------|-------------------------------------------------|
E|-0--0--0--0--0--0--0--0--0--0--0--0--0--0--0--0--|-1--1--1--1--1--1--1--1--1--1--1--1--1--1--1--1--|


E|-------------------------------------------------|-------------------------------------------------|
B|-------------------------------------------------|-------------------------------------------------|
G|-------------------------------------------------|-------------------------------------------------|
D|-------------------------3--3--3--3--3--3--3--3--|-------------------------------------------------|
A|-3--3--3--3--3--3--3--3--------------------------|-------------------------------------------------|
E|-------------------------------------------------|-0--0--0--0--0--0--0--0--0--0--0--0--0--0--0--0--|


E|-------------------------------------------------|-------------------------------------------------|
B|-------------------------------------------------|-------------------------------------------------|
G|-------------------------------------------------|-------------------------------------------------|
D|-------------------------------------------------|-------------------------------------------------|
A|-------------------------------------------------|-------------------------------------------------|
E|-0--0--0--0--0--0--0--0--0--0--0--0--0--0--0--0--|-1--1--1--1--1--1--1--1--1--1--1--1--1--1--1--1--|


E|-------------------------------------------------|-------------------------------------------------|
B|-------------------------------------------------|-------------------------------------------------|
G|-------------------------------------------------|-------------------------------------------------|
D|-------------------------3--3--3--3--3--3--3--3--|-------------------------------------------------|
A|-3--3--3--3--3--3--3--3--------------------------|-------------------------------------------------|
E|-------------------------------------------------|-0--0--0--0--0--0--0--0--0--0--0--0--0--0--0--0--|


E|-------------------------------------------------|-------------------------------------------------|
B|-------------------------------------------------|-------------------------------------------------|
G|-------------------------------------------------|-------------------------------------------------|
D|-------------------------------------------------|-------------------------------------------------|
A|-------------------------------------------------|-------------------------------------------------|
E|-0--0--0--0--0--0--0--0--0--0--0--0--0--0--0--0--|-1--1--1--1--1--1--1--1--1--1--1--1--1--1--1--1--|


E|-------------------------------------------------|-------------------------------------------------|
B|-------------------------------------------------|-------------------------------------------------|
G|-------------------------------------------------|-------------------------------------------------|
D|-------------------------3--3--3--3--3--3--3--3--|-------------------------------------------------|
A|-3--3--3--3--3--3--3--3--------------------------|-------------------------------------------------|
E|-------------------------------------------------|-0--0--0--0--0--0--0--0--0--0--0--0--0--0--0--0--|


E|-------------------------------------------------|-------------------------------------------------|
B|-------------------------------------------------|-------------------------------------------------|
G|-------------------------------------------------|-------------------------------------------------|
D|-------------------------------------------------|-------------------------------------------------|
A|-------------------------------------------------|-------------------------------------------------|
E|-0--0--0--0--0--0--0--0--0--0--0--0--0--0--0--0--|-1--1--1--1--1--1--1--1--1--1--1--1--1--1--1--1--|


E|-------------------------------------------------|-------------------------------------------------|
B|-------------------------------------------------|-------------------------------------------------|
G|-------------------------------------------------|-------------------------------------------------|
D|-------------------------3--3--3--3--3--3--3--3--|-0--0--0--0--0--0--0--0--0--0--0--0--0--0--0--0--|
A|-3--3--3--3--3--3--3--3--------------------------|-2--2--2--2--2--2--2--2--2--2--2--2--2--2--2--2--|
E|-------------------------------------------------|-------------------------------------------------|


E|-------------------------------------------------|-------------------------------------------------|
B|-------------------------------------------------|-------------------------------------------------|
G|-------------------------------------------------|-------------------------------------------------|
D|-0--0--0--0--0--0--0--0--0--0--0--0--0--0--0--0--|-0--0--0--0--0--0--0--0--0--0--0--0--0--0--0--0--|
A|-1--1--1--1--1--1--1--1--1--1--1--1--1--1--1--1--|-2--2--2--2--2--2--2--2--2--2--2--2--2--2--2--2--|
E|-------------------------------------------------|-------------------------------------------------|


E|-------------------------------------------------|-------------------------------------------------|
B|-------------------------------------------------|-------------------------------------------------|
G|-------------------------------------------------|-------------------------------------------------|
D|-3--3--3--3--------------------------4--4--4--4--|-0--0--0--0--0--0--0--0--0--0--0--0--0--0--0--0--|
A|-------------------------3--3--3--3--------------|-2--2--2--2--2--2--2--2--2--2--2--2--2--2--2--2--|
E|-------------2--2--2--2--------------------------|-------------------------------------------------|


E|-------------------------------------------------|-------------------------------------------------|
B|-------------------------------------------------|-------------------------------------------------|
G|-------------------------------------------------|-------------------------------------------------|
D|-0--0--0--0--0--0--0--0--0--0--0--0--0--0--0--0--|-0--0--0--0--0--0--0--0--0--0--0--0--0--0--0--0--|
A|-1--1--1--1--1--1--1--1--1--1--1--1--1--1--1--1--|-2--2--2--2--2--2--2--2--2--2--2--2--2--2--2--2--|
E|-------------------------------------------------|-------------------------------------------------|


E|-------------------------------------------------|-------------------------------------------------|
B|-------------------------------------------------|-------------------------------------------------|
G|-------------------------------------------------|-------------------------------------------------|
D|-3--3--3--3--------------------------4--4--4--4--|-0--0--0--0--0--0--0--0--0--0--0--0--0--0--0--0--|
A|-------------------------3--3--3--3--------------|-2--2--2--2--2--2--2--2--2--2--2--2--2--2--2--2--|
E|-------------2--2--2--2--------------------------|-------------------------------------------------|


E|-------------------------------------------------|-------------------------------------------------|
B|-------------------------------------------------|-------------------------------------------------|
G|-------------------------------------------------|-------------------------------------------------|
D|-0--0--0--0--0--0--0--0--0--0--0--0--0--0--0--0--|-0--0--0--0--0--0--0--0--0--0--0--0--0--0--0--0--|
A|-1--1--1--1--1--1--1--1--1--1--1--1--1--1--1--1--|-2--2--2--2--2--2--2--2--2--2--2--2--2--2--2--2--|
E|-------------------------------------------------|-------------------------------------------------|


E|-------------------------------------------------|-------------------------------------------------|
B|-------------------------------------------------|-------------------------------------------------|
G|-------------------------------------------------|-------------------------------------------------|
D|-3--3--3--3--------------------------4--4--4--4--|-0--0--0--0--0--0--0--0--0--0--0--0--0--0--0--0--|
A|-------------------------3--3--3--3--------------|-2--2--2--2--2--2--2--2--2--2--2--2--2--2--2--2--|
E|-------------2--2--2--2--------------------------|-------------------------------------------------|


E|-------------------------------------------------|-------------------------------------------------|
B|-------------------------------------------------|-------------------------------------------------|
G|-------------------------------------------------|-------------------------------------------------|
D|-0--0--0--0--0--0--0--0--0--0--0--0--0--0--0--0--|-0--0--0--0--0--0--0--0--0--0--0--0--0--0--0--0--|
A|-1--1--1--1--1--1--1--1--1--1--1--1--1--1--1--1--|-2--2--2--2--2--2--2--2--2--2--2--2--2--2--2--2--|
E|-------------------------------------------------|-------------------------------------------------|


E|-------------------------------------------------|--------|--------------------|
B|-------------------------------------------------|--------|--------------------|
G|-------------------------------------------------|-7------|-6---------6----8---|
D|-3--3--3--3--------------------------4--4--4--4--|-7------|-8---------6----8---|
A|-------------------------3--3--3--3--------------|-5------|-8---------4----6---|
E|-------------2--2--2--2--------------------------|-5------|-6---------4----6---|


E|--------|-------------------------------------------------|--------|--------------------|
B|--------|---------3-----------3-----------3-----------3---|-5------|-1------------------|
G|-7------|-----3-----------2-----------1-----------2-------|-5------|-3---------6----8---|
D|-7------|-0-----------0-----------0-----------0-----------|-5------|-3---------6----8---|
A|-5------|-------------------------------------------------|-3------|-1---------4----6---|
E|-5------|-------------------------------------------------|--------|-----------4----6---|


E|--------|---------------------|--------|--------------------|--------|---------------------|
B|-6------|---------------------|-5------|-1------------------|-6------|---------------------|
G|-7------|-3----2----1----2----|-5------|-3---------6----8---|-7------|-3----2----1----2----|
D|-7------|-0----0----0----0----|-5------|-3---------6----8---|-7------|-0----0----0----0----|
A|-5------|---------------------|-3------|-1---------4----6---|-5------|---------------------|
E|-5------|---------------------|--------|-----------4----6---|-5------|---------------------|


E|--------|--------------------|--------|---------------------|--------|--------------------|
B|-5------|-1------------------|-6------|---------------------|-5------|-1------------------|
G|-5------|-3---------6----8---|-7------|-3----2----1----2----|-5------|-3---------6----8---|
D|-5------|-3---------6----8---|-7------|-0----0----0----0----|-5------|-3---------6----8---|
A|-3------|-1---------4----6---|-5------|---------------------|-3------|-1---------4----6---|
E|--------|-----------4----6---|-5------|---------------------|--------|-----------4----6---|


E|--------|---------------------|--------|--------------------|--------|---------------------|
B|-6------|---------------------|-5------|-1------------------|-6------|---------------------|
G|-7------|-3----2----1----2----|-5------|-3---------6----8---|-7------|-3----2----1----2----|
D|-7------|-0----0----0----0----|-5------|-3---------6----8---|-7------|-0----0----0----0----|
A|-5------|---------------------|-3------|-1---------4----6---|-5------|---------------------|
E|-5------|---------------------|--------|-----------4----6---|-5------|---------------------|


E|-------------------------------------------|-------------------------------------------|
B|-------------------------------------------|-------------------------------------------|
G|-------------------------------------------|-------------------------------------------|
D|-7----7---7---7---7---7----7---7---7---7---|-------------------------------------------|
A|-5----5---5---5---5---5----5---5---5---5---|-5----5---5---3---5---6----6---6---6---6---|
E|-5----5---5---5---5---5----5---5---5---5---|-3----3---3---1---3---4----4---4---4---4---|


E|-------------------------------------------|---------------------------------------------------------|
B|-------------------------------------------|---------------------------------------------------------|
G|-------------------------------------------|---------------------------------------------------------|
D|-7----7---7---7---7---7----7---7---7---7---|---------------3---3--3--3-------------------------------|
A|-5----5---5---5---5---5----5---5---5---5---|-5---5--5--5---1---1--1--1---3---3--3--3---6---6--6--6---|
E|-5----5---5---5---5---5----5---5---5---5---|-3---3--3--3-----------------1---1--1--1---4---4--4--4---|


E|-------------------------------------------|-------------------------------------------|
B|-------------------------------------------|-------------------------------------------|
G|-------------------------------------------|-------------------------------------------|
D|-7----7---7---7---7---7----7---7---7---7---|-------------------------------------------|
A|-5----5---5---5---5---5----5---5---5---5---|-5----5---5---3---5---6----6---6---6---6---|
E|-5----5---5---5---5---5----5---5---5---5---|-3----3---3---1---3---4----4---4---4---4---|


E|-------------------------------------------|---------------------------------------------------------|
B|-------------------------------------------|---------------------------------------------------------|
G|-------------------------------------------|---------------------------------------------------------|
D|-7----7---7---7---7---7----7---7---7---7---|---------------3---3--3--3-------------------------------|
A|-5----5---5---5---5---5----5---5---5---5---|-5---5--5--5---1---1--1--1---3---3--3--3---6---6--6--6---|
E|-5----5---5---5---5---5----5---5---5---5---|-3---3--3--3-----------------1---1--1--1---4---4--4--4---|


E|-------------------------------------------------------------------------|-------------------------------------------------------------------------|
B|-------------------------------------------------------------------------|-------------------------------------------------------------------------|
G|-------------------------------------------------------------------------|-------------------------------------------------------------------------|
D|-------------------------------------------------------------------------|-------------------------------------------------------------------------|
A|-------------------------------------------------------------------------|-------------------------------------------------------------------------|
E|-5--5--5--5--5--5--5--5--5--5--5--5--5--5--5--5--5--5--5--5--5--5--5--5--|-7--7--7--7--7--7--7--7--7--7--7--7--6--6--6--6--6--6--6--6--6--6--6--6--|


E|-------------------------------------------------------------------------|-------------------------------------------------------------------------|
B|-------------------------------------------------------------------------|-------------------------------------------------------------------------|
G|-------------------------------------------------------------------------|-------------------------------------------------------------------------|
D|-------------------------------------------------------------------------|-------------------------------------------------------------------------|
A|-------------------------------------------------------------------------|-------------------5--5--5--5--5--5--0--0--0--0--0--0--3--3--3--3--3--3--|
E|-5--5--5--5--5--5--5--5--5--5--5--5--5--5--5--5--5--5--5--5--5--5--5--5--|-7--7--7--7--7--7--------------------------------------------------------|


E|-------------------------------------------------------------------------|-------------------------------------------------------------------------|
B|-------------------------------------------------------------------------|-------------------------------------------------------------------------|
G|-------------------------------------------------------------------------|-------------------------------------------------------------------------|
D|-------------------------------------------------------------------------|-------------------------------------------------------------------------|
A|-------------------------------------------------------------------------|-------------------------------------------------------------------------|
E|-5--5--5--5--5--5--5--5--5--5--5--5--5--5--5--5--5--5--5--5--5--5--5--5--|-7--7--7--7--7--7--7--7--7--7--7--7--6--6--6--6--6--6--6--6--6--6--6--6--|


E|-------------------------------------------------------------------------|-------------------------------------------------------------------------|
B|-------------------------------------------------------------------------|-------------------------------------------------------------------------|
G|-------------------------------------------------------------------------|-------------------------------------------------------------------------|
D|-------------------------------------------------------------------------|-------------------------------------------------------------------------|
A|-------------------------------------------------------------------------|-------------------5--5--5--5--5--5--0--0--0--0--0--0--3--3--3--3--3--3--|
E|-5--5--5--5--5--5--5--5--5--5--5--5--5--5--5--5--5--5--5--5--5--5--5--5--|-7--7--7--7--7--7--------------------------------------------------------|


E|--------|--------------------|--------|--------|--------|--------------------|--------|
B|-5------|-1------------------|--------|--------|-5------|-1------------------|--------|
G|-7------|-3---------6----8---|-7------|-7------|-5------|-3---------6----8---|-7------|
D|-7------|-3---------6----8---|-7------|-7------|-5------|-3---------6----8---|-7------|
A|-5------|-1---------4----6---|-5------|-5------|-3------|-1---------4----6---|-5------|
E|--------|-----------4----6---|-5------|--------|--------|-----------4----6---|-5------|


E|---------------------|--------|--------------------|--------|---------------------|
B|---------------------|-5------|-1------------------|--------|---------------------|
G|-3----2----1----2----|-5------|-3---------6----8---|-7------|-3----2----1----2----|
D|-0----0----0----0----|-5------|-3---------6----8---|-7------|-0----0----0----0----|
A|---------------------|-3------|-1---------4----6---|-5------|---------------------|
E|---------------------|--------|-----------4----6---|-5------|---------------------|


E|--------|--------------------|--------|---------------------|---------------------|
B|-5------|-1------------------|--------|---------------------|---------------------|
G|-5------|-3---------6----8---|-7------|-3----2----1----2----|---------------------|
D|-5------|-3---------6----8---|-7------|-0----0----0----0----|------3----2---------|
A|-3------|-1---------4----6---|-5------|---------------------|-2----1----0----3----|
E|--------|-----------4----6---|-5------|---------------------|-0--------------1----|


E|---------------------------|---------------------|---------------------------|---------------------|
B|---------------------------|---------------------|---------------------------|---------------------|
G|---------------------------|---------------------|---------------------------|---------------------|
D|---------------------------|------3----2---------|---------------------------|------3----2---------|
A|-6----3---2---3---2---3----|-2----1----0----3----|-6----3---2---3---2---2----|-2----1----0----3----|
E|-4----1---0---1---0---1----|-0--------------1----|-4----1---0---1---0---0----|-0--------------1----|


E|---------------------------|---------------------|---------------------------|---------------------|
B|---------------------------|---------------------|---------------------------|---------------------|
G|---------------------------|---------------------|---------------------------|---------------------|
D|---------------------------|------3----2---------|---------------------------|------3----2---------|
A|-6----3---2---3---2---3----|-2----1----0----3----|-6----3---2---3---2---2----|-2----1----0----3----|
E|-4----1---0---1---0---1----|-0--------------1----|-4----1---0---1---0---0----|-0--------------1----|


E|---------------------------|---------------------|---------------------------|---------------------|
B|---------------------------|---------------------|---------------------------|---------------------|
G|---------------------------|---------------------|---------------------------|---------------------|
D|---------------------------|------3----2---------|---------------------------|------3----2---------|
A|-6----3---2---3---2---3----|-2----1----0----3----|-6----3---2---3---2---2----|-2----1----0----3----|
E|-4----1---0---1---0---1----|-0--------------1----|-4----1---0---1---0---0----|-0--------------1----|


E|---------------------------|---------------------|---------------------------|---------------------|
B|---------------------------|---------------------|---------------------------|---------------------|
G|---------------------------|---------------------|---------------------------|---------------------|
D|---------------------------|------3----2---------|---------------------------|------3----2---------|
A|-6----3---2---3---2---3----|-2----1----0----3----|-6----3---2---3---2---2----|-2----1----0----3----|
E|-4----1---0---1---0---1----|-0--------------1----|-4----1---0---1---0---0----|-0--------------1----|


E|---------------------------|---------------------|---------------------------|--------|
B|---------------------------|---------------------|---------------------------|--------|
G|---------------------------|---------------------|---------------------------|--------|
D|---------------------------|------3----2---------|---------------------------|--------|
A|-6----3---2---3---2---3----|-2----1----0----3----|-6----3---2---3---2---2----|-2------|
E|-4----1---0---1---0---1----|-0--------------1----|-4----1---0---1---0---0----|-0------|


E|-----------------|--------|-----------------|--------|-----------------|--------|
B|-----------------|--------|-----------------|--------|-----------------|--------|
G|-----------------|--------|-----------------|--------|-----------------|--------|
D|-----------------|--------|-----------------|--------|-----------------|--------|
A|-2-----2----2----|-3------|-3-----3----3----|-2------|-2-----2----2----|-3------|
E|-0-----0----0----|-1------|-1-----1----1----|-0------|-0-----0----0----|-1------|


E|-----------------|--------|-----------------|--------|-----------------|--------|
B|-----------------|--------|-----------------|--------|-----------------|--------|
G|-----------------|--------|-----------------|--------|-----------------|--------|
D|-----------------|--------|-----------------|--------|-----------------|--------|
A|-3-----3----3----|-2------|-2-----2----2----|-3------|-3-----3----3----|-2------|
E|-1-----1----1----|-0------|-0-----0----0----|-1------|-1-----1----1----|-0------|


E|-----------------|--------|-----------------|--------|-----------------|--------|
B|-----------------|--------|-----------------|--------|-----------------|--------|
G|-----------------|--------|-----------------|--------|-----------------|--------|
D|-----------------|--------|-----------------|--------|-----------------|--------|
A|-2-----2----2----|-3------|-3-----3----3----|-2------|-2-----2----2----|-3------|
E|-0-----0----0----|-1------|-1-----1----1----|-0------|-0-----0----0----|-1------|


E|-----------------|--------|-----------------|--------|-----------------|--------|
B|-----------------|--------|-----------------|--------|-----------------|--------|
G|-----------------|--------|-----------------|--------|-----------------|--------|
D|-----------------|--------|-----------------|--------|-----------------|--------|
A|-3-----3----3----|-2------|-2-----2----2----|-3------|-3-----3----3----|-2------|
E|-1-----1----1----|-0------|-0-----0----0----|-1------|-1-----1----1----|-0------|


E|-----------------|--------|-----------------|--------|-----------------|--------|
B|-----------------|--------|-----------------|--------|-----------------|--------|
G|-----------------|--------|-----------------|--------|-----------------|--------|
D|-----------------|--------|-----------------|--------|-----------------|--------|
A|-2-----2----2----|-3------|-3-----3----3----|-2------|-2-----2----2----|-3------|
E|-0-----0----0----|-1------|-1-----1----1----|-0------|-0-----0----0----|-1------|


E|-----------------|--------|--------|
B|-----------------|--------|--------|
G|-----------------|--------|--------|
D|-----------------|--------|--------|
A|-3-----3----3----|-2------|-2------|
E|-1-----1----1----|-0------|-0------|









Track 2: Samoth
Back to top
E|--------|--------|--------|--------|-------------------------------------------------|
B|--------|--------|--------|--------|-------------------------------------------------|
G|--------|--------|--------|--------|-------------------------------------------------|
D|--------|--------|--------|--------|-------------------------------------------------|
A|--------|--------|--------|--------|-------------------------------------------------|
E|--------|--------|--------|--------|-0--0--0--0--0--0--0--0--0--0--0--0--0--0--0--0--|


E|-------------------------------------------------|-------------------------------------------------|
B|-------------------------------------------------|-------------------------------------------------|
G|-------------------------------------------------|-------------------------------------------------|
D|-------------------------------------------------|-------------------------------------------------|
A|-------------------------------------------------|-------------------------------------------------|
E|-0--0--0--0--0--0--0--0--0--0--0--0--0--0--0--0--|-1--1--1--1--1--1--1--1--1--1--1--1--1--1--1--1--|


E|-------------------------------------------------|-------------------------------------------------|
B|-------------------------------------------------|-------------------------------------------------|
G|-------------------------------------------------|-------------9--9--9--9--------------------------|
D|-------------------------3--3--3--3--3--3--3--3--|-------------------------9--9--9--9--------------|
A|-------3--3--3--3--3--3--------------------------|-7--7--7--7--------------------------10-10-10-10-|
E|-1--1--------------------------------------------|-------------------------------------------------|


E|-------------------------------------------------|-------------------------------------------------|
B|-------------------------------------------------|-------------------------------------------------|
G|-------------------------------------------------|-------------10-10-10-10-9--9--9--9--7--7--7--7--|
D|-------------------------7--7--7--7--9--9--9--9--|-------------------------------------------------|
A|-9--9--9--9--10-10-10-10-------------------------|-8--8--8--8--------------------------------------|
E|-------------------------------------------------|-------------------------------------------------|


E|-------------------------------------------------|-------------------------------------------------|
B|-------------------------------------------------|-------------------------------------------------|
G|-9--9--9--9--------------------------------------|-------------9--9--9--9--------------------------|
D|-------------10-10-10-10-9--9--9--9--10-10-10-10-|-------------------------9--9--9--9--------------|
A|-------------------------------------------------|-7--7--7--7--------------------------10-10-10-10-|
E|-------------------------------------------------|-------------------------------------------------|


E|-------------------------------------------------|-------------------------------------------------|
B|-------------------------------------------------|-------------------------------------------------|
G|-------------------------------------------------|-------------10-10-10-10-9--9--9--9--7--7--7--7--|
D|-------------------------7--7--7--7--9--9--9--9--|-------------------------------------------------|
A|-9--9--9--9--10-10-10-10-------------------------|-8--8--8--8--------------------------------------|
E|-------------------------------------------------|-------------------------------------------------|


E|-------------------------------------------------|-------------------------------------------------|
B|-------------------------------------------------|-------------------------------------------------|
G|-9--9--9--9--------------------------------------|-------------9--9--9--9--------------------------|
D|-------------10-10-10-10-9--9--9--9--10-10-10-10-|-------------------------9--9--9--9--------------|
A|-------------------------------------------------|-7--7--7--7--------------------------10-10-10-10-|
E|-------------------------------------------------|-------------------------------------------------|


E|-------------------------------------------------|-------------------------------------------------|
B|-------------------------------------------------|-------------------------------------------------|
G|-------------------------------------------------|-------------10-10-10-10-9--9--9--9--7--7--7--7--|
D|-------------------------7--7--7--7--9--9--9--9--|-------------------------------------------------|
A|-9--9--9--9--10-10-10-10-------------------------|-8--8--8--8--------------------------------------|
E|-------------------------------------------------|-------------------------------------------------|


E|-------------------------------------------------|-------------------------------------------------|
B|-------------------------------------------------|-------------------------------------------------|
G|-9--9--9--9--------------------------------------|-------------9--9--9--9--------------------------|
D|-------------10-10-10-10-9--9--9--9--10-10-10-10-|-------------------------9--9--9--9--------------|
A|-------------------------------------------------|-7--7--7--7--------------------------10-10-10-10-|
E|-------------------------------------------------|-------------------------------------------------|


E|-------------------------------------------------|-------------------------------------------------|
B|-------------------------------------------------|-------------------------------------------------|
G|-------------------------------------------------|-------------10-10-10-10-9--9--9--9--7--7--7--7--|
D|-------------------------7--7--7--7--9--9--9--9--|-------------------------------------------------|
A|-9--9--9--9--10-10-10-10-------------------------|-8--8--8--8--------------------------------------|
E|-------------------------------------------------|-------------------------------------------------|


E|-------------------------------------------------|-------------3-------------|-------------4-------------|
B|-------------------------------------------------|---------4--------4--------|---------3--------3--------|
G|-9--9--9--9--------------------------------------|-----5----------------5----|-----5----------------5----|
D|-------------10-10-10-10-9--9--9--9--10-10-10-10-|-5-------------------------|-5-------------------------|
A|-------------------------------------------------|-3-------------------------|-3-------------------------|
E|-------------------------------------------------|---------------------------|---------------------------|


E|-------------6-----------6-------|-----------------|--------|--------|--------|--------|
B|---------4-------4-----------4---|-----------------|--------|--------|--------|--------|
G|-----5---------------5-----------|-----------------|--------|--------|--------|--------|
D|-3-------------------------------|-----------------|--------|--------|--------|--------|
A|-3-------------------------------|-6-----6---6-----|--------|--------|--------|--------|
E|---------------------------------|-4-----3---3-----|--------|--------|--------|--------|


E|--------|--------|--------|--------|-------------------------------------------------|
B|--------|--------|--------|--------|-------------------------------------------------|
G|--------|--------|--------|--------|-------------------------------------------------|
D|--------|--------|--------|--------|-0--0--0--0--0--0--0--0--0--0--0--0--0--0--0--0--|
A|--------|--------|--------|--------|-2--2--2--2--2--2--2--2--2--2--2--2--2--2--2--2--|
E|--------|--------|--------|--------|-------------------------------------------------|


E|-------------------------------------------------|-------------------------------------------------|
B|-------------------------------------------------|-------------------------------------------------|
G|-------------------------------------------------|-------------------------------------------------|
D|-0--0--0--0--0--0--0--0--0--0--0--0--0--0--0--0--|-0--0--0--0--0--0--0--0--0--0--0--0--0--0--0--0--|
A|-1--1--1--1--1--1--1--1--1--1--1--1--1--1--1--1--|-2--2--2--2--2--2--2--2--2--2--2--2--2--2--2--2--|
E|-------------------------------------------------|-------------------------------------------------|


E|-------------------------------------------------|-------------------------------------------------|
B|-------------------------------------------------|-------------------------------------------------|
G|-------------------------------------------------|-------------------------------------------------|
D|-3--3--3--3--------------------------4--4--4--4--|-0--0--0--0--0--0--0--0--0--0--0--0--0--0--0--0--|
A|-------------------------3--3--3--3--------------|-2--2--2--2--2--2--2--2--2--2--2--2--2--2--2--2--|
E|-------------2--2--2--2--------------------------|-------------------------------------------------|


E|-------------------------------------------------|-------------------------------------------------|
B|-------------------------------------------------|-------------------------------------------------|
G|-------------------------------------------------|-------------------------------------------------|
D|-0--0--0--0--0--0--0--0--0--0--0--0--0--0--0--0--|-0--0--0--0--0--0--0--0--0--0--0--0--0--0--0--0--|
A|-1--1--1--1--1--1--1--1--1--1--1--1--1--1--1--1--|-2--2--2--2--2--2--2--2--2--2--2--2--2--2--2--2--|
E|-------------------------------------------------|-------------------------------------------------|


E|-------------------------------------------------|-------------------------------------------------|
B|-------------------------------------------------|-------------------------------------------------|
G|-------------------------------------------------|-------------9--9--9--9--------------------------|
D|-6--6--6--6--------------------------7--7--7--7--|-------------------------9--9--9--9--------------|
A|-------------0--0--0--0--6--6--6--6--------------|-7--7--7--7--------------------------10-10-10-10-|
E|-------------------------------------------------|-------------------------------------------------|


E|-------------------------------------------------|-------------------------------------------------|
B|-------------------------------------------------|-------------------------------------------------|
G|-------------------------------------------------|-------------10-10-10-10-9--9--9--9--------------|
D|-------------------------7--7--7--7--9--9--9--9--|-------------------------------------10-10-10-10-|
A|-9--9--9--9--10-10-10-10-------------------------|-8--8--8--8--------------------------------------|
E|-------------------------------------------------|-------------------------------------------------|


E|-------------------------------------------------|-------------------------------------------------|
B|-------------------------------------------------|-------------------------------------------------|
G|-9--9--9--9--------------------------------------|-------------9--9--9--9--------------------------|
D|-------------10-10-10-10-9--9--9--9--10-10-10-10-|-------------------------9--9--9--9--------------|
A|-------------------------------------------------|-7--7--7--7--------------------------10-10-10-10-|
E|-------------------------------------------------|-------------------------------------------------|


E|-------------------------------------------------|-------------------------------------------------|
B|-------------------------------------------------|-------------------------------------------------|
G|-------------------------------------------------|-------------10-10-10-10-9--9--9--9--7--7--7--7--|
D|-------------------------7--7--7--7--9--9--9--9--|-------------------------------------------------|
A|-9--9--9--9--10-10-10-10-------------------------|-8--8--8--8--------------------------------------|
E|-------------------------------------------------|-------------------------------------------------|


E|-------------------------------------------------|-------------------------------------------------|
B|-------------------------------------------------|-------------------------------------------------|
G|-9--9--9--9--------------------------------------|-------------9--9--9--9--------------------------|
D|-------------10-10-10-10-9--9--9--9--10-10-10-10-|-------------------------9--9--9--9--------------|
A|-------------------------------------------------|-7--7--7--7--------------------------10-10-10-10-|
E|-------------------------------------------------|-------------------------------------------------|


E|-------------------------------------------------|-------------------------------------------------|
B|-------------------------------------------------|-------------------------------------------------|
G|-------------------------------------------------|-------------10-10-10-10-9--9--9--9--7--7--7--7--|
D|-------------------------7--7--7--7--9--9--9--9--|-------------------------------------------------|
A|-9--9--9--9--10-10-10-10-------------------------|-8--8--8--8--------------------------------------|
E|-------------------------------------------------|-------------------------------------------------|


E|-------------------------------------------------|-------------------------------------------------|
B|-------------------------------------------------|-------------------------------------------------|
G|-9--9--9--9--------------------------------------|-------------9--9--9--9--------------------------|
D|-------------10-10-10-10-9--9--9--9--10-10-10-10-|-------------------------9--9--9--9--------------|
A|-------------------------------------------------|-7--7--7--7--------------------------10-10-10-10-|
E|-------------------------------------------------|-------------------------------------------------|


E|-------------------------------------------------|-------------------------------------------------|
B|-------------------------------------------------|-------------------------------------------------|
G|-------------------------------------------------|-------------10-10-10-10-9--9--9--9--7--7--7--7--|
D|-------------------------7--7--7--7--9--9--9--9--|-------------------------------------------------|
A|-9--9--9--9--10-10-10-10-------------------------|-8--8--8--8--------------------------------------|
E|-------------------------------------------------|-------------------------------------------------|


E|-------------------------------------------------|-------------------------------------------------|
B|-------------------------------------------------|-------------------------------------------------|
G|-9--9--9--9--------------------------------------|-------------------------------------------------|
D|-------------10-10-10-10-9--9--9--9--10-10-10-10-|-0--0--0--0--0--0--0--0--0--0--0--0--0--0--0--0--|
A|-------------------------------------------------|-2--2--2--2--2--2--2--2--2--2--2--2--2--2--2--2--|
E|-------------------------------------------------|-------------------------------------------------|


E|-------------------------------------------------|-------------------------------------------------|
B|-------------------------------------------------|-------------------------------------------------|
G|-------------------------------------------------|-------------------------------------------------|
D|-0--0--0--0--0--0--0--0--0--0--0--0--0--0--0--0--|-0--0--0--0--0--0--0--0--0--0--0--0--0--0--0--0--|
A|-1--1--1--1--1--1--1--1--1--1--1--1--1--1--1--1--|-2--2--2--2--2--2--2--2--2--2--2--2--2--2--2--2--|
E|-------------------------------------------------|-------------------------------------------------|


E|-------------------------------------------------|-------------------------------------------------|
B|-------------------------------------------------|-------------------------------------------------|
G|-------------------------------------------------|-------------------------------------------------|
D|-3--3--3--3--------------------------4--4--4--4--|-0--0--0--0--0--0--0--0--0--0--0--0--0--0--0--0--|
A|-------------------------3--3--3--3--------------|-2--2--2--2--2--2--2--2--2--2--2--2--2--2--2--2--|
E|-------------2--2--2--2--------------------------|-------------------------------------------------|


E|-------------------------------------------------|-------------------------------------------------|
B|-------------------------------------------------|-------------------------------------------------|
G|-------------------------------------------------|-------------------------------------------------|
D|-0--0--0--0--0--0--0--0--0--0--0--0--0--0--0--0--|-0--0--0--0--0--0--0--0--0--0--0--0--0--0--0--0--|
A|-1--1--1--1--1--1--1--1--1--1--1--1--1--1--1--1--|-2--2--2--2--2--2--2--2--2--2--2--2--2--2--2--2--|
E|-------------------------------------------------|-------------------------------------------------|


E|-------------------------------------------------|-------------------------------------------------|
B|-------------------------------------------------|-------------------------------------------------|
G|-------------------------------------------------|-------------------------------------------------|
D|-3--3--3--3--------------------------4--4--4--4--|-0--0--0--0--0--0--0--0--0--0--0--0--0--0--0--0--|
A|-------------------------3--3--3--3--------------|-2--2--2--2--2--2--2--2--2--2--2--2--2--2--2--2--|
E|-------------2--2--2--2--------------------------|-------------------------------------------------|


E|-------------------------------------------------|-------------------------------------------------|
B|-------------------------------------------------|-------------------------------------------------|
G|-------------------------------------------------|-------------------------------------------------|
D|-0--0--0--0--0--0--0--0--0--0--0--0--0--0--0--0--|-0--0--0--0--0--0--0--0--0--0--0--0--0--0--0--0--|
A|-1--1--1--1--1--1--1--1--1--1--1--1--1--1--1--1--|-2--2--2--2--2--2--2--2--2--2--2--2--2--2--2--2--|
E|-------------------------------------------------|-------------------------------------------------|


E|-------------------------------------------------|-------------------------------------------------|
B|-------------------------------------------------|-------------------------------------------------|
G|-------------------------------------------------|-------------------------------------------------|
D|-3--3--3--3--------------------------4--4--4--4--|-0--0--0--0--0--0--0--0--0--0--0--0--0--0--0--0--|
A|-------------------------3--3--3--3--------------|-2--2--2--2--2--2--2--2--2--2--2--2--2--2--2--2--|
E|-------------2--2--2--2--------------------------|-------------------------------------------------|


E|-------------------------------------------------|-------------------------------------------------|
B|-------------------------------------------------|-------------------------------------------------|
G|-------------------------------------------------|-------------------------------------------------|
D|-0--0--0--0--0--0--0--0--0--0--0--0--0--0--0--0--|-0--0--0--0--0--0--0--0--0--0--0--0--0--0--0--0--|
A|-1--1--1--1--1--1--1--1--1--1--1--1--1--1--1--1--|-2--2--2--2--2--2--2--2--2--2--2--2--2--2--2--2--|
E|-------------------------------------------------|-------------------------------------------------|


E|-------------------------------------------------|--------|--------|--------|--------|
B|-------------------------------------------------|--------|--------|--------|--------|
G|-------------------------------------------------|--------|--------|--------|--------|
D|-6--6--6--6--------------------------7--7--7--7--|--------|--------|--------|--------|
A|-------------0--0--0--0--6--6--6--6--------------|--------|--------|--------|--------|
E|-------------------------------------------------|--------|--------|--------|--------|


E|-------------3-----------------------3-----------|-------------1-----------------------1-----------|
B|-----------------5-----------------------5-------|-----------------1-----------------------1-------|
G|---------5-----------5-----------5-----------5---|---------3-----------3-----------3-----------3---|
D|-----5-----------------------5-------------------|-----3-----------------------3-------------------|
A|-3-----------------------3-----------------------|-1-----------------------1-----------------------|
E|-------------------------------------------------|-------------------------------------------------|


E|-------------5-----------------------5-----------|-------------------------------------------------|
B|---------6-------6---------------6-------6-------|---------3-----------3-----------3-----------3---|
G|-----7---------------7-------7---------------7---|-----3-----------2-----------1-----------2-------|
D|-------------------------------------------------|-0-----------0-----------0-----------0-----------|
A|-5-----------------------5-----------------------|-------------------------------------------------|
E|-------------------------------------------------|-------------------------------------------------|


E|-------------3-----------------------3-----------|-------------1-----------------------1-----------|
B|-----------------5-----------------------5-------|-----------------1-----------------------1-------|
G|---------5-----------5-----------5-----------5---|---------3-----------3-----------3-----------3---|
D|-----5-----------------------5-------------------|-----3-----------------------3-------------------|
A|-3-----------------------3-----------------------|-1-----------------------1-----------------------|
E|-------------------------------------------------|-------------------------------------------------|


E|-------------5-----------------------5-----------|-------------------------------------------------|
B|---------6-------6---------------6-------6-------|---------3-----------3-----------3-----------3---|
G|-----7---------------7-------7---------------7---|-----3-----------2-----------1-----------2-------|
D|-------------------------------------------------|-0-----------0-----------0-----------0-----------|
A|-5-----------------------5-----------------------|-------------------------------------------------|
E|-------------------------------------------------|-------------------------------------------------|


E|-------------3-----------------------3-----------|-------------1-----------------------1-----------|
B|-----------------5-----------------------5-------|-----------------1-----------------------1-------|
G|---------5-----------5-----------5-----------5---|---------3-----------3-----------3-----------3---|
D|-----5-----------------------5-------------------|-----3-----------------------3-------------------|
A|-3-----------------------3-----------------------|-1-----------------------1-----------------------|
E|-------------------------------------------------|-------------------------------------------------|


E|-------------5-----------------------5-----------|-------------------------------------------------|
B|---------6-------6---------------6-------6-------|---------3-----------3-----------3-----------3---|
G|-----7---------------7-------7---------------7---|-----3-----------2-----------1-----------2-------|
D|-------------------------------------------------|-0-----------0-----------0-----------0-----------|
A|-5-----------------------5-----------------------|-------------------------------------------------|
E|-------------------------------------------------|-------------------------------------------------|


E|-------------3-----------------------3-----------|-------------1-----------------------1-----------|
B|-----------------5-----------------------5-------|-----------------1-----------------------1-------|
G|---------5-----------5-----------5-----------5---|---------3-----------3-----------3-----------3---|
D|-----5-----------------------5-------------------|-----3-----------------------3-------------------|
A|-3-----------------------3-----------------------|-1-----------------------1-----------------------|
E|-------------------------------------------------|-------------------------------------------------|


E|-------------5-----------------------5-----------|-------------------------------------------------|
B|---------6-------6---------------6-------6-------|---------3-----------3-----------3-----------3---|
G|-----7---------------7-------7---------------7---|-----3-----------2-----------1-----------2-------|
D|-------------------------------------------------|-0-----------0-----------0-----------0-----------|
A|-5-----------------------5-----------------------|-------------------------------------------------|
E|-------------------------------------------------|-------------------------------------------------|


E|-------------3-----------------------3-----------|-------------1-----------------------1-----------|
B|-----------------5-----------------------5-------|-----------------1-----------------------1-------|
G|---------5-----------5-----------5-----------5---|---------3-----------3-----------3-----------3---|
D|-----5-----------------------5-------------------|-----3-----------------------3-------------------|
A|-3-----------------------3-----------------------|-1-----------------------1-----------------------|
E|-------------------------------------------------|-------------------------------------------------|


E|-------------5-----------------------5-----------|-------------------------------------------------|
B|---------6-------6---------------6-------6-------|---------3-----------3-----------3-----------3---|
G|-----7---------------7-------7---------------7---|-----3-----------2-----------1-----------2-------|
D|-------------------------------------------------|-0-----------0-----------0-----------0-----------|
A|-5-----------------------5-----------------------|-------------------------------------------------|
E|-------------------------------------------------|-------------------------------------------------|


E|-----------------------------------------------------------------|---------------------------------------|
B|-----------------------------------------------------------------|----------------------------------7----|
G|-----------------------------------------------------------------|----------------------------------8----|
D|-7---0--0--0--0--5---0--0--0--0--7---0--0--0--0--8---0--0--0--0--|----------------------------------8----|
A|-----------------------------------------------------------------|-5---------------5---3---5---6----6----|
E|-----------------------------------------------------------------|-----3--3--3--3------------------------|


E|-----------------------------------------------------------------|---------------------------------------------------------|
B|-----------------------------------------------------------------|---------------------------------------------------------|
G|-----------------------------------------------------------------|---------------------------------------------------------|
D|-7---0--0--0--0--5---0--0--0--0--7---0--0--0--0--8---0--0--0--0--|---------------------------------------------------------|
A|-----------------------------------------------------------------|---------------1---1--1--1-------------------------------|
E|-----------------------------------------------------------------|-3---3--3--3-----------------1---1--1--1---4---4--4--4---|


E|-----------------------------------------------------------------|---------------------------------------|
B|-----------------------------------------------------------------|----------------------------------7----|
G|-----------------------------------------------------------------|----------------------------------8----|
D|-7---0--0--0--0--5---0--0--0--0--7---0--0--0--0--8---0--0--0--0--|----------------------------------8----|
A|-----------------------------------------------------------------|-5---------------5---3---5---6----6----|
E|-----------------------------------------------------------------|-----3--3--3--3------------------------|


E|-----------------------------------------------------------------|---------------------------------------------------------|
B|-----------------------------------------------------------------|---------------------------------------------------------|
G|-----------------------------------------------------------------|---------------------------------------------------------|
D|-7---0--0--0--0--5---0--0--0--0--7---0--0--0--0--8---0--0--0--0--|---------------------------------------------------------|
A|-----------------------------------------------------------------|---------------1---1--1--1-------------------------------|
E|-----------------------------------------------------------------|-3---3--3--3-----------------1---1--1--1---4---4--4--4---|


E|-----------------------------------------------------------------|-----------------------------------------------------------------|
B|-----------------------------------------------------------------|-----------------------------------------------------------------|
G|-----------------------------------------------------------------|-----------------------------------------------------------------|
D|-----------------------------------------------------------------|-4---------------4---------------3---------------3---------------|
A|-7---------------5---------------7---------------8---------------|-2---2--2--2--2--2---2--2--2--2--1---1--1--1--1--1---1--1--1--1--|
E|-5---5--5--5--5--5---5--5--5--5--5---5--5--5--5--5---5--5--5--5--|-----------------------------------------------------------------|


E|-----------------------------------------------------------------|-------------------------------------------------------------------------|
B|-----------------------------------------------------------------|-------------------------------------------------------------------------|
G|-----------------------------------------------------------------|-------------------------------------------------------------------------|
D|-----------------------------------------------------------------|-------------------------------------------------------------------------|
A|-7---------------5---------------7---------------8---------------|-------------------5--5--5--5--5--5--0--0--0--0--0--0--3--3--3--3--3--3--|
E|-5---5--5--5--5--5---5--5--5--5--5---5--5--5--5--5---5--5--5--5--|-7--7--7--7--7--7--------------------------------------------------------|


E|-----------------------------------------------------------------|-----------------------------------------------------------------|
B|-----------------------------------------------------------------|-----------------------------------------------------------------|
G|-----------------------------------------------------------------|-----------------------------------------------------------------|
D|-----------------------------------------------------------------|-4---------------4---------------3---------------3---------------|
A|-7---------------5---------------7---------------8---------------|-2---2--2--2--2--2---2--2--2--2--1---1--1--1--1--1---1--1--1--1--|
E|-5---5--5--5--5--5---5--5--5--5--5---5--5--5--5--5---5--5--5--5--|-----------------------------------------------------------------|


E|-----------------------------------------------------------------|-------------------------------------------------------------------------|
B|-----------------------------------------------------------------|-------------------------------------------------------------------------|
G|-----------------------------------------------------------------|-------------------------------------------------------------------------|
D|-----------------------------------------------------------------|-------------------------------------------------------------------------|
A|-7---------------5---------------7---------------8---------------|-------------------5--5--5--5--5--5--0--0--0--0--0--0--3--3--3--3--3--3--|
E|-5---5--5--5--5--5---5--5--5--5--5---5--5--5--5--5---5--5--5--5--|-7--7--7--7--7--7--------------------------------------------------------|


E|-------------5-----------------------5-----------|-------------1-----------------------1-----------|
B|-----------------5-----------------------5-------|-----------------1-----------------------1-------|
G|---------7-----------7-----------7-----------7---|---------3-----------3-----------3-----------3---|
D|-----7-----------------------7-------------------|-----3-----------------------3-------------------|
A|-5-----------------------5-----------------------|-1-----------------------1-----------------------|
E|-------------------------------------------------|-------------------------------------------------|


E|-------------5-----------------------5-----------|-------------------------------------------------|
B|---------6-------6---------------6-------6-------|---------3-----------3-----------3-----------3---|
G|-----7---------------7-------7---------------7---|-----3-----------2-----------1-----------2-------|
D|-------------------------------------------------|-0-----------0-----------0-----------0-----------|
A|-5-----------------------5-----------------------|-------------------------------------------------|
E|-------------------------------------------------|-------------------------------------------------|


E|-------------3-----------------------3-----------|-------------1-----------------------1-----------|
B|-----------------5-----------------------5-------|-----------------1-----------------------1-------|
G|---------5-----------5-----------5-----------5---|---------3-----------3-----------3-----------3---|
D|-----5-----------------------5-------------------|-----3-----------------------3-------------------|
A|-3-----------------------3-----------------------|-1-----------------------1-----------------------|
E|-------------------------------------------------|-------------------------------------------------|


E|-------------5-----------------------5-----------|-------------------------------------------------|
B|---------6-------6---------------6-------6-------|---------3-----------3-----------3-----------3---|
G|-----7---------------7-------7---------------7---|-----3-----------2-----------1-----------2-------|
D|-------------------------------------------------|-0-----------0-----------0-----------0-----------|
A|-5-----------------------5-----------------------|-------------------------------------------------|
E|-------------------------------------------------|-------------------------------------------------|


E|-------------3-----------------------3-----------|-------------1-----------------------1-----------|
B|-----------------5-----------------------5-------|-----------------1-----------------------1-------|
G|---------5-----------5-----------5-----------5---|---------3-----------3-----------3-----------3---|
D|-----5-----------------------5-------------------|-----3-----------------------3-------------------|
A|-3-----------------------3-----------------------|-1-----------------------1-----------------------|
E|-------------------------------------------------|-------------------------------------------------|


E|-------------5-----------------------5-----------|-------------------------------------------------|
B|---------6-------6---------------6-------6-------|---------3-----------3-----------3-----------3---|
G|-----7---------------7-------7---------------7---|-----3-----------2-----------1-----------2-------|
D|-------------------------------------------------|-0-----------0-----------0-----------0-----------|
A|-5-----------------------5-----------------------|-------------------------------------------------|
E|-------------------------------------------------|-------------------------------------------------|


E|-------------3-----------------------3-----------|-------------1-----------------------1-----------|
B|-----------------5-----------------------5-------|-----------------1-----------------------1-------|
G|---------5-----------5-----------5-----------5---|---------3-----------3-----------3-----------3---|
D|-----5-----------------------5-------------------|-----3-----------------------3-------------------|
A|-3-----------------------3-----------------------|-1-----------------------1-----------------------|
E|-------------------------------------------------|-------------------------------------------------|


E|-------------5-----------------------5-----------|-------------------------------------------------|
B|---------6-------6---------------6-------6-------|---------3-----------3-----------3-----------3---|
G|-----7---------------7-------7---------------7---|-----3-----------2-----------1-----------2-------|
D|-------------------------------------------------|-0-----------0-----------0-----------0-----------|
A|-5-----------------------5-----------------------|-------------------------------------------------|
E|-------------------------------------------------|-------------------------------------------------|


E|--------|---------------------------|---------------------|---------------------------|
B|--------|---------------------------|---------------------|---------------------------|
G|--------|---------------------------|---------------------|---------------------------|
D|--------|---------------------------|------3----2---------|----------------------7----|
A|--------|------3---2---3---2---3----|-2----1----0----3----|-6----3---2---3---2--------|
E|--------|------1---0---1---0---1----|-0--------------1----|-4----1---0---1---0--------|


E|------------------------|---------------------------|---------------------|---------------------------|
B|-5---6---5--------------|------6---5---6---5---6----|---------------------|---------------------------|
G|--------------7---------|-7-------------------------|------7----6---------|-5-------------------------|
D|-------------------6----|---------------------------|-6--------------7----|------6---5---6---5---7----|
A|------------------------|---------------------------|---------------------|---------------------------|
E|------------------------|---------------------------|---------------------|---------------------------|


E|------------------------|---------------------------|---------------------|---------------------------|
B|-5---6---5--------------|------6---5---6---5---6----|---------------------|---------------------------|
G|--------------7---------|-7-------------------------|------7----6---------|-5-------------------------|
D|-------------------6----|---------------------------|-6--------------7----|------6---5---6---5---7----|
A|------------------------|---------------------------|---------------------|---------------------------|
E|------------------------|---------------------------|---------------------|---------------------------|


E|------------------------|---------------------------|---------------------|---------------------------|
B|-5---6---5--------------|------6---5---6---5---6----|---------------------|---------------------------|
G|--------------7---------|-7-------------------------|------7----6---------|-5-------------------------|
D|-------------------6----|---------------------------|-6--------------7----|------6---5---6---5---7----|
A|------------------------|---------------------------|---------------------|---------------------------|
E|------------------------|---------------------------|---------------------|---------------------------|


E|------------------------|---------------------------|---------------------|---------------------------|
B|-5---6---5--------------|------6---5---6---5---6----|---------------------|---------------------------|
G|--------------7---------|-7-------------------------|------7----6---------|-5-------------------------|
D|-------------------6----|---------------------------|-6--------------7----|------6---5---6---5---7----|
A|------------------------|---------------------------|---------------------|---------------------------|
E|------------------------|---------------------------|---------------------|---------------------------|


E|---------------------|---------------------|---------------------|---------------------|
B|---------------------|---------------------|---------------------|---------------------|
G|------9--------------|---------------------|------10---9----7----|-9-------------------|
D|-----------9---------|-----------7----9----|---------------------|------10---9----10---|
A|-7--------------10---|-9----10-------------|-8-------------------|---------------------|
E|---------------------|---------------------|---------------------|---------------------|


E|---------------------|---------------------|---------------------|---------------------|
B|---------------------|---------------------|---------------------|---------------------|
G|------9--------------|---------------------|------10---9----7----|-9-------------------|
D|-----------9---------|-----------7----9----|---------------------|------10---9----10---|
A|-7--------------10---|-9----10-------------|-8-------------------|---------------------|
E|---------------------|---------------------|---------------------|---------------------|


E|---------------------|---------------------|---------------------|---------------------|
B|---------------------|---------------------|---------------------|---------------------|
G|------9--------------|---------------------|------10---9----7----|-9-------------------|
D|-----------9---------|-----------7----9----|---------------------|------10---9----10---|
A|-7--------------10---|-9----10-------------|-8-------------------|---------------------|
E|---------------------|---------------------|---------------------|---------------------|


E|---------------------|---------------------|---------------------|---------------------|
B|---------------------|---------------------|---------------------|---------------------|
G|------9--------------|---------------------|------10---9----7----|-9-------------------|
D|-----------9---------|-----------7----9----|---------------------|------10---9----10---|
A|-7--------------10---|-9----10-------------|-8-------------------|---------------------|
E|---------------------|---------------------|---------------------|---------------------|


E|---------------------|---------------------|---------------------|---------------------|
B|---------------------|---------------------|---------------------|---------------------|
G|------9--------------|---------------------|------10---9----7----|-9-------------------|
D|-----------9---------|-----------7----9----|---------------------|------10---9----10---|
A|-7--------------10---|-9----10-------------|-8-------------------|---------------------|
E|---------------------|---------------------|---------------------|---------------------|


E|---------------------|---------------------|---------------------|---------------------|
B|---------------------|---------------------|---------------------|---------------------|
G|------9--------------|---------------------|------10---9----7----|-9-------------------|
D|-----------9---------|-----------7----9----|---------------------|------10---9----10---|
A|-7--------------10---|-9----10-------------|-8-------------------|---------------------|
E|---------------------|---------------------|---------------------|---------------------|


E|---------------------|---------------------|---------------------|---------------------|
B|---------------------|---------------------|---------------------|---------------------|
G|------9--------------|---------------------|------10---9----7----|-9-------------------|
D|-----------9---------|-----------7----9----|---------------------|------10---9----10---|
A|-7--------------10---|-9----10-------------|-8-------------------|---------------------|
E|---------------------|---------------------|---------------------|---------------------|


E|---------------------|---------------------|---------------------|---------------------|
B|---------------------|---------------------|---------------------|---------------------|
G|------9--------------|---------------------|------10---9----7----|-9-------------------|
D|-----------9---------|-----------7----9----|---------------------|------10---9----10---|
A|-7--------------10---|-9----10-------------|-8-------------------|---------------------|
E|---------------------|---------------------|---------------------|---------------------|


E|--------|--------|
B|--------|--------|
G|--------|--------|
D|--------|--------|
A|-2------|-2------|
E|-0------|-0------|









Track 3: Tchort
Back to top
G|--------|--------|--------|--------|--------|--------|--------|--------|-------------------------------------------------|
D|--------|--------|--------|--------|--------|--------|--------|--------|-------------------------------------------------|
A|--------|--------|--------|--------|--------|--------|--------|--------|-------------------------------------------------|
E|--------|--------|--------|--------|--------|--------|--------|--------|-0--0--0--0--0--0--0--0--0--0--0--0--0--0--0--0--|


G|-------------------------------------------------|-------------------------------------------------|
D|-------------------------------------------------|-------------------------------------------------|
A|-------------------------------------------------|-------------------------------------------------|
E|-0--0--0--0--0--0--0--0--0--0--0--0--0--0--0--0--|-1--1--1--1--1--1--1--1--1--1--1--1--1--1--1--1--|


G|-------------------------------------------------|-------------------------------------------------|
D|-------------------------3--3--3--3--3--3--3--3--|-------------------------------------------------|
A|-3--3--3--3--3--3--3--3--------------------------|-------------------------------------------------|
E|-------------------------------------------------|-0--0--0--0--0--0--0--0--0--0--0--0--0--0--0--0--|


G|-------------------------------------------------|-------------------------------------------------|
D|-------------------------------------------------|-------------------------------------------------|
A|-------------------------------------------------|-------------------------------------------------|
E|-0--0--0--0--0--0--0--0--0--0--0--0--0--0--0--0--|-1--1--1--1--1--1--1--1--1--1--1--1--1--1--1--1--|


G|-------------------------------------------------|-------------------------------------------------|
D|-------------------------3--3--3--3--3--3--3--3--|-------------------------------------------------|
A|-3--3--3--3--3--3--3--3--------------------------|-------------------------------------------------|
E|-------------------------------------------------|-0--0--0--0--0--0--0--0--0--0--0--0--0--0--0--0--|


G|-------------------------------------------------|-------------------------------------------------|
D|-------------------------------------------------|-------------------------------------------------|
A|-------------------------------------------------|-------------------------------------------------|
E|-0--0--0--0--0--0--0--0--0--0--0--0--0--0--0--0--|-1--1--1--1--1--1--1--1--1--1--1--1--1--1--1--1--|


G|-------------------------------------------------|-------------------------------------------------|
D|-------------------------3--3--3--3--3--3--3--3--|-------------------------------------------------|
A|-3--3--3--3--3--3--3--3--------------------------|-------------------------------------------------|
E|-------------------------------------------------|-0--0--0--0--0--0--0--0--0--0--0--0--0--0--0--0--|


G|-------------------------------------------------|-------------------------------------------------|
D|-------------------------------------------------|-------------------------------------------------|
A|-------------------------------------------------|-------------------------------------------------|
E|-0--0--0--0--0--0--0--0--0--0--0--0--0--0--0--0--|-1--1--1--1--1--1--1--1--1--1--1--1--1--1--1--1--|


G|-------------------------------------------------|--------|--------|--------|-----------------|
D|-------------------------3--3--3--3--3--3--3--3--|--------|--------|--------|-----------------|
A|-3--3--3--3--3--3--3--3--------------------------|-3------|-3------|-3------|-----------------|
E|-------------------------------------------------|--------|--------|--------|-4-----3---3-----|


G|-------------------------------------------------|-------------------------------------------------|
D|-------------------------------------------------|-------------------------------------------------|
A|-2--2--2--2--2--2--2--2--2--2--2--2--2--2--2--2--|-1--1--1--1--1--1--1--1--1--1--1--1--1--1--1--1--|
E|-------------------------------------------------|-------------------------------------------------|


G|-------------------------------------------------|-------------------------------------------------|
D|-------------------------------------------------|-3--3--3--3--------------------------4--4--4--4--|
A|-2--2--2--2--2--2--2--2--2--2--2--2--2--2--2--2--|-------------------------3--3--3--3--------------|
E|-------------------------------------------------|-------------2--2--2--2--------------------------|


G|-------------------------------------------------|-------------------------------------------------|
D|-------------------------------------------------|-------------------------------------------------|
A|-2--2--2--2--2--2--2--2--2--2--2--2--2--2--2--2--|-1--1--1--1--1--1--1--1--1--1--1--1--1--1--1--1--|
E|-------------------------------------------------|-------------------------------------------------|


G|-------------------------------------------------|-------------------------------------------------|
D|-------------------------------------------------|-3--3--3--3--------------------------4--4--4--4--|
A|-2--2--2--2--2--2--2--2--2--2--2--2--2--2--2--2--|-------------------------3--3--3--3--------------|
E|-------------------------------------------------|-------------2--2--2--2--------------------------|


G|-------------------------------------------------|-------------------------------------------------|
D|-------------------------------------------------|-------------------------------------------------|
A|-2--2--2--2--2--2--2--2--2--2--2--2--2--2--2--2--|-1--1--1--1--1--1--1--1--1--1--1--1--1--1--1--1--|
E|-------------------------------------------------|-------------------------------------------------|


G|-------------------------------------------------|-------------------------------------------------|
D|-------------------------------------------------|-3--3--3--3--------------------------4--4--4--4--|
A|-2--2--2--2--2--2--2--2--2--2--2--2--2--2--2--2--|-------------------------3--3--3--3--------------|
E|-------------------------------------------------|-------------2--2--2--2--------------------------|


G|-------------------------------------------------|-------------------------------------------------|
D|-------------------------------------------------|-------------------------------------------------|
A|-2--2--2--2--2--2--2--2--2--2--2--2--2--2--2--2--|-1--1--1--1--1--1--1--1--1--1--1--1--1--1--1--1--|
E|-------------------------------------------------|-------------------------------------------------|


G|-------------------------------------------------|-------------------------------------------------|
D|-------------------------------------------------|-3--3--3--3--------------------------4--4--4--4--|
A|-2--2--2--2--2--2--2--2--2--2--2--2--2--2--2--2--|-------------------------3--3--3--3--------------|
E|-------------------------------------------------|-------------2--2--2--2--------------------------|


G|-------------------------------------------------|-------------------------------------------------|
D|-------------------------------------------------|-------------------------------------------------|
A|-------------------------------------------------|-------------------------------------------------|
E|-0--0--0--0--0--0--0--0--0--0--0--0--0--0--0--0--|-0--0--0--0--0--0--0--0--0--0--0--0--0--0--0--0--|


G|-------------------------------------------------|-------------------------------------------------|
D|-------------------------------------------------|-------------------------3--3--3--3--3--3--3--3--|
A|-------------------------------------------------|-3--3--3--3--3--3--3--3--------------------------|
E|-1--1--1--1--1--1--1--1--1--1--1--1--1--1--1--1--|-------------------------------------------------|


G|-------------------------------------------------|-------------------------------------------------|
D|-------------------------------------------------|-------------------------------------------------|
A|-------------------------------------------------|-------------------------------------------------|
E|-0--0--0--0--0--0--0--0--0--0--0--0--0--0--0--0--|-0--0--0--0--0--0--0--0--0--0--0--0--0--0--0--0--|


G|-------------------------------------------------|-------------------------------------------------|
D|-------------------------------------------------|-------------------------3--3--3--3--3--3--3--3--|
A|-------------------------------------------------|-3--3--3--3--3--3--3--3--------------------------|
E|-1--1--1--1--1--1--1--1--1--1--1--1--1--1--1--1--|-------------------------------------------------|


G|-------------------------------------------------|-------------------------------------------------|
D|-------------------------------------------------|-------------------------------------------------|
A|-------------------------------------------------|-------------------------------------------------|
E|-0--0--0--0--0--0--0--0--0--0--0--0--0--0--0--0--|-0--0--0--0--0--0--0--0--0--0--0--0--0--0--0--0--|


G|-------------------------------------------------|-------------------------------------------------|
D|-------------------------------------------------|-------------------------3--3--3--3--3--3--3--3--|
A|-------------------------------------------------|-3--3--3--3--3--3--3--3--------------------------|
E|-1--1--1--1--1--1--1--1--1--1--1--1--1--1--1--1--|-------------------------------------------------|


G|-------------------------------------------------|-------------------------------------------------|
D|-------------------------------------------------|-------------------------------------------------|
A|-------------------------------------------------|-------------------------------------------------|
E|-0--0--0--0--0--0--0--0--0--0--0--0--0--0--0--0--|-0--0--0--0--0--0--0--0--0--0--0--0--0--0--0--0--|


G|-------------------------------------------------|-------------------------------------------------|
D|-------------------------------------------------|-------------------------3--3--3--3--3--3--3--3--|
A|-------------------------------------------------|-3--3--3--3--3--3--3--3--------------------------|
E|-1--1--1--1--1--1--1--1--1--1--1--1--1--1--1--1--|-------------------------------------------------|


G|-------------------------------------------------|-------------------------------------------------|
D|-------------------------------------------------|-------------------------------------------------|
A|-2--2--2--2--2--2--2--2--2--2--2--2--2--2--2--2--|-1--1--1--1--1--1--1--1--1--1--1--1--1--1--1--1--|
E|-------------------------------------------------|-------------------------------------------------|


G|-------------------------------------------------|-------------------------------------------------|
D|-------------------------------------------------|-3--3--3--3--------------------------4--4--4--4--|
A|-2--2--2--2--2--2--2--2--2--2--2--2--2--2--2--2--|-------------------------3--3--3--3--------------|
E|-------------------------------------------------|-------------2--2--2--2--------------------------|


G|-------------------------------------------------|-------------------------------------------------|
D|-------------------------------------------------|-------------------------------------------------|
A|-2--2--2--2--2--2--2--2--2--2--2--2--2--2--2--2--|-1--1--1--1--1--1--1--1--1--1--1--1--1--1--1--1--|
E|-------------------------------------------------|-------------------------------------------------|


G|-------------------------------------------------|-------------------------------------------------|
D|-------------------------------------------------|-3--3--3--3--------------------------4--4--4--4--|
A|-2--2--2--2--2--2--2--2--2--2--2--2--2--2--2--2--|-------------------------3--3--3--3--------------|
E|-------------------------------------------------|-------------2--2--2--2--------------------------|


G|-------------------------------------------------|-------------------------------------------------|
D|-------------------------------------------------|-------------------------------------------------|
A|-2--2--2--2--2--2--2--2--2--2--2--2--2--2--2--2--|-1--1--1--1--1--1--1--1--1--1--1--1--1--1--1--1--|
E|-------------------------------------------------|-------------------------------------------------|


G|-------------------------------------------------|-------------------------------------------------|
D|-------------------------------------------------|-3--3--3--3--------------------------4--4--4--4--|
A|-2--2--2--2--2--2--2--2--2--2--2--2--2--2--2--2--|-------------------------3--3--3--3--------------|
E|-------------------------------------------------|-------------2--2--2--2--------------------------|


G|-------------------------------------------------|-------------------------------------------------|
D|-------------------------------------------------|-------------------------------------------------|
A|-2--2--2--2--2--2--2--2--2--2--2--2--2--2--2--2--|-1--1--1--1--1--1--1--1--1--1--1--1--1--1--1--1--|
E|-------------------------------------------------|-------------------------------------------------|


G|-------------------------------------------------|-------------------------------------------------|
D|-------------------------------------------------|-3--3--3--3--------------------------4--4--4--4--|
A|-2--2--2--2--2--2--2--2--2--2--2--2--2--2--2--2--|-------------------------3--3--3--3--------------|
E|-------------------------------------------------|-------------2--2--2--2--------------------------|


G|--------|--------------------|--------|--------|--------|--------------------|--------|
D|--------|--------------------|--------|--------|--------|--------------------|--------|
A|--------|-1------------------|--------|--------|-3------|-1------------------|--------|
E|-5------|-----------4----1---|-5------|--------|--------|-----------4----6---|-5------|


G|-3----2----1----2----|--------|--------------------|--------|-3----2----1----2----|
D|---------------------|--------|--------------------|--------|---------------------|
A|---------------------|-3------|-1------------------|--------|---------------------|
E|---------------------|--------|-----------4----6---|-5------|---------------------|


G|--------|--------------------|--------|-3----2----1----2----|--------|--------------------|
D|--------|--------------------|--------|---------------------|--------|--------------------|
A|-3------|-1------------------|--------|---------------------|-3------|-1------------------|
E|--------|-----------4----6---|-5------|---------------------|--------|-----------4----6---|


G|--------|-3----2----1----2----|--------|--------------------|--------|-3----2----1----2----|
D|--------|---------------------|--------|--------------------|--------|---------------------|
A|--------|---------------------|-3------|-1------------------|--------|---------------------|
E|-5------|---------------------|--------|-----------4----6---|-5------|---------------------|


G|-------------------------------------------|-------------------------------------------|
D|-------------------------------------------|-------------------------------------------|
A|-------------------------------------------|-------------------------------------------|
E|-5----5---5---5---5---5----5---5---5---5---|-3----3---3---1---3---4----4---4---4---4---|


G|-------------------------------------------|---------------------------------------------------------|
D|-------------------------------------------|---------------------------------------------------------|
A|-------------------------------------------|---------------1---1--1--1-------------------------------|
E|-5----5---5---5---5---5----5---5---5---5---|-3---3--3--3-----------------1---1--1--1---4---4--4--4---|


G|-------------------------------------------|-------------------------------------------|
D|-------------------------------------------|-------------------------------------------|
A|-------------------------------------------|-------------------------------------------|
E|-5----5---5---5---5---5----5---5---5---5---|-3----3---3---1---3---4----4---4---4---4---|


G|-------------------------------------------|---------------------------------------------------------|
D|-------------------------------------------|---------------------------------------------------------|
A|-------------------------------------------|---------------1---1--1--1-------------------------------|
E|-5----5---5---5---5---5----5---5---5---5---|-3---3--3--3-----------------1---1--1--1---4---4--4--4---|


G|-------------------------------------------------------------------------|-------------------------------------------------------------------------|
D|-------------------------------------------------------------------------|-------------------------------------------------------------------------|
A|-------------------------------------------------------------------------|-------------------------------------------------------------------------|
E|-5--5--5--5--5--5--5--5--5--5--5--5--5--5--5--5--5--5--5--5--5--5--5--5--|-7--7--7--7--7--7--7--7--7--7--7--7--6--6--6--6--6--6--6--6--6--6--6--6--|


G|-------------------------------------------------------------------------|-------------------------------------------------------------------------|
D|-------------------------------------------------------------------------|-------------------------------------------------------------------------|
A|-------------------------------------------------------------------------|-------------------------------------------------------------------------|
E|-5--5--5--5--5--5--5--5--5--5--5--5--5--5--5--5--5--5--5--5--5--5--5--5--|-7--7--7--7--7--7--10-10-10-10-10-10-5--5--5--5--5--5--8--8--8--8--8--8--|


G|-------------------------------------------------------------------------|-------------------------------------------------------------------------|
D|-------------------------------------------------------------------------|-------------------------------------------------------------------------|
A|-------------------------------------------------------------------------|-------------------------------------------------------------------------|
E|-5--5--5--5--5--5--5--5--5--5--5--5--5--5--5--5--5--5--5--5--5--5--5--5--|-7--7--7--7--7--7--7--7--7--7--7--7--6--6--6--6--6--6--6--6--6--6--6--6--|


G|-------------------------------------------------------------------------|-------------------------------------------------------------------------|
D|-------------------------------------------------------------------------|-------------------------------------------------------------------------|
A|-------------------------------------------------------------------------|-------------------------------------------------------------------------|
E|-5--5--5--5--5--5--5--5--5--5--5--5--5--5--5--5--5--5--5--5--5--5--5--5--|-7--7--7--7--7--7--10-10-10-10-10-10-5--5--5--5--5--5--8--8--8--8--8--8--|


G|--------|--------------------|--------|--------|--------|--------------------|--------|
D|--------|--------------------|--------|--------|--------|--------------------|--------|
A|-3------|-1--------------1---|--------|--------|-3------|-1------------------|--------|
E|--------|-----------4--------|-5------|-5------|--------|-----------4----6---|-5------|


G|-3----2----1----2----|--------|--------------------|--------|-3----2----1----2----|
D|---------------------|--------|--------------------|--------|---------------------|
A|---------------------|-3------|-1------------------|--------|---------------------|
E|---------------------|--------|-----------4----6---|-5------|---------------------|


G|--------|--------------------|--------|-3----2----1----2----|---------------------|
D|--------|--------------------|--------|---------------------|---------------------|
A|-3------|-1------------------|--------|---------------------|------1----0---------|
E|--------|-----------4----6---|-5------|---------------------|-0--------------1----|


G|---------------------------|---------------------|---------------------------|---------------------|
D|---------------------------|---------------------|---------------------------|---------------------|
A|---------------------------|------1----0---------|---------------------------|------1----0---------|
E|-4----1---0---1---0---1----|-0--------------1----|-4----1---0---1---0---1----|-0--------------1----|


G|---------------------------|---------------------|---------------------------|---------------------|
D|---------------------------|---------------------|---------------------------|---------------------|
A|---------------------------|------1----0---------|---------------------------|------1----0---------|
E|-4----1---0---1---0---1----|-0--------------1----|-4----1---0---1---0---1----|-0--------------1----|


G|---------------------------|---------------------|---------------------------|---------------------|
D|---------------------------|---------------------|---------------------------|---------------------|
A|---------------------------|------1----0---------|---------------------------|------1----0---------|
E|-4----1---0---1---0---1----|-0--------------1----|-4----1---0---1---0---1----|-0--------------1----|


G|---------------------------|---------------------|---------------------------|---------------------|
D|---------------------------|---------------------|---------------------------|---------------------|
A|---------------------------|------1----0---------|---------------------------|------1----0---------|
E|-4----1---0---1---0---1----|-0--------------1----|-4----1---0---1---0---1----|-0--------------1----|


G|---------------------------|---------------------|---------------------------|--------|
D|---------------------------|---------------------|---------------------------|--------|
A|---------------------------|------1----0---------|---------------------------|--------|
E|-4----1---0---1---0---1----|-0--------------1----|-4----1---0---1---0---1----|-0------|


G|-----------------|--------|-----------------|--------|-----------------|--------|
D|-----------------|--------|-----------------|--------|-----------------|--------|
A|-----------------|--------|-----------------|--------|-----------------|--------|
E|-0-----0----0----|-1------|-1-----1----1----|-0------|-0-----0----0----|-1------|


G|-----------------|--------|-----------------|--------|-----------------|--------|
D|-----------------|--------|-----------------|--------|-----------------|--------|
A|-----------------|--------|-----------------|--------|-----------------|--------|
E|-1-----1----1----|-0------|-0-----0----0----|-1------|-1-----1----1----|-0------|


G|-----------------|--------|-----------------|--------|-----------------|--------|
D|-----------------|--------|-----------------|--------|-----------------|--------|
A|-----------------|--------|-----------------|--------|-----------------|--------|
E|-0-----0----0----|-1------|-1-----1----1----|-0------|-0-----0----0----|-1------|


G|-----------------|--------|-----------------|--------|-----------------|--------|
D|-----------------|--------|-----------------|--------|-----------------|--------|
A|-----------------|--------|-----------------|--------|-----------------|--------|
E|-1-----1----1----|-0------|-0-----0----0----|-1------|-1-----1----1----|-0------|


G|-----------------|--------|-----------------|--------|-----------------|--------|
D|-----------------|--------|-----------------|--------|-----------------|--------|
A|-----------------|--------|-----------------|--------|-----------------|--------|
E|-0-----0----0----|-1------|-1-----1----1----|-0------|-0-----0----0----|-1------|


G|-----------------|--------|--------|
D|-----------------|--------|--------|
A|-----------------|--------|--------|
E|-1-----1----1----|-0------|-0------|









Track 4: Keyboard
Back to top
E|--------|--------|--------|--------|--------|--------|--------|--------|--------|
B|--------|--------|--------|--------|--------|--------|--------|--------|--------|
G|--------|--------|--------|--------|--------|--------|--------|--------|--------|
D|--------|--------|--------|--------|--------|--------|--------|--------|--------|
A|--------|--------|--------|--------|--------|--------|--------|--------|--------|
E|--------|--------|--------|--------|--------|--------|--------|--------|--------|


E|--------|--------|--------|--------|--------|--------|--------|--------|--------|
B|--------|--------|--------|--------|--------|--------|--------|--------|--------|
G|--------|--------|--------|--------|--------|--------|--------|--------|--------|
D|--------|--------|--------|--------|--------|--------|--------|--------|--------|
A|--------|--------|--------|--------|--------|--------|--------|--------|--------|
E|--------|--------|--------|--------|--------|--------|--------|--------|--------|


E|--------|--------|--------|--------|--------|--------|--------|--------|--------|
B|--------|--------|--------|--------|--------|--------|--------|--------|--------|
G|--------|--------|--------|--------|--------|--------|--------|--------|--------|
D|--------|--------|--------|--------|--------|--------|--------|--------|--------|
A|--------|--------|--------|--------|--------|--------|--------|--------|--------|
E|--------|--------|--------|--------|--------|--------|--------|--------|--------|


E|--------|--------------------|--------------------|--------------------|--------|
B|--------|--------------------|--------------------|--------------------|--------|
G|--------|--------------------|--------------------|--------------------|--------|
D|--------|-0------------------|-0--------------0---|-0------------------|--------|
A|--------|-2------------------|-1--------------2---|-2------------------|--------|
E|--------|--------------------|--------------------|--------------------|--------|


E|--------------------|--------------------|--------------------|--------|--------|
B|--------------------|--------------------|--------------------|--------|--------|
G|--------------------|--------------------|--------------------|--------|--------|
D|-0------------------|-0--------------0---|-0------------------|--------|--------|
A|-2------------------|-1--------------2---|-2------------------|--------|-2------|
E|--------------------|--------------------|--------------------|--------|--------|


E|--------|--------|--------|--------|--------|--------|--------|--------|--------|
B|--------|--------|--------|--------|--------|--------|--------|--------|--------|
G|--------|--------|--------|--------|--------|--------|--------|--------|--------|
D|--------|--------|--------|--------|--------|--------|--------|--------|--------|
A|-1------|-2------|--------|-2------|-1------|-2------|--------|--------|--------|
E|--------|--------|--------|--------|--------|--------|--------|--------|--------|


E|--------|--------|--------|--------|--------|--------|--------|--------|--------|
B|--------|--------|--------|--------|--------|--------|--------|--------|--------|
G|--------|--------|--------|--------|--------|--------|--------|--------|--------|
D|--------|--------|--------|--------|--------|--------|--------|--------|--------|
A|--------|--------|--------|--------|--------|--------|--------|--------|--------|
E|--------|--------|--------|--------|--------|--------|--------|--------|--------|


E|--------|--------|--------|--------|--------|--------|--------|--------|--------|
B|--------|--------|--------|--------|--------|--------|--------|--------|--------|
G|--------|--------|--------|--------|--------|--------|--------|--------|--------|
D|--------|--------|--------|--------|--------|--------|--------|--------|--------|
A|--------|--------|--------|--------|--------|--------|--------|--------|--------|
E|--------|--------|--------|--------|--------|--------|--------|--------|--------|


E|--------|--------|--------|--------|--------|--------|--------|--------|--------|
B|--------|--------|--------|--------|--------|--------|--------|--------|--------|
G|--------|--------|--------|--------|--------|--------|--------|--------|--------|
D|--------|--------|--------|--------|--------|--------|--------|--------|--------|
A|--------|--------|--------|--------|--------|--------|--------|--------|--------|
E|--------|--------|--------|--------|--------|--------|--------|--------|--------|


E|--------|--------|--------|--------|--------|--------|--------|--------|--------|
B|--------|--------|--------|--------|--------|--------|--------|-5------|-1------|
G|--------|--------|--------|-7------|-6------|-7------|-7------|-5------|-3------|
D|--------|--------|--------|-7------|-8------|-7------|-7------|-5------|-3------|
A|--------|--------|--------|-5------|-8------|-5------|-5------|-3------|-1------|
E|--------|--------|--------|-5------|-6------|-5------|-5------|--------|--------|


E|--------|--------|--------|--------|--------|--------|--------|--------|--------|
B|-6------|-6------|-5------|-1------|-6------|-6------|-5------|-1------|-6------|
G|-7------|-7------|-5------|-3------|-7------|-7------|-5------|-3------|-7------|
D|-7------|-7------|-5------|-3------|-7------|-7------|-5------|-3------|-7------|
A|-5------|-5------|-3------|-1------|-5------|-5------|-3------|-1------|-5------|
E|-5------|-5------|--------|--------|-5------|-5------|--------|--------|-5------|


E|--------|--------|--------|--------|--------|--------|--------|--------|--------|
B|-6------|-5------|-1------|-6------|-6------|-5------|-1------|-6------|-6------|
G|-7------|-5------|-3------|-7------|-7------|-5------|-3------|-7------|-7------|
D|-7------|-5------|-3------|-7------|-7------|-5------|-3------|-7------|-7------|
A|-5------|-3------|-1------|-5------|-5------|-3------|-1------|-5------|-5------|
E|-5------|--------|--------|-5------|-5------|--------|--------|-5------|-5------|


E|--------|--------|--------|--------|--------|--------|--------|--------|-12----12----12-13-|
B|--------|--------|--------|--------|--------|--------|--------|--------|-------------------|
G|--------|--------|--------|--------|--------|--------|--------|--------|-9-----9-----9--10-|
D|--------|--------|--------|--------|--------|--------|--------|--------|-------------------|
A|--------|--------|--------|--------|--------|--------|--------|--------|-------------------|
E|--------|--------|--------|--------|--------|--------|--------|--------|-------------------|


E|-15----10----13--|-12-----|---------------------|-12----12----12-13-|-15----10----13--|
B|-----------------|--------|---------------------|-------------------|-----------------|
G|-12----7-----10--|-9------|------7--------------|-9-----9-----9--10-|-12----7-----10--|
D|-----------------|--------|-9---------7----10---|-------------------|-----------------|
A|-----------------|--------|---------------------|-------------------|-----------------|
E|-----------------|--------|---------------------|-------------------|-----------------|


E|-12-----|---------------------|--------|--------|--------|--------|--------|--------|
B|--------|---------------------|-5------|-1------|-6------|-6------|-5------|-1------|
G|-9------|------7--------------|-7------|-3------|-7------|-7------|-5------|-3------|
D|--------|-9---------7----10---|-7------|-3------|-7------|-7------|-5------|-3------|
A|--------|---------------------|-5------|-1------|-5------|-5------|-3------|-1------|
E|--------|---------------------|--------|--------|--------|--------|--------|--------|


E|--------|--------|--------|--------|--------|--------|--------|--------|--------|
B|-6------|-6------|-5------|-1------|-6------|-6------|-5------|-1------|-6------|
G|-7------|-7------|-5------|-3------|-7------|-7------|-5------|-3------|-7------|
D|-7------|-7------|-5------|-3------|-7------|-7------|-5------|-3------|-7------|
A|-5------|-5------|-3------|-1------|-5------|-5------|-3------|-1------|-5------|
E|-5------|-5------|--------|--------|-5------|-5------|--------|--------|-5------|


E|--------|--------|--------|--------|--------|--------|--------|--------|--------|
B|-6------|--------|--------|--------|--------|--------|--------|--------|--------|
G|-7------|--------|--------|--------|--------|--------|--------|--------|--------|
D|-7------|--------|--------|--------|--------|--------|--------|--------|--------|
A|-5------|--------|--------|--------|--------|--------|--------|--------|--------|
E|-5------|--------|--------|--------|--------|--------|--------|--------|--------|


E|--------|--------|--------|--------|--------|--------|--------|--------|--------|
B|--------|--------|--------|--------|--------|--------|--------|--------|--------|
G|--------|--------|--------|--------|--------|--------|--------|--------|--------|
D|--------|--------|--------|--------|--------|--------|--------|--------|--------|
A|--------|--------|--------|--------|--------|--------|--------|--------|--------|
E|--------|--------|--------|--------|--------|--------|--------|--------|--------|


E|--------|--------|--------|--------|--------|--------|--------|--------|--------|
B|--------|--------|--------|--------|--------|--------|-10-----|--------|--------|
G|--------|--------|--------|-9------|-9------|-10-----|-10-----|-9------|-9------|
D|--------|--------|--------|-9------|-9------|-10-----|-10-----|-9------|-9------|
A|--------|--------|--------|-7------|-7------|-8------|-8------|-7------|-7------|
E|--------|--------|--------|--------|--------|--------|--------|--------|--------|


E|-------------|--------|----------------|--------|-------------|--------|----------------|
B|-10----------|-10-----|-10--8----------|--------|-10----------|-10-----|-10--8----------|
G|-10---10-----|-10-----|-9---9---9------|-9------|-10---10-----|-10-----|-9---9---9------|
D|-10---10-----|-10-----|-9---9---9------|-9------|-10---10-----|-10-----|-9---9---9------|
A|-8----8------|-8------|-7---7---7------|-7------|-8----8------|-8------|-7---7---7------|
E|-------------|--------|----------------|--------|-------------|--------|----------------|


E|--------|-------------|--------|----------------|--------|-------------|--------|
B|--------|-10----------|-10-----|-10--8----------|--------|-10----------|-10-----|
G|-9------|-10---10-----|-10-----|-9---9---9------|-9------|-10---10-----|-10-----|
D|-9------|-10---10-----|-10-----|-9---9---9------|-9------|-10---10-----|-10-----|
A|-7------|-8----8------|-8------|-7---7---7------|-7------|-8----8------|-8------|
E|--------|-------------|--------|----------------|--------|-------------|--------|


E|----------------|--------|-------------|--------|----------------|--------|-------------|
B|-10--8----------|--------|-10----------|-10-----|-10--8----------|--------|-10----------|
G|-9---9---9------|-9------|-10---10-----|-10-----|-9---9---9------|-9------|-10---10-----|
D|-9---9---9------|-9------|-10---10-----|-10-----|-9---9---9------|-9------|-10---10-----|
A|-7---7---7------|-7------|-8----8------|-8------|-7---7---7------|-7------|-8----8------|
E|----------------|--------|-------------|--------|----------------|--------|-------------|


E|--------|----------------|--------|-------------|--------|--------|--------|
B|-10-----|-10--8----------|--------|-10----------|-10-----|--------|--------|
G|-10-----|-9---9---9------|-9------|-10---10-----|-10-----|-9------|-9------|
D|-10-----|-9---9---9------|-9------|-10---10-----|-10-----|-9------|-9------|
A|-8------|-7---7---7------|-7------|-8----8------|-8------|-7------|-7------|
E|--------|----------------|--------|-------------|--------|--------|--------|









Track 5: Faust
Back to top
C|--------|--------|--------|--------|--------|--------|--------|--------|-------------------------------------------------|
C|--------|--------|--------|--------|--------|--------|--------|--------|-49----------------------------------------------|
C|--------|--------|--------|--------|--------|--------|--------|--------|-46----46----46----46----46----46----46----46----|
C|--------|--------|--------|--------|--------|--------|--------|--------|-------38----------38----------38----------38----|
C|--------|--------|--------|--------|--------|--------|--------|--------|-------------------------------------------------|
C|--------|--------|--------|--------|--------|--------|--------|--------|-36-36-36-36-36-36-36-36-36-36-36-36-36-36-36-36-|


C|-------------------------------------------------|-------------------------------------------------|
C|-------------------------------------------------|-49----------------------------------------------|
C|-46----46----46----46----46----46----46----46----|-46----46----46----46----46----46----46----46----|
C|-------38----------38----------38----------38----|-------38----------38----------38----------38----|
C|-------------------------------------------------|-------------------------------------------------|
C|-36-36-36-36-36-36-36-36-36-36-36-36-36-36-36-36-|-36-36-36-36-36-36-36-36-36-36-36-36-36-36-36-36-|


C|-----------------------------------------|-------------------------------------------------|
C|-----------------------------------------|-49----------------------------------------------|
C|-46----46--------------------------------|-46----46----46----46----46----46----46----46----|
C|-------38--47-45-------38--------38--38--|-------38----------38----------38----------38----|
C|---------------------------47-45---------|-------------------------------------------------|
C|-36-36-----------36-36-------------------|-36-36-36-36-36-36-36-36-36-36-36-36-36-36-36-36-|


C|-------------------------------------------------|-------------------------------------------------|
C|-------------------------------------------------|-49----------------------------------------------|
C|-46----46----46----46----46----46----46----46----|-46----46----46----46----46----46----46----46----|
C|-------38----------38----------38----------38----|-------38----------38----------38----------38----|
C|-------------------------------------------------|-------------------------------------------------|
C|-36-36-36-36-36-36-36-36-36-36-36-36-36-36-36-36-|-36-36-36-36-36-36-36-36-36-36-36-36-36-36-36-36-|


C|---------------------------------------------|-------------------------------------------------|
C|---------------------------------------------|-49----------------------------------------------|
C|---------------------------------------------|-53----53----53----53----53----53----53----53----|
C|-------48-47-43-45-38-47-45-43-41-41-45--45--|-------38----------38----------38----------38----|
C|---------------------------------------------|-------------------------------------------------|
C|-36-36---------------------------------------|-36-36-36-36-36-36-36-36-36-36-36-36-36-36-36-36-|


C|-------------------------------------------------|-------------------------------------------------|
C|-------------------------------------------------|-49----------------------------------------------|
C|-53----53----53----53----53----53----53----53----|-53----53----53----53----53----53----53----35----|
C|-------38----------38----------38----------38----|-------38----------38----------38----------38----|
C|-------------------------------------------------|-------------------------------------------------|
C|-36-36-36-36-36-36-36-36-36-36-36-36-36-36-36-36-|-36-36-36-36-36-36-36-36-36-36-36-36-36-36-36-36-|


C|-----------------------------------------|-------------------------------------------------|
C|-----------------------------------------|-49----------------------------------------------|
C|-----------------------------------------|-53----53----53----53----53----53----53----53----|
C|-------38--47-45-------38--------38--38--|-------38----------38----------38----------38----|
C|---------------------------47-45---------|-------------------------------------------------|
C|-36-36-----------36-36-------------------|-36-36-36-36-36-36-36-36-36-36-36-36-36-36-36-36-|


C|-------------------------------------------------|-------------------------------------------------|
C|-------------------------------------------------|-49----------------------------------------------|
C|-53----53----53----53----53----53----53----53----|-53----53----53----53----53----53----53----53----|
C|-------38----------38----------38----------38----|-------38----------38----------38----------38----|
C|-------------------------------------------------|-------------------------------------------------|
C|-36-36-36-36-36-36-36-36-36-36-36-36-36-36-36-36-|-36-36-36-36-36-36-36-36-36-36-36-36-36-36-36-36-|


C|---------------------------------------------|--------|--------|--------|--------|
C|---------------------------------------------|-55-----|--------|--------|--------|
C|-53----53------------------------------------|--------|--------|--------|--------|
C|-------48-47-43-45-38-47-45-43-41-41-45--45--|--------|--------|--------|--------|
C|---------------------------------------------|--------|--------|--------|--------|
C|-36-36---------------------------------------|--------|--------|--------|--------|


C|--------|--------------------|------------------------|---------------------|--------|
C|-49-----|-49-------------49--|-49---------------------|-49---49---49---49---|-49-----|
C|--------|--------------------|------------------------|---------------------|--------|
C|--------|--------------------|------------------------|---------------------|--------|
C|--------|--------------------|------------------------|---------------------|--------|
C|-36-----|-36-------------36--|-36---------------------|-36---36---36---36---|-36-----|


C|--------------------|------------------------|------------------------------------------|
C|-49-------------49--|-49---------------------|-------------------------------------49---|
C|--------------------|------------------------|------------------------------------------|
C|--------------------|------------------------|-45-45-------43-43------------------------|
C|--------------------|------------------------|-------41-41-------41-41-41-41-41-41------|
C|-36-------------36--|-36---------------------|------------------------------------------|


C|-------------------------------------------------|-------------------------------------------------|
C|-49----------------------------------------------|-------------------------------------------------|
C|-46----46----46----46----46----46----46----46----|-46----46----46----46----46----46----46----46----|
C|-------38----------38----------38----------38----|-------38----------38----------38----------38----|
C|-------------------------------------------------|-------------------------------------------------|
C|-36-36-36-36-36-36-36-36-36-36-36-36-36-36-36-36-|-36-36-36-36-36-36-36-36-36-36-36-36-36-36-36-36-|


C|-------------------------------------------------|-------------------------------------------------|
C|-49----------------------------------------------|-49----------49----------49----------49----------|
C|-46----46----46----46----46----46----46----46----|-------------------------------------------------|
C|-------38----------38----------38----------38----|----38-38-38----38-38-38----38-38-38-38-38-38-38-|
C|-------------------------------------------------|-------------------------------------------------|
C|-36-36-36-36-36-36-36-36-36-36-36-36-36-36-36-36-|-36----------36----------36----------------------|


C|-------------------------------------------------|-------------------------------------------------|
C|-49----------------------------------------------|-------------------------------------------------|
C|-46----46----46----46----46----46----46----46----|-46----46----46----46----46----46----46----46----|
C|-------38----------38----------38----------38----|-------38----------38----------38----------38----|
C|-------------------------------------------------|-------------------------------------------------|
C|-36-36-36-36-36-36-36-36-36-36-36-36-36-36-36-36-|-36-36-36-36-36-36-36-36-36-36-36-36-36-36-36-36-|


C|-------------------------------------------------|-------------------------------------------------|
C|-49----------------------------------------------|-------------------------------------------------|
C|-46----46----46----46----46----46----46----46----|-47-45-43-41-------------------------------------|
C|-------38----------38----------38----------38----|-------------45-43-43-41-43-43-41-41-------------|
C|-------------------------------------------------|-------------------------------------36-36-36-36-|
C|-36-36-36-36-36-36-36-36-36-36-36-36-36-36-36-36-|-36----------36----------36----------------------|


C|-------------------------------------------------|-------------------------------------------------|
C|-------------------------------------------------|-------------------------------------------------|
C|-46----46----46----46----46----46----46----46----|-46----46----46----46----46----46----46----46----|
C|-------38----------38----------38----------38----|-------38----------38----------38----------38----|
C|-------------------------------------------------|-------------------------------------------------|
C|-36-36-36-36-36-36-36-36-36-36-36-36-36-36-36-36-|-36-36-36-36-36-36-36-36-36-36-36-36-36-36-36-36-|


C|-------------------------------------------------|-----------------------------------------|
C|-------------------------------------------------|-----------------------------------------|
C|-46----46----46----46----46----46----46----46----|-46--------------------------------------|
C|-------38----------38----------38----------38----|-------38--47-45-------38--------38--38--|
C|-------------------------------------------------|---------------------------47-45---------|
C|-36-36-36-36-36-36-36-36-36-36-36-36-36-36-36-36-|-36-36-----------36-36-------------------|


C|-------------------------------------------------|-------------------------------------------------|
C|-49----------------------------------------------|-------------------------------------------------|
C|-46----46----46----46----46----46----46----46----|-46----46----46----46----46----46----46----46----|
C|-------38----------38----------38----------38----|-------38----------38----------38----------38----|
C|-------------------------------------------------|-------------------------------------------------|
C|-36-36-36-36-36-36-36-36-36-36-36-36-36-36-36-36-|-36-36-36-36-36-36-36-36-36-36-36-36-36-36-36-36-|


C|-------------------------------------------------|---------------------------------------------|
C|-49----------------------------------------------|---------------------------------------------|
C|-46----46----46----46----46----46----46----46----|-46------------------------------------------|
C|-------38----------38----------38----------38----|-------48-47-43-45-38-47-45-43-41-41-45--45--|
C|-------------------------------------------------|---------------------------------------------|
C|-36-36-36-36-36-36-36-36-36-36-36-36-36-36-36-36-|-36-36---------------------------------------|


C|-------------------------------------------------|-------------------------------------------------|
C|-49----------------------------------------------|-------------------------------------------------|
C|-46----46----46----46----46----46----46----46----|-46----46----46----46----46----46----46----46----|
C|-------38----------38----------38----------38----|-------38----------38----------38----------38----|
C|-------------------------------------------------|-------------------------------------------------|
C|-36-36-36-36-36-36-36-36-36-36-36-36-36-36-36-36-|-36-36-36-36-36-36-36-36-36-36-36-36-36-36-36-36-|


C|-------------------------------------------------|-----------------------------------------|
C|-49----------------------------------------------|-----------------------------------------|
C|-46----46----46----46----46----46----46----46----|-----------------------------------------|
C|-------38----------38----------38----------38----|-------38--47-45-------38--------38--38--|
C|-------------------------------------------------|---------------------------47-45---------|
C|-36-36-36-36-36-36-36-36-36-36-36-36-36-36-36-36-|-36-36-----------36-36-------------------|


C|-------------------------------------------------|-------------------------------------------------|
C|-49----------------------------------------------|-------------------------------------------------|
C|-46----46----46----46----46----46----46----46----|-46----46----46----46----46----46----46----46----|
C|-------38----------38----------38----------38----|-------38----------38----------38----------38----|
C|-------------------------------------------------|-------------------------------------------------|
C|-36-36-36-36-36-36-36-36-36-36-36-36-36-36-36-36-|-36-36-36-36-36-36-36-36-36-36-36-36-36-36-36-36-|


C|-------------------------------------------------|-------------------------------------------|
C|-49----------------------------------------------|-49----------------------------------------|
C|-46----46----46----46----46----46----46----46----|-------------------------------------------|
C|-------38----------38----------38----------38----|-----48-47-43-45-38-47-45-43-41-41-45--45--|
C|-------------------------------------------------|-------------------------------------------|
C|-36-36-36-36-36-36-36-36-36-36-36-36-36-36-36-36-|-36----------------------------------------|


C|-------------------------------------------------|-------------------------------------------------|
C|-49----------------------------------------------|-------------------------------------------------|
C|-46----46----46----46----46----46----46----46----|-46----46----46----46----46----46----46----46----|
C|-------38----------38----------38----------38----|-------38----------38----------38----------38----|
C|-------------------------------------------------|-------------------------------------------------|
C|-36-36-36-36-36-36-36-36-36-36-36-36-36-36-36-36-|-36-36-36-36-36-36-36-36-36-36-36-36-36-36-36-36-|


C|-------------------------------------------------|-------------------------------------------------|
C|-49----------------------------------------------|-------------------------------------------------|
C|-46----46----46----46----46----46----46----46----|-47-45-43-41-------------------------------------|
C|-------38----------38----------38----------38----|-------------45-43-43-41-43-43-41-41-------------|
C|-------------------------------------------------|-------------------------------------43-41-43-41-|
C|-36-36-36-36-36-36-36-36-36-36-36-36-36-36-36-36-|-36----------36----------36----------------------|


C|-------------------------------------------------|-------------------------------------------------|
C|-49----------------------------------------------|-49----------------------------------------------|
C|-46----46----46----46----46----46----46----46----|-46----46----46----46----46----46----46----46----|
C|-------38----------38----------38----------38----|-------38----------38----------38----------38----|
C|-------------------------------------------------|-------------------------------------------------|
C|-36-36-36-36-36-36-36-36-36-36-36-36-36-36-36-36-|-36-36-36-36-36-36-36-36-36-36-36-36-36-36-36-36-|


C|-------------------------------------------------|------------------------------------------|
C|-49----------------------------------------------|------------------------------------------|
C|-46----46----46----46----46----46----46----46----|-47-45-43-41------------------------------|
C|-------38----------38----------38----------38----|-------------45-43-43-41-43-43-41-41------|
C|-------------------------------------------------|-------------------------------------36---|
C|-36-36-36-36-36-36-36-36-36-36-36-36-36-36-36-36-|-36----------36----------36---------------|


C|-------------------------------------------------|---------------------------------------|
C|-49----------------------------------------------|---------------------------------------|
C|-46----46----46----46----46----46----46----46----|-------46--------46------46--------46--|
C|-------38----------38----------38----------38----|-------38--47-45-----38--------38--38--|
C|-------------------------------------------------|-------------------------47-45---------|
C|-36-36-36-36-36-36-36-36-36-36-36-36-36-36-36-36-|-36-36-----------36--------------------|


C|-------------------------------------------------|-------------------------------------------------|
C|-49----------------------------------------------|-49----------49----------49----------49----------|
C|-46----46----46----46----46----46----46----46----|-------------------------------------------------|
C|-------38----------38----------38----------38----|----38-38-38----38-38-38----38-38-38-38-38-38-38-|
C|-------------------------------------------------|-------------------------------------------------|
C|-36-36-36-36-36-36-36-36-36-36-36-36-36-36-36-36-|-36----------36----------36----------------------|


C|-------------------------------------------------|---------------------------------------|
C|-49----------------------------------------------|----49---------------49----------------|
C|-46----46----46----46----46----46----46----46----|-------46--------46------46--------46--|
C|-------38----------38----------38----------38----|-------38--47-45-----38--------38--38--|
C|-------------------------------------------------|-------------------------47-45---------|
C|-36-36-36-36-36-36-36-36-36-36-36-36-36-36-36-36-|-36-36-----------36--------------------|


C|-------------------------------------------------|-------------------------------------------------|
C|-49----------------------------------------------|-------------------------------------------------|
C|-46----46----46----46----46----46----46----46----|-47-45-43-41-------------------------------------|
C|-------38----------38----------38----------38----|-------------45-43-43-41-43-43-41-41-------------|
C|-------------------------------------------------|-------------------------------------43-41-43-41-|
C|-36-36-36-36-36-36-36-36-36-36-36-36-36-36-36-36-|-36----------36----------36----------------------|


C|--------|--------------------|--------|---------------------------------------------|
C|-49-----|--------------------|--------|-49------------------------------------------|
C|--------|-----------45---45--|-45-----|---------------------------------------------|
C|--------|--------------------|--------|-----484847-48--474745-47--454543-45--434341-|
C|--------|--------------------|--------|---------------------------------------------|
C|--------|--------------------|--------|---------------------------------------------|


C|-------------------------------------------------|-------------------------------------------------|
C|-49----------------------------------------------|-------------------------------------------------|
C|-------------------------------------------------|-------------------------------------------------|
C|-------------38----------------------38----------|-------------38----------------------38------38--|
C|---------46--46--46--46--46--46--46--46--46--46--|-46--46--46--46--46--46--46--46--46--46--46--46--|
C|---------36--36--36--36--36--36--36------36--36--|-36--36--36--36--36--36--36--36--36------36--36--|


C|-------------------------------------------------|-------------------------------------------------|
C|-------------------------------------------------|-------------------------------------------------|
C|-------------------------------------------------|-------------------------------------------------|
C|-------------38----------------------38----------|-------------38----------------------38------38--|
C|-46--46--46--46--46--46--46--46--46--46--46--46--|-46--46--46--46--46--46--46--46--46--46--46--46--|
C|-36--36--36--36--36--36--36--36--36------36--36--|-36--36--36--36--36--36--36--36--36------36--36--|


C|-------------------------------------------------|-------------------------------------------------|
C|-49----------------------------------------------|---------------------------------------------49--|
C|-------------------------------------------------|-------------------------------------------------|
C|-------------38----------------------38----------|-------------38------------------------------38--|
C|-46--46--46--46--46--46--46--46--46--46--46--46--|-46--46--46--46--46--46--46--46--46--46--46--46--|
C|-36--36--36--36--36--36--36--36--36------36--36--|-36--36--36--36--36--36--36--36--36--36--36--36--|


C|-------------------------------------------------|-------------------------------------------------|
C|-49----------------------------------------------|-------------------------------------------------|
C|-------------------------------------------------|-------------------------------------------------|
C|-------------38----------------------38----------|-------------38----------------------38------38--|
C|-46--46--46--46--46--46--46--46--46--46--46--46--|-46--46--46--46--46--46--46--46--46--46--46--46--|
C|-36--36--36--36--36--36--36--36--36------36--36--|-36--36--36--36--36--36--36--36--36------36--36--|


C|-------------------------------------------------|-------------------------------------------------|
C|-49----------------------------------------------|-------------55----------55------55------55------|
C|-------------------------------------------------|-------------------------------------------------|
C|-------------38----------------------38----------|-------------38----------------------38----------|
C|-46--46--46--46--46--46--46--46--46--46--46--46--|-46--46--46--46--46--46--46--46--46--46--46--46--|
C|-36--36--36--36--36--36--36--36--36------36--36--|-36--36--36--36--36--36--36--36--36------36--36--|


C|-------------------------------------------------|-------------------------------------------------|
C|-49----------------------------------------------|-------------------------------------------------|
C|-------------------------------------------------|-------------------------------------------------|
C|-------------38----------------------38----------|-------------38----------------------38------38--|
C|-46--46--46--46--46--46--46--46--46--46--46--46--|-46--46--46--46--46--46--46--46--46--46--46--46--|
C|-36--36--36--36--36--36--36--36--36------36--36--|-36--36--36--36--36--36--36--36--36------36--36--|


C|-------------------------------------------------|-------------------------------------------------|
C|-49----------------------------------------------|-------------------------------------------------|
C|-------------------------------------------------|-------------------------------------------------|
C|-------------38----------------------38----------|-------------38----------------------38------38--|
C|-46--46--46--46--46--46--46--46--46--46--46--46--|-46--46--46--46--46--46--46--46--46--46--46--46--|
C|-36--36--36--36--36--36--36--36--36------36--36--|-36--36--36--36--36--36--36--36--36------36--36--|


C|-------------------------------------------------|-------------------------------------------------|
C|-49----------------------------------------------|-------------------------------------------------|
C|-------------------------------------------------|-------------------------------------------------|
C|-------------38----------------------38----------|-------------38----------------------38------38--|
C|-46--46--46--46--46--46--46--46--46--46--46--46--|-46--46--46--46--46--46--46--46--46--46--46--46--|
C|-36--36--36--36--36--36--36--36--36------36--36--|-36--36--36--36--36--36--36--36--36------36--36--|


C|-------------------------------------------------|-------------------------------------------------|
C|-49----------------------------------------------|-------------------------------------------------|
C|-------------------------------------------------|-------------------------------------------------|
C|-------------38----------------------38----------|-------------38------------------------------38--|
C|-46--46--46--46--46--46--46--46--46--46--46--46--|-46--46--46--46--46--46--46--46--46--46--46--46--|
C|-36--36--36--36--36--36--36--36--36------36--36--|-36--36--36--36--36--36--36--36--36--36--36--36--|


C|-------------------------------------------------|--------------------------------------------|
C|-49----------------------------------------------|--------------------------------------------|
C|-------------------------------------------------|---------55--49-----------------------------|
C|-------------38----------------------38----------|-------------38-4545454343-41--43--41--49---|
C|-46--46--46--46--46--46--46--46--46--46--46--46--|-46--46--46---------------------------------|
C|-36--36--36--36--36--36--36--36--36------36--36--|-36--36--36--36-----------------------------|


C|-------------------------------------------------|-------------------------------------------------|
C|-55----------------------------------------------|-------------------------------------------------|
C|-------------------------------------------------|-------------------------------------------------|
C|-------------38----------------------38----------|-------------38----------------------38--55--49--|
C|-46--46--46--46--46--46--46--46--46--46--46--46--|-46--46--46--46--46--46--46--46--46--46--46--46--|
C|-36--36--36--36--36--36--36--36--36------36--36--|-36--36--36--36--36--36--36--36--36------36--36--|


C|-------------------------------------------------|-----------------------------------------------------|
C|-49----------------------------------------------|-----------------------------------------------------|
C|-------------------------------------------------|-----------------------------------------------------|
C|-------------38----------------------38----------|-------------38----------------------38--38-38-38-38-|
C|-46--46--46--46--46--46--46--46--46--46------46--|-46--46--46--46--46--46--46--46--46--46--------------|
C|-36--36--36--36--36--36--36--36--36------36--36--|-36--36--36--36--36--36--36--36--36------------------|


C|-------------------------------------------------|-------------------------------------------------|
C|-49----------------------------------------------|-------------------------------------------------|
C|-------------------------------------------------|-------------------------------------------------|
C|-------------38----------------------38----------|-------------38----------------------38------38--|
C|-46--46--46--46--46--46--46--46--46--46--46--46--|-46--46--46--46--46--46--46--46--46--46--46--46--|
C|-36--36--36--36--36--36--36--36--36------36--36--|-36--36--36--36--36--36--36--36--36------36--36--|


C|-------------------------------------------------|---------------------------------------------------------------|
C|-49----------------------------------------------|---------------------------------------------------------------|
C|-------------------------------------------------|--------------------49-----------------------------------------|
C|-------------38----------------------38----------|-------------38------------------------------------------------|
C|-46--46--46--46--46--46--46--46--46--46--46--46--|-46--46--46--46--47-45-47--38-47-47-45-47-45-38-43-45-43-43-41-|
C|-36--36--36--36--36--36--36--36--36------36--36--|-36--36--36--36--------36--------------------------------------|


C|-------------------------------------------------|-------------------------------------------------|
C|-49----------------------------------------------|-------------------------------------------------|
C|-------------------------------------------------|-------------------------49------49------49------|
C|-------------38----------38----------38----------|-38----------38----------38------38------38------|
C|-46--46--46--46--46--46--46--46--46--46--46--46--|-46--46--46--46--46--46------46------46------46--|
C|-36--36--36--36--36--36--36--36--36------36--36--|-36--36--36--36--36--36--36--36--36------36--36--|


C|-------------------------------------------------|-------------------------------------------------|
C|-49----------------------------------------------|-------------------------------------49----------|
C|-------------------------------------------------|-------------------------------------------------|
C|-38----------38----------38----------38----------|-38----------38----------38------38--38------38--|
C|-----46--46--46--46--46--46--46--46--46--46--46--|-46--46--46--46--46--46--46--46--46--46--46--46--|
C|-36--36--36--36--36--36--36--36--36------36--36--|-36--36--36--36--36--36--36--36--36------36--36--|


C|-------------------------------------------------|-------------------------------------------------|
C|-49----------------------------------------------|-------------------------------------------------|
C|-------------------------------------------------|-------------------------------------------------|
C|-38----------38----------38----------38----------|-38----------38----------38------38--38------38--|
C|-----46--46--46--46--46--46--46--46--46--46--46--|-46--46--46--46--46--46--46--46--46--46--46--46--|
C|-36--36--36--36--36--36--36--36--36------36--36--|-36--36--36--36--36--36--36--36--36------36--36--|


C|-------------------------------------------------|-------------------------------------------------------|
C|-49----------------------------------------------|-------------------------------------------------------|
C|-------------------------------------------------|-------------------------------------------------------|
C|-38----------38----------38----------38----------|-38----------38----------45--43-43-45-45-43--43-41-41--|
C|-----46--46--46--46--46--46--46--46--46--46--46--|-46--46--46--46--46--46--------------------------------|
C|-36--36--36--36--36--36--36--36--36------36--36--|-36--36--36--36--36--36--------------------------------|


C|-------------------------------------------------|-------------------------------------------------|
C|-49----------------------------------------------|-------------------------------------------------|
C|-------------------------------------------------|-------------------------------------------------|
C|-------------38----------------------38----------|-------------38----------------------38------38--|
C|-46--46--46--46--46--46--46--46--46--46--46--46--|-46--46--46--46--46--46--46--46--46--46--46--46--|
C|-36--36--36--36--36--36--36--36--36------36--36--|-36--36--36--36--36--36--36--36--36--36--36--36--|


C|-------------------------------------------------|-----------------------------------------------------|
C|-49----------------------------------------------|-------------55----------55------55--55--------------|
C|-------------------------------------------------|-----------------------------------------------------|
C|-------------38----------------------38----------|-------------38----------------------38--38-38-38-38-|
C|-46--46--46--46--46--46--46--46--46--46--46--46--|-46--46--46--46--46--46--46--46--46--46--------------|
C|-36--36--36--36--36--36--36--36--36------36--36--|-36--36--36--36--36--36--36--36--36------------------|


C|-------------------------------------------------|-------------------------------------------------|
C|-49----------------------------------------------|-------------------------------------------------|
C|-------------------------------------------------|---------------------------------------------49--|
C|-------------38----------------------38----------|-------------38------------------------------38--|
C|-46--46--46--46--46--46--46--46--46--46--46--46--|-46--46--46--46--46--46--46--46--46--46--46------|
C|-36--36--36--36--36--36--36--36--36------36--36--|-36--36--36--36--36--36--36--36--36--36--36--36--|


C|-------------------------------------------------|-------------------------------------------------|
C|-49----------------------------------------------|-------------------------------------------------|
C|-------------------------------------------------|-------------------------49----------49----------|
C|-------------38----------------------38----------|-------------38----------38----------38----------|
C|-46--46--46--46--46--46--46--46--46--46--46--46--|-46--46--46--46--46--46------46--46------46--46--|
C|-36--36--36--36--36--36--36--36--36------36--36--|-36--36--36--36--36--36------36--36------36--36--|


C|-------------------------------------------------|-------------------------------------------------|
C|-49----------------------------------------------|-------------------------------------------------|
C|-------------------------------------------------|-------------------------------------------------|
C|-------------38----------------------38----------|-------------38----------------------38------38--|
C|-46--46--46--46--46--46--46--46--46--46--46--46--|-46--46--46--46--46--46--46--46------46--46--46--|
C|-36--36--36--36--36--36--36--36--36------36--36--|-36--36--36--36--36--36--36--36--36--36--36--36--|


C|-------------------------------------------------|-------------------------------------------------|
C|-49----------------------------------------------|-------------------------------------------------|
C|-------------------------------------------------|-------------------------------------------------|
C|-------------38----------------------38----------|-------------38----------------------38----------|
C|-46--46--46--46--46--46--46--46--46--46--46--46--|-46--46--46--46--46--46--46--46--46--46--46--46--|
C|-36--36--36--36--36--36--36--36--36------36--36--|-36--36--36--36--36--36--36--36--36--36--36--36--|


C|-------------------------------------------------|-------------------------------------------------|
C|-49----------------------------------------------|-------------------------------------------------|
C|-------------------------------------------------|-------------------------------------------------|
C|-------------38----------------------38----------|-------------38----------------------38------38--|
C|-46--46--46--46--46--46--46--46--46--46--46--46--|-46--46--46--46--46--46--46--46--46--46------46--|
C|-36--36--36--36--36--36--36--36--36------36--36--|-36--36--36--36--36--36--36--36--36--36--36--36--|


C|-------------------------------------------------|-------------------------------------------------|
C|-49----------------------------------------------|-------------------------------------------------|
C|-------------------------------------------------|-------------------------49----------49----------|
C|-------------38----------------------38----------|-------------38----------38----------38----------|
C|-46--46--46--46--46--46--46--46--46--46--46--46--|-46--46--46--46--46--46------46--46------46--46--|
C|-36--36--36--36--36--36--36--36--36------36--36--|-36--36--36--36--36--36--36--36--36------36--36--|


C|--------|------------------------------|------------------------------------|---------------------------------------|
C|--------|------------------------------|------------------------------------|---------------------------------------|
C|--------|--------------------------57--|-49---------------------------------|-4745-45-45-45-----------------57------|
C|--------|------------------------------|-38--------------38------38-----4747|---------------43---43-45---43-45--49--|
C|--------|------38--36--38--45--38--43--|-46--46--46--46--46--46--46--46-----|-----------------------------------38--|
C|--------|--------------36--36--36--36--|------------------------------------|---------------------------------------|


C|---------------------------------|---------------------------------------|------------------------------------|
C|---------------------------------|---------------------------------------|------------------------------------|
C|-49------------------------------|---------------------------------------|-49---------------------------------|
C|-38--------------38--------------|---------------------38--------38--57--|-38--------------38---------38------|
C|-----46--46--46--46--46--46--46--|-46--46--46----454545------------------|-----46--46--46--46--46-454546--46--|
C|-36----------36--------------36--|-36------36--45----------36-36---------|-36----------36---------------------|


C|--------------------------------------|---------------------------------|-------------------------------------|
C|--------------------------------------|---------------------------------|-------------------------------------|
C|---------------------------------57---|-49------------------------------|-------------------------------------|
C|---------38------------4747------38---|-38--------------38--------------|---------------------38------38--57--|
C|-46--46--46--46--454545----45454543---|-----46--46--46--46--46--46--46--|-46--46--46----454545----------------|
C|--------------------------------------|-36----------36--------------36--|-36------36--45----------36----------|


C|------------------------------------|-----------------------------------------|---------------------------------|
C|------------------------------------|-----------------------------------------|---------------------------------|
C|-49---------------------------------|---------------------------------57------|-49------------------------------|
C|-38--------------38---------38------|---------38------------4747------38------|-38--------------38--------------|
C|-----46--46--46--46--46-454546--46--|-46--46--46--46--454545----45454543------|-----46--46--46--46--46--46--46--|
C|-36----------36---------------------|---------------------------------36--36--|-36----------36--------------36--|


C|-------------------------------------|---------------------------------|-------------------------------------------|
C|-------------------------------------|---------------------------------|-------------------------------------------|
C|-------------------------------------|-49------------------------------|-------------------------------------------|
C|---------------------38------38--57--|-38--------------38----------38--|----38-----38-----38-------38----------49--|
C|-46--46--46----454545----------------|-----46--46--46--46--46--46--46--|---------------------------------------38--|
C|-36------36--45----------36----------|-36----------36----------36--36--|-36----36------36----36-36-36-36-36-36-----|


C|---------------------------------|-------------------------------------|---------------------------------|
C|---------------------------------|-------------------------------------|---------------------------------|
C|-49------------------------------|-------------------------------------|-49------------------------------|
C|-38--------------38--------------|---------------------38------38--57--|-38--------------38----------38--|
C|-----46--46--46--46--46--46--46--|-46--46--46----454545----------------|-----46--46--46--46--46--46--46--|
C|-36----------36--------------36--|-36------36--45----------36----------|-36----------36----------36--36--|


C|-----------------------------------------------------|---------------------------------|
C|-----------------------------------------------------|---------------------------------|
C|-----------------------------------------------------|-49------------------------------|
C|----38-----38-----38-384538454543------------38------|-----------------38--------------|
C|---------------------------------384343413843--454341|-46--46--46--46--46--46--46--46--|
C|-36----36------36------------------------------------|-------------36----------36--36--|


C|-------------------------------------|---------------------------------|-----------------------------------------------|
C|-------------------------------------|---------------------------------|-----------------------------------------------|
C|---------------------------------57--|-49------------------------------|-------------------------------------------57--|
C|-----------------38----------38------|-----------------38--------------|-38-------38-------38-------38-------38----38--|
C|-46--46--46--46--46--4645454546--46--|-46--46--46--46--46--46--46--46--|-46----46----46----46----46----46----46--------|
C|-----36------36------------------36--|-------------36----------36--36--|----36-36-36-36-36-36-36-36-36-36-36-36-36-36--|


C|---------------------------------|-------------------------------------|-------------------------------------|
C|---------------------------------|-------------------------------------|-------------------------------------|
C|-49------------------------------|---------------------------------57--|-49------------------------------55--|
C|-----------------38--------------|-----------------38----------38------|-----------------38----------38--38--|
C|-46--46--46--46--46--46--46--46--|-46--46--46--46--46--4645454546--46--|-46--46--46--46--46--4645454546--46--|
C|-------------36----------36--36--|-----36------36------------------36--|-------------36----------------------|


C|-----------------------------------------|---------------------------------|-------------------------------------|
C|-----------------------------------------|---------------------------------|-------------------------------------|
C|-----------------49----------------------|-49------------------------------|---------------------------------57--|
C|---------38------------38----38-------38-|-----------------38--------------|-----------------38----------38------|
C|-46--46--46--46--46-------45----43-41----|-46--46--46--46--46--46--46--46--|-46--46--46--46--46--4645454546--46--|
C|-36--36------36-----36-------------------|-------------36----------36--36--|-----36------36------------------36--|


C|---------------------------------|-----------------------------------------------|
C|---------------------------------|-----------------------------------------------|
C|-49------------------------------|-------------------------------------------57--|
C|-----------------38--------------|-38-------38-------38-------38-------38----38--|
C|-46--46--46--46--46--46--46--46--|-46----46----46----46----46----46----46--------|
C|-------------36----------36--36--|----36-36-36-36-36-36-36-36-36-36-36-36-36-36--|


C|---------------------------------|-------------------------------------|---------------------------------|
C|---------------------------------|-------------------------------------|---------------------------------|
C|-49------------------------------|---------------------------------57--|-49------------------------------|
C|-----------------38--------------|-----------------38----------38------|-----------------38----------38--|
C|-46--46--46--46--46--46--46--46--|-46--46--46--46--46--4645454546--46--|-46--46--46--46--46--46--46--46--|
C|-------------36----------36--36--|-----36------36------------------36--|-------------36----------36--36--|


C|-----------------------------------------------|---------------------------------|
C|-----------------------------------------------|---------------------------------|
C|-49-------49-------49-------49-------49----57--|-49------------------------------|
C|-38-------38-------38-------38-------38----38--|-----------------38--------------|
C|-------46----46----------46----46--------------|-46--46--46--46--46--46--46--46--|
C|----36-36-36-36-36-36-36-36-36-36-36-36-36-36--|-------------36----------36--36--|


C|-------------------------------------|---------------------------------|-----------------------------------------------|
C|-------------------------------------|---------------------------------|-----------------------------------------------|
C|---------------------------------57--|-49------------------------------|-------------------------------------------57--|
C|-----------------38----------38------|-----------------38--------------|-38-------38-------38-------38-------38----38--|
C|-46--46--46--46--46--4645454546--46--|-46--46--46--46--46--46--46--46--|-46----46----46----46----46----46----46--------|
C|-----36------36------------------36--|-------------36----------36--36--|----36-36-36-36-36-36-36-36-36-36-36-36-36-36--|


C|---------------------------------|-------------------------------------|-------------------------------------|
C|---------------------------------|-------------------------------------|-------------------------------------|
C|-49------------------------------|---------------------------------57--|-49------------------------------57--|
C|-----------------38--------------|-----------------38----------38------|-----------------38----------38------|
C|-46--46--46--46--46--46--46--46--|-46--46--46--46--46--4645454546--46--|-46--46--46--46--46--4645454546--46--|
C|-------------36----------36--36--|-----36------36------------------36--|-------------36----------------------|


C|---------------------------------------------------------|---------------------------------|
C|---------------------------------------------------------|---------------------------------|
C|-49------------------------------------------------------|-49--------------49--------------|
C|-38-----38-------3845434138454341454543434545414138434141|-----------------38--------------|
C|-46------------------------------------------------------|-46--46--46--46--46--46--46--46--|
C|-----36----36-36-----------------------------------------|-------------36----------36--36--|


C|-------------------------------------|---------------------------------|-------------------------------------|
C|-------------------------------------|---------------------------------|-------------------------------------|
C|-49--------------49--------------57--|-49--------------49--------------|-49--------------49--------------57--|
C|-----------------38----------38------|-----------------38--------------|-----------------38----------38------|
C|-46--46--46--46--46--4645454546--46--|-46--46--46--46--46--46--46--46--|-46--46--46--46------4645454546--46--|
C|-----36------36------------------36--|-------------36----------36--36--|-----36------36------------------36--|


C|---------------------------------|-------------------------------------|---------------------------------|
C|---------------------------------|-------------------------------------|---------------------------------|
C|-49--------------49--------------|---------------------------------57--|-49--------------49--------------|
C|-----------------38--------------|-----------------38----------38------|-----------------38--------------|
C|-46--46--46--46------46--46--46--|-46--46--46--46--46--4645454546--46--|-46--46--46--46------46--46--46--|
C|-------------36----------36--36--|-----36------36------------------36--|-------------36----------36--36--|


C|-----------------------------------------------------------------|--------|--------|
C|-----------------------------------------------------------------|--------|--------|
C|-49------49--------------49--------------------------------------|-49-----|--------|
C|-3845434138454341414141413841454538434145414141414543434141414141|-38-----|--------|
C|-----------------------------------------------------------------|--------|--------|
C|-----------------------------------------------------------------|--------|--------|









Track 6: tempo
Back to top
E|--------|--------|--------|--------|--------|--------|--------|--------|--------|
B|--------|--------|--------|--------|--------|--------|--------|--------|--------|
G|--------|--------|--------|--------|--------|--------|--------|--------|--------|
D|--------|--------|--------|--------|--------|--------|--------|--------|--------|
A|--------|--------|--------|--------|--------|--------|--------|--------|--------|
E|--------|--------|--------|--------|--------|--------|--------|--------|--------|


E|--------|--------|--------|--------|--------|--------|--------|--------|--------|
B|--------|--------|--------|--------|--------|--------|--------|--------|--------|
G|--------|--------|--------|--------|--------|--------|--------|--------|--------|
D|--------|--------|--------|--------|--------|--------|--------|--------|--------|
A|--------|--------|--------|--------|--------|--------|--------|--------|--------|
E|--------|--------|--------|--------|--------|--------|--------|--------|--------|


E|--------|--------|--------|--------|--------|--------|--------|--------|--------|
B|--------|--------|--------|--------|--------|--------|--------|--------|--------|
G|--------|--------|--------|--------|--------|--------|--------|--------|--------|
D|--------|--------|--------|--------|--------|--------|--------|--------|--------|
A|--------|--------|--------|--------|--------|--------|--------|--------|--------|
E|--------|--------|--------|--------|--------|--------|--------|--------|--------|


E|--------|--------|--------|--------|--------|--------|--------|--------|--------|
B|--------|--------|--------|--------|--------|--------|--------|--------|--------|
G|--------|--------|--------|--------|--------|--------|--------|--------|--------|
D|--------|--------|--------|--------|--------|--------|--------|--------|--------|
A|--------|--------|--------|--------|--------|--------|--------|--------|--------|
E|--------|--------|--------|--------|--------|--------|--------|--------|--------|


E|--------|--------|--------|--------|--------|--------|--------|--------|--------|
B|--------|--------|--------|--------|--------|--------|--------|--------|--------|
G|--------|--------|--------|--------|--------|--------|--------|--------|--------|
D|--------|--------|--------|--------|--------|--------|--------|--------|--------|
A|--------|--------|--------|--------|--------|--------|--------|--------|--------|
E|--------|--------|--------|--------|--------|--------|--------|--------|--------|


E|--------|--------|--------|--------|--------|--------|--------|--------|--------|
B|--------|--------|--------|--------|--------|--------|--------|--------|--------|
G|--------|--------|--------|--------|--------|--------|--------|--------|--------|
D|--------|--------|--------|--------|--------|--------|--------|--------|--------|
A|--------|--------|--------|--------|--------|--------|--------|--------|--------|
E|--------|--------|--------|--------|--------|--------|--------|--------|--------|


E|--------|--------|--------|--------|--------|--------|--------|--------|--------|
B|--------|--------|--------|--------|--------|--------|--------|--------|--------|
G|--------|--------|--------|--------|--------|--------|--------|--------|--------|
D|--------|--------|--------|--------|--------|--------|--------|--------|--------|
A|--------|--------|--------|--------|--------|--------|--------|--------|--------|
E|--------|--------|--------|--------|--------|--------|--------|--------|--------|


E|--------|--------|--------|--------|--------|--------|--------|--------|--------|
B|--------|--------|--------|--------|--------|--------|--------|--------|--------|
G|--------|--------|--------|--------|--------|--------|--------|--------|--------|
D|--------|--------|--------|--------|--------|--------|--------|--------|--------|
A|--------|--------|--------|--------|--------|--------|--------|--------|--------|
E|--------|--------|--------|--------|--------|--------|--------|--------|--------|


E|--------|--------|--------|--------|--------|--------|--------|--------|--------|
B|--------|--------|--------|--------|--------|--------|--------|--------|--------|
G|--------|--------|--------|--------|--------|--------|--------|--------|--------|
D|--------|--------|--------|--------|--------|--------|--------|--------|--------|
A|--------|--------|--------|--------|--------|--------|--------|--------|--------|
E|--------|--------|--------|--------|--------|--------|--------|--------|--------|


E|--------|--------|--------|--------|--------|--------|--------|--------|--------|
B|--------|--------|--------|--------|--------|--------|--------|--------|--------|
G|--------|--------|--------|--------|--------|--------|--------|--------|--------|
D|--------|--------|--------|--------|--------|--------|--------|--------|--------|
A|--------|--------|--------|--------|--------|--------|--------|--------|--------|
E|--------|--------|--------|--------|--------|--------|--------|--------|--------|


E|--------|--------|--------|--------|--------|--------|--------|--------|--------|
B|--------|--------|--------|--------|--------|--------|--------|--------|--------|
G|--------|--------|--------|--------|--------|--------|--------|--------|--------|
D|--------|--------|--------|--------|--------|--------|--------|--------|--------|
A|--------|--------|--------|--------|--------|--------|--------|--------|--------|
E|--------|--------|--------|--------|--------|--------|--------|--------|--------|


E|--------|--------|--------|--------|--------|--------|--------|--------|--------|
B|--------|--------|--------|--------|--------|--------|--------|--------|--------|
G|--------|--------|--------|--------|--------|--------|--------|--------|--------|
D|--------|--------|--------|--------|--------|--------|--------|--------|--------|
A|--------|--------|--------|--------|--------|--------|--------|--------|--------|
E|--------|--------|--------|--------|--------|--------|--------|--------|--------|


E|--------|--------|--------|--------|--------|--------|--------|--------|--------|
B|--------|--------|--------|--------|--------|--------|--------|--------|--------|
G|--------|--------|--------|--------|--------|--------|--------|--------|--------|
D|--------|--------|--------|--------|--------|--------|--------|--------|--------|
A|--------|--------|--------|--------|--------|--------|--------|--------|--------|
E|--------|--------|--------|--------|--------|--------|--------|--------|--------|


E|--------|--------|--------|--------|--------|--------|--------|--------|--------|
B|--------|--------|--------|--------|--------|--------|--------|--------|--------|
G|--------|--------|--------|--------|--------|--------|--------|--------|--------|
D|--------|--------|--------|--------|--------|--------|--------|--------|--------|
A|--------|--------|--------|--------|--------|--------|--------|--------|--------|
E|--------|--------|--------|--------|--------|--------|--------|--------|--------|


E|--------|--------|--------|--------|--------|--------|--------|--------|--------|
B|--------|--------|--------|--------|--------|--------|--------|--------|--------|
G|--------|--------|--------|--------|--------|--------|--------|--------|--------|
D|--------|--------|--------|--------|--------|--------|--------|--------|--------|
A|--------|--------|--------|--------|--------|--------|--------|--------|--------|
E|--------|--------|--------|--------|--------|--------|--------|--------|--------|


E|--------|--------|--------|--------|--------|--------|--------|--------|--------|
B|--------|--------|--------|--------|--------|--------|--------|--------|--------|
G|--------|--------|--------|--------|--------|--------|--------|--------|--------|
D|--------|--------|--------|--------|--------|--------|--------|--------|--------|
A|--------|--------|--------|--------|--------|--------|--------|--------|--------|
E|--------|--------|--------|--------|--------|--------|--------|--------|--------|


E|--------|--------|--------|--------|--------|--------|--------|--------|--------|
B|--------|--------|--------|--------|--------|--------|--------|--------|--------|
G|--------|--------|--------|--------|--------|--------|--------|--------|--------|
D|--------|--------|--------|--------|--------|--------|--------|--------|--------|
A|--------|--------|--------|--------|--------|--------|--------|--------|--------|
E|--------|--------|--------|--------|--------|--------|--------|--------|--------|


E|--------|--------|--------|--------|--------|--------|--------|--------|--------|
B|--------|--------|--------|--------|--------|--------|--------|--------|--------|
G|--------|--------|--------|--------|--------|--------|--------|--------|--------|
D|--------|--------|--------|--------|--------|--------|--------|--------|--------|
A|--------|--------|--------|--------|--------|--------|--------|--------|--------|
E|--------|--------|--------|--------|--------|--------|--------|--------|--------|


E|--------|--------|--------|--------|--------|--------|--------|--------|--------|
B|--------|--------|--------|--------|--------|--------|--------|--------|--------|
G|--------|--------|--------|--------|--------|--------|--------|--------|--------|
D|--------|--------|--------|--------|--------|--------|--------|--------|--------|
A|--------|--------|--------|--------|--------|--------|--------|--------|--------|
E|--------|--------|--------|--------|--------|--------|--------|--------|--------|


E|--------|--------|--------|--------|--------|--------|--------|--------|--------|
B|--------|--------|--------|--------|--------|--------|--------|--------|--------|
G|--------|--------|--------|--------|--------|--------|--------|--------|--------|
D|--------|--------|--------|--------|--------|--------|--------|--------|--------|
A|--------|--------|--------|--------|--------|--------|--------|--------|--------|
E|--------|--------|--------|--------|--------|--------|--------|--------|--------|


E|--------|--------|--------|--------|--------|--------|
B|--------|--------|--------|--------|--------|--------|
G|--------|--------|--------|--------|--------|--------|
D|--------|--------|--------|--------|--------|--------|
A|--------|--------|--------|--------|--------|--------|
E|--------|--------|--------|--------|--------|--------|



← Back to top