In Your Perfect World

by Firehouse

Guitar Pro Tab  |  v4.00  |  Posted on March 29, 2007, 10:58 a.m. ← Back

Guitar Pro Tab Summary

Album

Good Acustics

Song Author

Bill Leverty and Carl J. Snare

Tabbed by

by Capit´┐Żo Caverna

Instruments

1st → Guitar 1 (Eb)
2nd → Vocal
3rd → Guitar 2 (E)-Solo
4th → Drums
5th → 5 Strings Bass
6th → Shaker and Tambourine
7th → Congas and Bongos

File Size

47 KB

Views

3,222

Notice

I'm not so sure 'bout the vocals...I think it's right but if someone disagree, corrections are always welcome...I've decided to send this song, 'cause I've found only one firehouse tab in www.mysongbook.com...so...






Tablature Sheet

Title: In Your Perfect World
Artist: Firehouse
Album: Good Acustics
Author: Bill Leverty and Carl J. Snare






Track 1: Guitar 1 (Eb)
Back to top
D#|--------|--------|---------------------------------------------|---------------------------------------------|
A#|--------|--------|--------------------------------4--4---------|--------------------------------4--4---------|
F#|--------|--------|-----------6--4-----4--4-----4--------4------|-----------6--4-----4--4-----4--------4------|
C#|--------|--------|--------6--------6--------6--------------6---|--------6--------6--------6--------------6---|
G#|--------|--------|-----6---------------------------------------|-----6---------------------------------------|
D#|--------|--------|-4-------------------------------------------|-0-------------------------------------------|


D#|-------------------------------------------|---------------------------------------------|
A#|-----------2--0-----0--0-------------------|--------------------------------4--4---------|
F#|--------------------------1---3--3---------|-----------6--4-----4--4-----4--------4------|
C#|--------4--------4------------------4------|--------6--------6--------6------------------|
G#|-----4---------------------------------4---|-----6---------------------------------------|
D#|-2-----------------------------------------|-4---------------------------------------2---|


D#|-----------------------------|------------------------------------------|------------------------------------------|
A#|-----------------------------|------------------------------------------|------------------------------------------|
F#|-----------6--4-----4--4-----|-4----4--0--0--0-----0-----0--0--0--0--0--|-1----1--0--0--0-----0-----0--0--0--0--0--|
C#|--------6--------6-----------|-6----6--0--0--0-----0-----0--0--0--0--0--|-2----2--0--0--0-----0-----0--0--0--0--0--|
G#|-----6-----------------------|-6----6--0--0--0-----0-----0--0--0--0--0--|-2----2--0--0--0-----0-----0--0--0--0--0--|
D#|-4---------------------------|-4----4--0--0--0-----0-----0--0--0--0--0--|-0----0--0--0--0-----0-----0--0--0--0--0--|


D#|------------------------------------------|--------------------------------------|
A#|------------------------------------------|---------------0--0-------------------|
F#|-4----4--0--0--0-----0-----0--0--0--0--0--|-3----3--0--0------------3--3---------|
C#|-4----4--0--0--0-----0-----0--0--0--0--0--|-4----4--0--0--------6---------4------|
G#|-2----2--0--0--0-----0-----0--0--0--0--0--|-4----4--0--0---------------------4---|
D#|---------0--0--0-----0-----0--0--0--0--0--|-2----2--0--0-------------------------|


D#|------------------------------------------|------------------------------------------|
A#|------------------------------------------|------------------------------------------|
F#|-4----4--0--0--0-----0-----0--0--0--0--0--|-1----1--0--0--0-----0-----0--0--0--0--0--|
C#|-6----6--0--0--0-----0-----0--0--0--0--0--|-2----2--0--0--0-----0-----0--0--0--0--0--|
G#|-6----6--0--0--0-----0-----0--0--0--0--0--|-2----2--0--0--0-----0-----0--0--0--0--0--|
D#|-4----4--0--0--0-----0-----0--0--0--0--0--|-0----0--0--0--0-----0-----0--0--0--0--0--|


D#|------------------------------------------|------------------------------------|
A#|------------------------------------------|---------------9--9------8--8-------|
F#|-4----4--0--0--0-----0-----0--0--0--0--0--|-8----------8--------8--------------|
C#|-4----4--0--0--0-----0-----0--0--0--0--0--|-8-------8----------------------4---|
G#|-2----2--0--0--0-----0-----0--0--0--0--0--|-6----6-------------------------2---|
D#|---------0--0--0-----0-----0--0--0--0--0--|------------------------------------|


D#|--------------------------------------|-------------------------------------------|
A#|---------------5--5------4--4---------|------------------------------4--4---------|
F#|------6--4------------------------6---|-----------6--4-----4--4------------4------|
C#|-6----------6---------6--------6------|--------6--------6--------6------------6---|
G#|-4------------------------------------|-----6-------------------------------------|
D#|--------------------------------------|-4-----------------------------------------|


D#|-------------------------------------------|-------------------------------------------|
A#|--------------------------0----------------|------------------------------4--4---------|
F#|-----------6--4--------------4---3--1------|-----------6--4-----4--4------------4------|
C#|--------6--------6---------------------4---|--------6--------6--------6------------6---|
G#|-----6-------------------------------------|-----6-------------------------------------|
D#|-0------------------2--2-------------------|-4-----------------------------------------|


D#|-------------------------------------------|-------------------------------------------|
A#|---------5--4-----4--4--------4--4---------|------------------------------4--4---------|
F#|---------------6-----------6-----------6---|-----------6--4-----4--4------------4------|
C#|-----6------------------6-----------6------|--------6--------6--------6------------6---|
G#|-4-----------------------------------------|-----6-------------------------------------|
D#|-------------------------------------------|-4-----------------------------------------|


D#|-------------------------------------------|-------------------------------------------|
A#|------------------------------4--4---------|-----------2--0-----0--0-------------------|
F#|-----------6--4-----4--4------------4------|--------------------------1---3--3---------|
C#|--------6--------6--------6------------6---|--------4--------4------------------4------|
G#|-----6-------------------------------------|-----4---------------------------------4---|
D#|-0-----------------------------------------|-2-----------------------------------------|


D#|---------------------------------------------|---------------------------------------------|
A#|--------------------------------4--4---------|--------------------------------4--4---------|
F#|-----------6--4-----4--4-----4--------4------|-----------6--4-----4--4-----4--------4------|
C#|--------6--------6--------6------------------|--------6--------6--------6--------------6---|
G#|-----6-----------------------------------6---|-----6---------------------------------------|
D#|-4-------------------------------------------|-0-------------------------------------------|


D#|-------------------------------------------|---------------------------------------------|
A#|-----------2--0-----0--0-------------------|--------------------------------4--4---------|
F#|--------------------------1---3--3---------|-----------6--4-----4--4-----4--------4------|
C#|--------4--------4------------------4------|--------6--------6--------6------------------|
G#|-----4---------------------------------4---|-----6---------------------------------------|
D#|-2-----------------------------------------|-4---------------------------------------2---|


D#|---------------------------------------------|---------------------------------------------|
A#|--------------------------------4--4---------|--------------------------------4--4---------|
F#|-----------6--4-----4--4-----4--------4------|-----------6--4-----4--4-----4--------4------|
C#|--------6--------6--------6------------------|--------6--------6--------6--------------6---|
G#|-----6-----------------------------------6---|-----6---------------------------------------|
D#|-4-------------------------------------------|-0-------------------------------------------|


D#|-------------------------------------------|--------------------------------------|
A#|-----------2--0-----0--0-------------------|--------------------------------------|
F#|--------------------------1---3--3---------|--------------------------------------|
C#|--------4--------4------------------4------|-6----6---0--6-----0--0--0------------|
G#|-----4---------------------------------4---|-6----6---0--6-----0--0--0--2---------|
D#|-2-----------------------------------------|-4----4---0--4-----0--0--0-----4--2---|


D#|---------------------------|------------------------------------------|------------------------------------------|
A#|---------------------------|------------------------------------------|------------------------------------------|
F#|---------------------------|-4----4--0--0--0-----0-----0--0--0--0--0--|-1----1--0--0--0-----0-----0--0--0--0--0--|
C#|---------------------------|-6----6--0--0--0-----0-----0--0--0--0--0--|-2----2--0--0--0-----0-----0--0--0--0--0--|
G#|-4--6---6--6---6--6--------|-6----6--0--0--0-----0-----0--0--0--0--0--|-2----2--0--0--0-----0-----0--0--0--0--0--|
D#|-2--4---4--4---4--4--------|-4----4--0--0--0-----0-----0--0--0--0--0--|-0----0--0--0--0-----0-----0--0--0--0--0--|


D#|------------------------------------------|--------------------------------------|
A#|------------------------------------------|---------------0--0-------------------|
F#|-4----4--0--0--0-----0-----0--0--0--0--0--|-3----3--0--0------------3--3---------|
C#|-4----4--0--0--0-----0-----0--0--0--0--0--|-4----4--0--0--------6---------4------|
G#|-2----2--0--0--0-----0-----0--0--0--0--0--|-4----4--0--0---------------------4---|
D#|---------0--0--0-----0-----0--0--0--0--0--|-2----2--0--0-------------------------|


D#|------------------------------------------|------------------------------------------|
A#|------------------------------------------|------------------------------------------|
F#|-4----4--0--0--0-----0-----0--0--0--0--0--|-1----1--0--0--0-----0-----0--0--0--0--0--|
C#|-6----6--0--0--0-----0-----0--0--0--0--0--|-2----2--0--0--0-----0-----0--0--0--0--0--|
G#|-6----6--0--0--0-----0-----0--0--0--0--0--|-2----2--0--0--0-----0-----0--0--0--0--0--|
D#|-4----4--0--0--0-----0-----0--0--0--0--0--|-0----0--0--0--0-----0-----0--0--0--0--0--|


D#|------------------------------------------|------------------------------------|
A#|------------------------------------------|---------------9--9------8--8-------|
F#|-4----4--0--0--0-----0-----0--0--0--0--0--|-8----------8--------8--------------|
C#|-4----4--0--0--0-----0-----0--0--0--0--0--|-8-------8----------------------4---|
G#|-2----2--0--0--0-----0-----0--0--0--0--0--|-6----6-------------------------2---|
D#|---------0--0--0-----0-----0--0--0--0--0--|------------------------------------|


D#|--------------------------------------|-------------------------------------------|
A#|---------------5--5------4--4---------|------------------------------4--4---------|
F#|------6--4------------------------6---|-----------6--4-----4--4------------4------|
C#|-6----------6---------6--------6------|--------6--------6--------6------------6---|
G#|-4------------------------------------|-----6-------------------------------------|
D#|--------------------------------------|-4-----------------------------------------|


D#|-------------------------------------------|-------------------------------------------|
A#|--------------------------0----------------|------------------------------4--4---------|
F#|-----------6--4--------------4---3--1------|-----------6--4-----4--4------------4------|
C#|--------6--------6---------------------4---|--------6--------6--------6------------6---|
G#|-----6-------------------------------------|-----6-------------------------------------|
D#|-0------------------2--2-------------------|-4-----------------------------------------|


D#|-------------------------------------------|-------------------------------------------|
A#|---------5--4-----4--4--------4--4---------|------------------------------4--4---------|
F#|---------------6-----------6-----------6---|-----------6--4-----4--4------------4------|
C#|-----6------------------6-----------6------|--------6--------6--------6------------6---|
G#|-4-----------------------------------------|-----6-------------------------------------|
D#|-------------------------------------------|-4-----------------------------------------|


D#|-------------------------------------------|-------------------------------------------|
A#|------------------------------4--4---------|-----------2--0-----0--0-------------------|
F#|-----------6--4-----4--4------------4------|--------------------------1---3--3---------|
C#|--------6--------6--------6------------6---|--------4--------4------------------4------|
G#|-----6-------------------------------------|-----4---------------------------------4---|
D#|-0-----------------------------------------|-2-----------------------------------------|


D#|---------------------------------------------|---------------------------------------------|
A#|--------------------------------4--4---------|--------------------------------4--4---------|
F#|-----------6--4-----4--4-----4--------4------|-----------6--4-----4--4-----4--------4------|
C#|--------6--------6--------6------------------|--------6--------6--------6--------------6---|
G#|-----6-----------------------------------6---|-----6---------------------------------------|
D#|-4-------------------------------------------|-0-------------------------------------------|


D#|-------------------------------------------|---------------------------------------------|
A#|-----------2--0-----0--0-------------------|--------------------------------4--4---------|
F#|--------------------------1---3--3---------|-----------6--4-----4--4-----4--------4------|
C#|--------4--------4------------------4------|--------6--------6--------6------------------|
G#|-----4---------------------------------4---|-----6---------------------------------------|
D#|-2-----------------------------------------|-4---------------------------------------2---|


D#|---------------------------------------------|---------------------------------------------|
A#|--------------------------------4--4---------|--------------------------------4--4---------|
F#|-----------6--4-----4--4-----4--------4------|-----------6--4-----4--4-----4--------4------|
C#|--------6--------6--------6------------------|--------6--------6--------6--------------6---|
G#|-----6-----------------------------------6---|-----6---------------------------------------|
D#|-4-------------------------------------------|-0-------------------------------------------|


D#|-------------------------------------------|---------------------------------------------|
A#|-----------2--0-----0--0-------------------|---------------------------------------------|
F#|--------------------------1---3--3---------|---------------------------------------------|
C#|--------4--------4------------------4------|---------------------------------------------|
G#|-----4---------------------------------4---|-4--4---6--6--0--0--6-----0--0--6--0--0--6---|
D#|-2-----------------------------------------|-2--6---4--4--0--0--4-----0--0--4--0--0--4---|


D#|---------------------------------------------|---------------------------------------------|
A#|---------------------------------------------|---------------------------------------------|
F#|---------------------------------------------|---------------------------------------------|
C#|---------------------------------------------|---------------------------------------------|
G#|-4--4---6--6--0--0--6-----0--0--6--0--0--6---|-4--4---6--6--0--0--6-----0--0--6--0--0--6---|
D#|-2--6---4--4--0--0--4-----0--0--4--0--0--4---|-2--6---4--4--0--0--4-----0--0--4--0--0--4---|


D#|---------------------------------------------|---------------------------------------------|
A#|---------------------------------------------|---------------------------------------------|
F#|---------------------------------------------|---------------------------------------------|
C#|---------------------------------------------|---------------------------------------------|
G#|-4--4---6--6--0--0--6-----0--0--6--0--0--6---|-4--4---6--6--0--0--6-----0--0--6--0--0--6---|
D#|-2--6---4--4--0--0--4-----0--0--4--0--0--4---|-2--6---4--4--0--0--4-----0--0--4--0--0--4---|


D#|---------------------------------------------|---------------------------------------------|
A#|---------------------------------------------|---------------------------------------------|
F#|---------------------------------------------|---------------------------------------------|
C#|---------------------------------------------|---------------------------------------------|
G#|-4--4---6--6--0--0--6-----0--0--6--0--0--6---|-4--4---6--6--0--0--6-----0--0--6--0--0--6---|
D#|-2--6---4--4--0--0--4-----0--0--4--0--0--4---|-2--6---4--4--0--0--4-----0--0--4--0--0--4---|


D#|---------------------------------------------|--------|-0------|-------------------------------------------|
A#|---------------------------------------------|--------|-0------|-----------2--0-----0--0-------------------|
F#|---------------------------------------------|--------|-1------|--------------------------1---3--3---------|
C#|---------------------------------------------|-6------|-2------|--------4--------4------------------4------|
G#|-4--4---6--6--0--0--6-----0--0--6--0--0--6---|-6------|-2------|-----4---------------------------------4---|
D#|-2--6---4--4--0--0--4-----0--0--4--0--0--4---|-4------|-0------|-2-----------------------------------------|


D#|--------|--------|-0------|-------------------------------------------|--------|
A#|--------|--------|-0------|-----------2--0-----0--0-------------------|--------|
F#|-4------|--------|-1------|--------------------------1---3--3---------|-4------|
C#|-6------|-6------|-2------|--------4--------4------------------4------|-6------|
G#|-6------|-6------|-2------|-----4---------------------------------4---|-6------|
D#|-4------|-4------|-0------|-2-----------------------------------------|-4------|


D#|--------------------------------------|-------------------------------------------|
A#|---------------5--5------4--4---------|------------------------------4--4---------|
F#|------6--4------------------------6---|-----------6--4-----4--4------------4------|
C#|-6----------6---------6--------6------|--------6--------6--------6------------6---|
G#|-4------------------------------------|-----6-------------------------------------|
D#|--------------------------------------|-4-----------------------------------------|


D#|-------------------------------------------|-------------------------------------------|
A#|--------------------------0----------------|------------------------------4--4---------|
F#|-----------6--4--------------4---3--1------|-----------6--4-----4--4------------4------|
C#|--------6--------6---------------------4---|--------6--------6--------6------------6---|
G#|-----6-------------------------------------|-----6-------------------------------------|
D#|-0------------------2--2-------------------|-4-----------------------------------------|


D#|-------------------------------------------|-------------------------------------------|
A#|---------5--4-----4--4--------4--4---------|------------------------------4--4---------|
F#|---------------6-----------6-----------6---|-----------6--4-----4--4------------4------|
C#|-----6------------------6-----------6------|--------6--------6--------6------------6---|
G#|-4-----------------------------------------|-----6-------------------------------------|
D#|-------------------------------------------|-4-----------------------------------------|


D#|-------------------------------------------|--------|--------|---------------------------------------------|
A#|------------------------------4--4---------|--------|--------|--------------------------------4--4---------|
F#|-----------6--4-----4--4------------4------|--------|--------|-----------6--4-----4--4-----4--------4------|
C#|--------6--------6--------6------------6---|-8------|--------|--------6--------6--------6------------------|
G#|-----6-------------------------------------|-6------|--------|-----6-----------------------------------6---|
D#|-0-----------------------------------------|--------|--------|-4-------------------------------------------|


D#|---------------------------------------------|-------------------------------------------|
A#|--------------------------------4--4---------|-----------2--0-----0--0-------------------|
F#|-----------6--4-----4--4-----4--------4------|--------------------------1---3--3---------|
C#|--------6--------6--------6--------------6---|--------4--------4------------------4------|
G#|-----6---------------------------------------|-----4---------------------------------4---|
D#|-0-------------------------------------------|-2-----------------------------------------|


D#|---------------------------------------------|---------------------------------------------|
A#|--------------------------------4--4---------|--------------------------------4--4---------|
F#|-----------6--4-----4--4-----4--------4------|-----------6--4-----4--4-----4--------4------|
C#|--------6--------6--------6------------------|--------6--------6--------6------------------|
G#|-----6---------------------------------------|-----6-----------------------------------6---|
D#|-4---------------------------------------2---|-4-------------------------------------------|


D#|---------------------------------------------|-------------------------------------------|
A#|--------------------------------4--4---------|-----------2--0-----0--0-------------------|
F#|-----------6--4-----4--4-----4--------4------|--------------------------1---3--3---------|
C#|--------6--------6--------6--------------6---|--------4--------4------------------4------|
G#|-----6---------------------------------------|-----4---------------------------------4---|
D#|-0-------------------------------------------|-2-----------------------------------------|


D#|---------------------------------------------|---------------------------------------------|
A#|--------------------------------4--4---------|--------------------------------4--4---------|
F#|-----------6--4-----4--4-----4--------4------|-----------6--4-----4--4-----4--------4------|
C#|--------6--------6--------6------------------|--------6--------6--------6--------------6---|
G#|-----6-----------------------------------6---|-----6---------------------------------------|
D#|-4-------------------------------------------|-0-------------------------------------------|


D#|-------------------------------------------|---------------------------------------------|
A#|-----------2--0-----0--0-------------------|--------------------------------4--4---------|
F#|--------------------------1---3--3---------|-----------6--4-----4--4-----4--------4------|
C#|--------4--------4------------------4------|--------6--------6--------6------------------|
G#|-----4---------------------------------4---|-----6---------------------------------------|
D#|-2-----------------------------------------|-4---------------------------------------2---|


D#|---------------------------------------------|---------------------------------------------|
A#|--------------------------------4--4---------|--------------------------------4--4---------|
F#|-----------6--4-----4--4-----4--------4------|-----------6--4-----4--4-----4--------4------|
C#|--------6--------6--------6------------------|--------6--------6--------6--------------6---|
G#|-----6-----------------------------------6---|-----6---------------------------------------|
D#|-4-------------------------------------------|-0-------------------------------------------|


D#|-------------------------------------------|-----------------------------------------------|
A#|-----------2--0-----0--0-------------------|-----------------------------------------------|
F#|--------------------------1---3--3---------|-----------------------------------------------|
C#|--------4--------4------------------4------|-----------------------------------------------|
G#|-----4---------------------------------4---|-4--6---6--4--6--6--6--0--6--0--6--6--6--6--6--|
D#|-2-----------------------------------------|-2--4---4--2--4--4--4--0--4--0--4--4--4--4--4--|


D#|-----------------------------|-------------|
A#|-----------------------------|-------------|
F#|-----------------------------|-------------|
C#|-----------------------------|-------------|
G#|-4--6---6--4--6--6--6--------|-------------|
D#|-2--4---4--2--4--4--4--------|-------------|









Track 2: Guitar 2 (E)-Solo
Back to top
E|--------|--------|--------|--------|--------|--------|--------|--------|--------|
B|--------|--------|--------|--------|--------|--------|--------|--------|--------|
G|--------|--------|--------|--------|--------|--------|--------|--------|--------|
D|--------|--------|--------|--------|--------|--------|--------|--------|--------|
A|--------|--------|--------|--------|--------|--------|--------|--------|--------|
E|--------|--------|--------|--------|--------|--------|--------|--------|--------|


E|--------|--------|--------|--------|--------|--------|--------|--------|--------|
B|--------|--------|--------|--------|--------|--------|--------|--------|--------|
G|--------|--------|--------|--------|--------|--------|--------|--------|--------|
D|--------|--------|--------|--------|--------|--------|--------|--------|--------|
A|--------|--------|--------|--------|--------|--------|--------|--------|--------|
E|--------|--------|--------|--------|--------|--------|--------|--------|--------|


E|--------|--------|--------|--------|--------|--------|--------|--------|--------|
B|--------|--------|--------|--------|--------|--------|--------|--------|--------|
G|--------|--------|--------|--------|--------|--------|--------|--------|--------|
D|--------|--------|--------|--------|--------|--------|--------|--------|--------|
A|--------|--------|--------|--------|--------|--------|--------|--------|--------|
E|--------|--------|--------|--------|--------|--------|--------|--------|--------|


E|--------|--------|--------|--------|--------|--------|--------|--------|--------|
B|--------|--------|--------|--------|--------|--------|--------|--------|--------|
G|--------|--------|--------|--------|--------|--------|--------|--------|--------|
D|--------|--------|--------|--------|--------|--------|--------|--------|--------|
A|--------|--------|--------|--------|--------|--------|--------|--------|--------|
E|--------|--------|--------|--------|--------|--------|--------|--------|--------|


E|--------|--------|--------|--------|--------|--------|--------|--------|--------|
B|--------|--------|--------|--------|--------|--------|--------|--------|--------|
G|--------|--------|--------|--------|--------|--------|--------|--------|--------|
D|--------|--------|--------|--------|--------|--------|--------|--------|--------|
A|--------|--------|--------|--------|--------|--------|--------|--------|--------|
E|--------|--------|--------|--------|--------|--------|--------|--------|--------|


E|--------|--------|--------|--------|--------|--------|--------|--------|--------|
B|--------|--------|--------|--------|--------|--------|--------|--------|--------|
G|--------|--------|--------|--------|--------|--------|--------|--------|--------|
D|--------|--------|--------|--------|--------|--------|--------|--------|--------|
A|--------|--------|--------|--------|--------|--------|--------|--------|--------|
E|--------|--------|--------|--------|--------|--------|--------|--------|--------|


E|--------|--------|--------|-----------------|--------|-------------|------------------|
B|--------|--------|--------|-----------------|--------|-15---15-----|-15-----15--15-18-|
G|--------|--------|--------|-----------------|--------|-------------|------------------|
D|--------|--------|--------|-----------------|--------|-------------|------------------|
A|--------|-5------|-5------|-5-----5---------|--------|-------------|------------------|
E|--------|-3------|-3------|-3-----3----1----|-3------|-------------|------------------|


E|-------------|-------18---------------|-------------------------------|-----6---6---6---5---5---5---3---3---3----|
B|-18---18-----|-18---------------------|-------------------------------|-----8---8---8---6---6---6---4---4---4----|
G|-------------|------------------2--3--|-------------------------------|------------------------------------------|
D|-------------|---------------5--------|-5----5--3-----3-----5----5----|------------------------------------------|
A|-------------|------------5-----------|------------5------------------|------------------------------------------|
E|-------------|------------------------|-------------------------------|------------------------------------------|


E|-5----6---5---6---8---6---8---10--8---6---|-5----6-5-------------------------5--6--|
B|-6----------------------------------------|----------8---10-8--6--8-------6--------|
G|------------------------------------------|----------------------------7-----------|
D|------------------------------------------|----------------------------------------|
A|------------------------------------------|----------------------------------------|
E|------------------------------------------|----------------------------------------|


E|--------------------------------------|-8-----------10-------8-----6--------10----------|
B|-8----8--6--3--6-----8----8--8--8--8--|----8--8--8-----8--8-----8-----8--8-----8--8--11-|
G|--------------------------------------|-------------------------------------------------|
D|--------------------------------------|-------------------------------------------------|
A|--------------------------------------|-------------------------------------------------|
E|--------------------------------------|-------------------------------------------------|


E|-10-13--13----13--------181818--17--15--|-13--15--15--15--15-15-15-15-15-15-15-15-15-15---|
B|----------------------------------------|-------------------------------------------------|
G|----------------------------------------|-------------------------------------------------|
D|----------------------------------------|-------------------------------------------------|
A|----------------------------------------|-------------------------------------------------|
E|----------------------------------------|-------------------------------------------------|


E|--------|--------|--------|--------|--------|--------|--------|--------|--------|
B|--------|--------|--------|--------|--------|--------|--------|--------|--------|
G|--------|--------|--------|--------|--------|--------|--------|--------|--------|
D|--------|--------|--------|--------|--------|--------|--------|--------|--------|
A|--------|--------|--------|--------|--------|--------|--------|--------|--------|
E|--------|--------|--------|--------|--------|--------|--------|--------|--------|


E|--------|--------|--------|--------|--------|--------|--------|--------|--------|
B|--------|--------|--------|--------|--------|--------|--------|--------|--------|
G|--------|--------|--------|--------|--------|--------|--------|--------|--------|
D|--------|--------|--------|--------|--------|--------|--------|--------|--------|
A|--------|--------|--------|--------|--------|--------|--------|--------|--------|
E|--------|--------|--------|--------|--------|--------|--------|--------|--------|


E|--------|--------|--------|--------|--------|--------|--------|--------|
B|--------|--------|--------|--------|--------|--------|--------|--------|
G|--------|--------|--------|--------|--------|--------|--------|--------|
D|--------|--------|--------|--------|--------|--------|--------|--------|
A|--------|--------|--------|--------|--------|--------|--------|--------|
E|--------|--------|--------|--------|--------|--------|--------|--------|









Track 3: Vocal
Back to top
D#|--------|--------|--------|--------|--------|--------|-----------------------|-------------------------------------|
A#|--------|--------|--------|--------|--------|--------|-----------------------|-4---2---2--1---1--1---1------1---4--|
F#|--------|--------|--------|--------|--------|--------|-------------------5---|---------------------------1---------|
C#|--------|--------|--------|--------|--------|--------|-----------4---6-------|-------------------------------------|
G#|--------|--------|--------|--------|--------|--------|-----------------------|-------------------------------------|
D#|--------|--------|--------|--------|--------|--------|-----------------------|-------------------------------------|


D#|---------------------------------------|------------------------------------|-----------------------------|
A#|-4--2---2--2--1---1--1--------------4--|-4----2--1---1--1----------------4--|-4---2----2---2-------1---4--|
F#|-------------------------1---1---------|-------------------1---1--1---------|-------------------1---------|
C#|--------------------------------4------|-----------------------------4------|-----------------------------|
G#|---------------------------------------|------------------------------------|-----------------------------|
D#|---------------------------------------|------------------------------------|-----------------------------|


D#|------------------------------------|---------------------------------------|------------------------------------|
A#|-4--2---2--2--1---2--2-------1---4--|-4--2---2--2--1---2--2---1----------4--|-4----2--1---1--1----------------4--|
F#|--------------------------1---------|-----------------------------1---------|-------------------1---1--1---------|
C#|------------------------------------|--------------------------------4------|-----------------------------4------|
G#|------------------------------------|---------------------------------------|------------------------------------|
D#|------------------------------------|---------------------------------------|------------------------------------|


D#|---------------------------|-1---1---1---------------------------|-----2---------------------|
A#|-4---2----2---2--------4---|------------4---2--2---2---1--2---4--|-4------4--4---1--1--1-----|
F#|---------------------------|-------------------------------------|---------------------------|
C#|---------------------------|-------------------------------------|---------------------------|
G#|---------------------------|-------------------------------------|---------------------------|
D#|---------------------------|-------------------------------------|---------------------------|


D#|---------------------------------------|-----------------------|-1----1--1---------------------------|
A#|--------1--1--1---2--2----1--1---------|-------------------1---|------------4---2--2---2---1--2---4--|
F#|-1--3---------------------------3---1--|-1-------------1-------|-------------------------------------|
C#|---------------------------------------|-----------4-----------|-------------------------------------|
G#|---------------------------------------|-----------------------|-------------------------------------|
D#|---------------------------------------|-----------------------|-------------------------------------|


D#|-----2---------------------|-----------------------------------------|----------------------------------|
A#|-4------4--4---1--1--1-----|-----1--1--1--1---2--2--1---1--1--2---4--|-4--4---------4--2---1--1--2---4--|
F#|---------------------------|-----------------------------------------|----------------------------------|
C#|---------------------------|-----------------------------------------|----------------------------------|
G#|---------------------------|-----------------------------------------|----------------------------------|
D#|---------------------------|-----------------------------------------|----------------------------------|


D#|-------------------------------1--|-1---------1--1---1--2--2--4---4--|-4--2--------------------------------|
A#|-4------------4---2--2--2--1------|--------------1------2--2--4---4--|-4--2------------2--1----------------|
F#|----------------------------------|-----------1------1---------------|------------------------3--3--3---1--|
C#|-----------1----------------------|----------------------------------|--------------4----------------------|
G#|----------------------------------|----------------------------------|-------------------------------------|
D#|----------------------------------|----------------------------------|-------------------------------------|


D#|--------------4---8--2--4---4---|-4---2---2--------------------------1--|-1------------1--1---2--2--4---4--|
A#|--------------4---9--2--1---4---|-4---2---2----------4--2--2--2--1------|--------------1--1---2--2--4---4--|
F#|-1---------1--17--5--15-8---17--|-17--15--15-----1----------------------|-----------1----------------------|
C#|--------------------------------|---------------------------------------|----------------------------------|
G#|--------------------------------|---------------------------------------|----------------------------------|
D#|--------------------------------|---------------------------------------|----------------------------------|


D#|-4--2-----------------------------|-----------------|-----------------------|----------------------------------|
A#|-4--2---------2--1----------------|-----------------|-----------------------|-4--2---2--2------2--2------------|
F#|---------------------3--3--3---1--|-1---------------|-------------------5---|--------------5-----------1---5---|
C#|----------------------------------|-----------------|-----------4---6-------|----------------------------------|
G#|----------------------------------|-----------------|-----------------------|----------------------------------|
D#|----------------------------------|-----------------|-----------------------|----------------------------------|


D#|---------------------------------------|---------------------------------------|
A#|-4---2--2--2--1---2--2---1-------------|----4-----------------1-------------4--|
F#|------------------------------------6--|-6-----------6--6--6-------------------|
C#|-----------------------------6---4-----|--------------------------6--6--4------|
G#|---------------------------------------|---------------------------------------|
D#|---------------------------------------|---------------------------------------|


D#|---------------------------|----------------------------------|------------------------------------|
A#|-4---------------------1---|-4--2---2--2------2--2------------|-4------2--2--1---------------------|
F#|-----6---------------------|--------------5-----------1---5---|-----6------------6--6-----------6--|
C#|---------------4---6-------|----------------------------------|--------------------------6--4------|
G#|---------------------------|----------------------------------|------------------------------------|
D#|---------------------------|----------------------------------|------------------------------------|


D#|---------------------------------------|------------------------------|-1---1---1---------------------------|
A#|----1-----------------1-------------4--|-4--------4---------------4---|------------4---2--2----2--1--2---4--|
F#|-6-----------6--6--6-------------------|-----6------------6---6-------|-------------------------------------|
C#|--------------------------6--6--4------|------------------------------|-------------------------------------|
G#|---------------------------------------|------------------------------|-------------------------------------|
D#|---------------------------------------|------------------------------|-------------------------------------|


D#|---------------------------|---------------------------------------|-----------------------|
A#|-4---4--4--4--2--1---------|-1---1--1--1--4---2--2----1--1---------|-------------------1---|
F#|---------------------------|--------------------------------3---1--|-1-------------1-------|
C#|---------------------------|---------------------------------------|-----------4-----------|
G#|---------------------------|---------------------------------------|-----------------------|
D#|---------------------------|---------------------------------------|-----------------------|


D#|-1---1---1------------------------|----2----------------------|---------------------------------------|
A#|------------4---2--2----1--2---4--|-4------4--4---1--1--1-----|-1--1---1--1--1---2--2---1---1---2--4--|
F#|----------------------------------|---------------------------|---------------------------------------|
C#|----------------------------------|---------------------------|---------------------------------------|
G#|----------------------------------|---------------------------|---------------------------------------|
D#|----------------------------------|---------------------------|---------------------------------------|


D#|----------------------------------|-------------------------------1--|-1---------1--1---1--2--2--4---4--|
A#|-4---4---4----4--2---1--1--2---4--|-4------------4---2--2--2--1------|--------------1------2--2--4---4--|
F#|----------------------------------|----------------------------------|-----------1------1---------------|
C#|----------------------------------|-----------1----------------------|----------------------------------|
G#|----------------------------------|----------------------------------|----------------------------------|
D#|----------------------------------|----------------------------------|----------------------------------|


D#|-4--2--------------------------------|--------------4---8--2--4---4---|-4---2---2--------------------------1--|
A#|-4--2------------2--1----------------|--------------4---9--2--1---4---|-4---2---2----------4--2--2--2--1------|
F#|------------------------3--3--3---1--|-1---------1--17--5--15-8---17--|-17--15--15-----1----------------------|
C#|--------------4----------------------|--------------------------------|---------------------------------------|
G#|-------------------------------------|--------------------------------|---------------------------------------|
D#|-------------------------------------|--------------------------------|---------------------------------------|


D#|-1------------1--1---2--2--4---4--|-4--2-----------------------------|-------------|
A#|--------------1--1---2--2--4---4--|-4--2---------2--1----------------|-------------|
F#|-----------1----------------------|---------------------3--3--3---1--|-1-----------|
C#|----------------------------------|----------------------------------|-------------|
G#|----------------------------------|----------------------------------|-------------|
D#|----------------------------------|----------------------------------|-------------|


D#|--------|--------|--------|--------|--------|--------|--------|--------|--------|
A#|--------|--------|--------|--------|--------|--------|--------|--------|--------|
F#|--------|--------|--------|--------|--------|--------|--------|--------|--------|
C#|--------|--------|--------|--------|--------|--------|--------|--------|--------|
G#|--------|--------|--------|--------|--------|--------|--------|--------|--------|
D#|--------|--------|--------|--------|--------|--------|--------|--------|--------|


D#|--------|--------|--------|--------|--------|-----------------------|-1---1---1---------------------------|
A#|--------|--------|--------|--------|--------|-----------4---2---1---|------------4---2--2----2--1--2---4--|
F#|--------|--------|--------|--------|--------|-----------------------|-------------------------------------|
C#|--------|--------|--------|--------|--------|-----------------------|-------------------------------------|
G#|--------|--------|--------|--------|--------|-----------------------|-------------------------------------|
D#|--------|--------|--------|--------|--------|-----------------------|-------------------------------------|


D#|-----2----------------------------|---------------------------------------|-----------------------|
A#|-4------4--4---1---1--------------|-1---1--1--1--4---2--2----1--1---------|-------------------1---|
F#|----------------------------1--3--|--------------------------------3---3--|-1-------------1-------|
C#|----------------------------------|---------------------------------------|-----------4-----------|
G#|----------------------------------|---------------------------------------|-----------------------|
D#|----------------------------------|---------------------------------------|-----------------------|


D#|-1---1---1------------------------|----2--------------------------|---------------------------------------|
A#|------------4---2--2----1--2---4--|-4------4--4---1--1--1---------|-1--1---1--1--1---2--2---1---1---2--4--|
F#|----------------------------------|-------------------------------|---------------------------------------|
C#|----------------------------------|-------------------------------|---------------------------------------|
G#|----------------------------------|-------------------------------|---------------------------------------|
D#|----------------------------------|-------------------------------|---------------------------------------|


D#|----------------|---------------------------|-------------------------------1--|
A#|-4---2---2------|-------4--2---1--1--2---4--|-4------------4---2--2--2--1------|
F#|----------------|---------------------------|----------------------------------|
C#|----------------|---------------------------|-----------1----------------------|
G#|----------------|---------------------------|----------------------------------|
D#|----------------|---------------------------|----------------------------------|


D#|-1---------1--1---1--2--2--4---4--|-4--2-----------------------------|-----------4---4--2--4---4---|
A#|--------------1------2--2--4---4--|-4--2---------2--1----------------|-----------4---4--2--1---4---|
F#|-----------1------1---------------|---------------------3--3--3------|-----------17--17-15-8---17--|
C#|----------------------------------|-------------------------------6--|-6---------------------------|
G#|----------------------------------|----------------------------------|-----------------------------|
D#|----------------------------------|----------------------------------|-----------------------------|


D#|-4---2---4--------------------------1--|-1------------1--1---2--2--4---4--|-4--2---------4--2---------2---4--|
A#|-4---2---1---------4---2--2--2--1------|-----------1--1--1---2--2--4---4--|-4--2---------4------1--1--2---4--|
F#|-17--15--8------1----------------------|-----------1----------------------|-----------------6---8--8---------|
C#|---------------------------------------|----------------------------------|----------------------------------|
G#|---------------------------------------|----------------------------------|----------------------------------|
D#|---------------------------------------|----------------------------------|----------------------------------|


D#|-4-----------------------------1--|-1------------1--1---2--2--4---4--|-4--------------------------------|
A#|-4------------4--2---2--2--1------|--------------2--1---2--2--4---2--|-2------------2--1----------------|
F#|-----------1----------------------|----------------------------------|---------------------3--3--3---1--|
C#|----------------------------------|-----------3----------------------|-----------4----------------------|
G#|----------------------------------|----------------------------------|----------------------------------|
D#|----------------------------------|----------------------------------|----------------------------------|


D#|--------------4---8--2--4---4---|-4--4--6---6---------------------1--|-1------------1--1---2--2--4---4--|
A#|--------------4---9--2--4---4---|-4--4--7---7----4---2--2--2--1------|-----------1--1--1---2--2--4---4--|
F#|-1---------1--17--8--15-5---17--|-17-17-6---6------------------------|----------------------------------|
C#|--------------------------------|------------------------------------|-----------3----------------------|
G#|--------------------------------|------------------------------------|----------------------------------|
D#|--------------------------------|------------------------------------|----------------------------------|


D#|-4--2-----------------------------|-----------------|--------|--------|
A#|-4--2---------2--1---1--1---------|-----------------|--------|--------|
F#|---------------------------3---1--|-1---------------|--------|--------|
C#|----------------------------------|-----------------|--------|--------|
G#|----------------------------------|-----------------|--------|--------|
D#|----------------------------------|-----------------|--------|--------|









Track 4: 5 Strings Bass
Back to top
G|--------|--------|--------|--------|--------|--------|--------|--------|--------|
D|--------|--------|--------|--------|--------|--------|--------|--------|--------|
A|--------|--------|--------|--------|--------|--------|--------|--------|--------|
E|--------|--------|--------|--------|--------|--------|--------|--------|--------|
B|--------|--------|--------|--------|--------|--------|--------|--------|--------|


G|--------|--------|--------|--------|--------|--------------------|----------------|
D|--------|--------|--------|--------|--------|--------------------|----------------|
A|--------|--------|--------|--------|--------|----------------1---|-3--------------|
E|--------|--------|--------|--------|--------|--------------------|--------1---1---|
B|--------|--------|--------|--------|--------|--------------------|----------------|


G|--------|--------------------|----------------|----------------|--------|--------|
D|--------|--------------------|----------------|----------------|--------|--------|
A|--------|--------------------|--------1---1---|-3--------------|--------|--------|
E|-3------|-----------1--1-----|-3--------------|--------1---1---|-3------|--------|
B|--------|-4----4-------------|----------------|----------------|--------|-4------|


G|-------------|--------------------------|----------------------------------|------------------------------------|
D|-------------|--------------------------|----------------------------------|------3--------3--------------------|
A|-------------|--------------------------|-------------6-----6------6-------|---------3--------------------------|
E|-1------0----|-3--------3------3----1---|----------6-----------6-----------|-1----------1-------------1------1--|
B|-------------|-------3------------------|-4---------------------------4----|----------------------4-------4-----|


G|-------------------------------|-----------------------------|----------------------------------|
D|-------------------------------|-----------------------------|----------------------------------|
A|-------------------------------|-----------------------------|-------------6-----6------6-------|
E|-3--------3-----3--1-----------|-3--------3----------3---1---|----------6-----------6-----------|
B|-------3---------------4---3---|-------3---------3-----------|-4---------------------------4----|


G|--------------------------------------|------------------------------------------|
D|--------------------------------------|------------------------------------------|
A|--------------------------------------|------------------------------1-----------|
E|-1----1--------1-----1--1-----1---1---|-3----1--3--1--3-----3-----3-----3--1-----|
B|---------3--1--------------1----------|---------------------------------------3--|


G|------------------------|---------------------------------|---------------------------------|
D|------------------------|---------------------------------|---------------------------------|
A|------------------------|---------------------------------|------6--------6--------6---6----|
E|-3----1--3--1--3--------|-3----3--------3--------3---3----|------------6--------6-----------|
B|------------------------|------------3--------3-----------|-4-------------------------------|


G|---------------------------------|----------------------------------|---------------------------------|
D|---------------------------------|----------------------------------|---------------------------------|
A|---------------------------------|----------------------------------|---------------------------------|
E|-6----6--------6--------6---6----|-1----1------1-----1------1---1---|-3----3--------3--------3---3----|
B|------------6--------6-----------|----------1-----------1-----------|------------3--------3-----------|


G|---------------------------------|---------------------------------|------------------------------------|
D|---------------------------------|---------------------------------|------------------------------------|
A|------6--------6--------6---6----|---------------------------------|-5----5--------5-----5------5-------|
E|------------6--------6-----------|-6----6--------6--------6---6----|------------5-----------5-------6---|
B|-4-------------------------------|------------6--------6-----------|------------------------------------|


G|-------------------------------|-------------------------------|-------------------------------|
D|-------------------------------|-------------------------------|-------------------------------|
A|-3--------3-----3------3-------|-------------------------------|-------------------------------|
E|-------3-----------3-------1---|-3--------3-----3------3---1---|----------1-----1--1-------1---|
B|-------------------------------|-------3-----------3-----------|-4-----4---------------4-------|


G|-------------------------------|-------------------------------|-------------------------------|
D|-------------------------------|-------------------------------|-------------------------------|
A|---------------------------1---|-3--------3-----3------3-------|-------------------------------|
E|-3--------3-----3------3-------|-------3-----------3-------1---|-3--------3-----3------3---1---|
B|-------3-----------3-----------|-------------------------------|-------3-----------3-----------|


G|-------------------------------|-------------------------------|-------------------------------|
D|-------------------------------|-------------------------------|-------------------------------|
A|----------6-----6------6-------|-------------------------------|-------------------------------|
E|-------6-----------6-----------|-1--------1-----1------1---2---|-3--------3-----3------3---1---|
B|-4-------------------------4---|-------1-----------1-----------|-------3-----------3-----------|


G|----------------------------------|------------------------------------|-------------------------------|
D|----------------------------------|------3--------3--------------------|-------------------------------|
A|-------------6-----6------6-------|---------3--------------------------|-------------------------------|
E|----------6-----------6-----------|-1----------1-------------1------1--|-3--------3-----3--1-----------|
B|-4---------------------------4----|----------------------4-------4-----|-------3---------------4---3---|


G|-----------------------------|----------------------------------|-------------------------------|
D|-----------------------------|----------------------------------|-------------------------------|
A|-----------------------------|-------------6-----6------6-------|-------------------------------|
E|-3--------3----------3---1---|----------6-----------6-----------|-1--------1-----1------1---1---|
B|-------3---------3-----------|-4---------------------------4----|-------4-----------1-----------|


G|----------------------------------------|----------------------------------------|
D|----------------------------------------|----------------------------------------|
A|------------------------------1---------|------------------------------1---------|
E|-3----1--3--1--3-----3-----3-----3--1---|-3----1--3--1--3-----3-----3-----3--1---|
B|----------------------------------------|----------------------------------------|


G|----------------------------------------|--------------------------------------|
D|----------------------------------------|--------------------------------------|
A|------------------------------1---------|--------------------------------------|
E|-3----1--3--1--3-----3-----3-----3--1---|-3----1--3--1--3-----6-----8-----10---|
B|----------------------------------------|--------------------------------------|


G|----------------------------------------|----------------------------------------|
D|----------------------------------------|----------------------------------------|
A|------------------------------1---------|----------------------------------------|
E|-3----1--3--1--3-----3-----3-----3--1---|-3----1--3--1--3-----3-----3--3---------|
B|----------------------------------------|---------------------------------3--1---|


G|----------------------------------------|----------------------------------------|
D|----------------------------------------|---------------------------------3--1---|
A|------------------------------1---------|---------------1-----3-----4--5---------|
E|-3----1--3--1--3-----3-----3-----3--1---|-3----1--3--1---------------------------|
B|----------------------------------------|----------------------------------------|


G|---------------------------------|-------------------------------|-------------------------------|
D|---------------------------------|-------------------------------|-------------------------------|
A|---------------------------------|----------6--------6---6--6----|-------------------------------|
E|-3--------3-----3--3---3--3--1---|-------6--------6--------------|-1--------1-----1--1------1----|
B|-------3-------------------------|-4-----------------------------|-------1-----------------------|


G|-------------------------------|---------------------------------|-----------------------------|
D|-------------------------------|---------------------------------|-----------------------------|
A|-------------------------------|---------------------------------|----------6--6---6------6----|
E|-3--------3-----3--1-------1---|-3--------3-----3--3------3--1---|-------6---------------------|
B|-------3---------------3-------|-------3-------------------------|-4---------------------------|


G|---------------------------------|-------------------------------|-------------------------------|
D|---------------------------------|-------------------------------|-------------------------------|
A|---------------------------------|---------------------------1---|-3--------3-----3------3-------|
E|-1--------1--------1---1--1---1--|-3--------3-----3------3-------|-------3-----------3-------1---|
B|-------1--------1----------------|-------3-----------3-----------|-------------------------------|


G|----------------------------------|-------------------------------|-------------------------------|
D|----------------------------------|-------------------------------|-------------------------------|
A|----------------------------------|-------------------------------|---------------------------1---|
E|-3----3------3-----3------3---1---|----------1-----1--1-------1---|-3--------3-----3------3-------|
B|----------3-----------3-----------|-4-----4---------------1-------|-------3-----------3-----------|


G|-------------------------------|----------------------------------|-------------------------------|
D|-------------------------------|----------------------------------|-------------------------------|
A|-3--------3-----3------3-------|----------------------------------|----------6-----6------6-------|
E|-------3-----------3-------1---|-3----3------3-----3------3---1---|-------6-----------6-------6---|
B|-------------------------------|----------3-----------3-----------|-4-----------------------------|


G|--------|-----------------|-------------------------------|-------------------------------|
D|--------|-----------------|-------------------------------|-------------------------------|
A|-5------|-5---------------|-------------------------------|-------------6-----6------6----|
E|--------|-----------------|-3--------3-----3------3---1---|----------6-----------6--------|
B|--------|-----------------|-------3-----------3-----------|-4-----------------------------|


G|-------------------------------|-------------------------------|-------------------------------|
D|-------------------------------|-------------------------------|-------------------------------|
A|-------------------------------|-------------------------------|-------------------------------|
E|-1--------1-----1------1---1---|-3--------3-----3--1-------1---|-3--------3-----3------3---1---|
B|-------1-----------1-----------|-------3---------------3-------|-------3-----------3-----------|


G|-------------------------------|-------------------------------|-------------------------------|
D|-------------------------------|-------------------------------|-------------------------------|
A|-------------6-----6------6----|-------------------------------|-------------------------------|
E|----------6-----------6--------|-1--------1-----1------1---1---|-3--------3-----3------3---1---|
B|-4-----------------------------|-------1-----------1-----------|-------3-----------3-----------|


G|-------------------------------|-------------------------------|-------------------------------|
D|-------------------------------|-------------------------------|-------------------------------|
A|----------6-----6------6-------|-------------------------------|-------------------------------|
E|-------6-----------6-----------|-1--------1-----1------1---1---|-3--------3-----3--1-------1---|
B|-4------------------------4----|-------1-----------1-----------|-------3---------------3-------|


G|-------------------------------|-------------------------------|-------------------------------|
D|-------------------------------|-------------------------------|-------------------------------|
A|-------------------------------|----------6-----6------6-------|-------------------------------|
E|-3--------3-----3------3---1---|-------6-----------6-----------|-1--------1-----1------1---1---|
B|-------3-----------3-----------|-4------------------------4----|-------1-----------1-----------|


G|------------------------------------------|-------------------------------|-------------|
D|------------------------------------------|-------------------------------|-------------|
A|------------------------------1-----------|-------------------------------|-------------|
E|-3----1--3--1--3-----3-----3-----3--1-----|-1--3--3--3--1--3--1--3--------|-------------|
B|---------------------------------------3--|-------------------------------|-------------|









Track 5: Drums
Back to top
C|--------|--------|--------|--------|--------|--------|--------|--------|--------|
C|--------|--------|--------|--------|--------|--------|--------|--------|--------|
C|--------|--------|--------|--------|--------|--------|--------|--------|--------|
C|--------|--------|--------|--------|--------|--------|--------|--------|--------|
C|--------|--------|--------|--------|--------|--------|--------|--------|--------|
C|--------|--------|--------|--------|--------|--------|--------|--------|--------|


C|--------|--------|--------|--------|--------|--------|--------|--------|--------|
C|--------|--------|--------|--------|--------|--------|--------|--------|--------|
C|--------|--------|--------|--------|--------|--------|--------|--------|--------|
C|--------|--------|--------|--------|--------|--------|--------|--------|--------|
C|--------|--------|--------|--------|--------|--------|--------|--------|--------|
C|--------|--------|--------|--------|--------|--------|--------|--------|--------|


C|--------|--------|--------|--------|--------|-57---------------------------57---|
C|--------|--------|--------|--------|--------|-42---42----------42----------42---|
C|--------|--------|--------|--------|--------|------38-------------38-------38---|
C|--------|--------|--------|--------|--------|-----------------------------------|
C|--------|--------|--------|--------|--------|-----------------------------------|
C|--------|--------|--------|--------|--------|-36---------36-36-------36---------|


C|----------------------------------|-----------------------------------|----------------------------------------|
C|-42---42----------42------42------|-42---42----------42----------42---|-42---42----------42--------------------|
C|------38------------------38------|------38-------------38-------38---|------38----------38-38----38-38--38-38-|
C|----------------------------------|-----------------------------------|----------------------------------------|
C|----------------------------------|-----------------------------------|----------------------------------------|
C|-36---------36-36-----36------36--|-36---------36-36-------36---------|-36---------36-36-------36-36-----------|


C|----------------------------------------|----------------------------------|----------------------------------------|
C|-42---42----------42----------42--------|-42---42----------42------42------|-42---42----------42--------------------|
C|------38-------------38----38-38--------|------38------------------38------|------38-------------38----38-38--38-38-|
C|----------------------------------------|----------------------------------|----------------------------------------|
C|----------------------------------------|----------------------------------|----------------------------------------|
C|-36---------36-36-------36-36--------36-|-36---------36-36-----36------36--|-36---------36-36-------36-36-----------|


C|---------------------------------|-57-------------57-------|-57------------57-----------------|
C|-42---42----------42--------42---|-42------42--------------|-42---42----42-42-42--42--42--42--|
C|------38--------------------38---|---------38--38-38-------|------38------------------38------|
C|---------------------------------|-------------------------|----------------------------------|
C|---------------------------------|-------------------------|----------------------------------|
C|-36---------36-36----36--36------|-36---36-----------------|-36---------36-36-----36----------|


C|-----------------------------------|-----------------------------------|-----------------------------------|
C|-42--42--42--42----42--42--42--42--|-42--42--42--42----42--42--42--42--|-42--42--42--42----42--42--42--42--|
C|---------38----------------38------|---------38----------------38------|---------38----------------38--46--|
C|-----------------------------------|-----------------------------------|-----------------------------------|
C|-----------------------------------|-----------------------------------|-----------------------------------|
C|-36----------36-36-----36----------|-36----------36-36-----36----------|-36----------36-36-----36----------|


C|-----------------------------------|-----------------------------------|-----------------------------------|
C|-42--42--42--42----42--42--42--42--|-42--42--42--42----42--42--42--42--|-42--42--42--42----42--42--42--42--|
C|---------38----------------38------|---------38----------------38------|---------38----------------38------|
C|-----------------------------------|-----------------------------------|-----------------------------------|
C|-----------------------------------|-----------------------------------|-----------------------------------|
C|-36----------36-36-----36----------|-36----------36-36-----36----------|-36----------36-36-----36----------|


C|-------------------------------------|-57----------57-----------------|-----------------------------------|
C|-42--42--42--42----42--42--42--------|-42---42--42----42--42--42--42--|-42--42--42--42----42--42--42--42--|
C|---------38----------------38--38-38-|------38----------------38------|---------38----------------38------|
C|-------------------------------------|--------------------------------|-----------------------------------|
C|-------------------------------------|--------------------------------|-----------------------------------|
C|-36----------36-36-----36------------|-36-------36-36-----36------36--|-36----------36-36-----36------36--|


C|-------------------------------------|-----------------------------------|-57----------57-----------------|
C|-42--42--42--42----42--42--42--42----|-42--42--42--42----42--42--42--42--|-42---42--42----42--42--42--42--|
C|---------38----------------38--------|---------38----------------38------|------38----------------38------|
C|-------------------------------------|-----------------------------------|--------------------------------|
C|-------------------------------------|-----------------------------------|--------------------------------|
C|-36----------36-36-----36---------36-|-36----------36-36-----36----------|-36-------36-36-----36----------|


C|-----------------------------------|-------------------------------------|-----------------------------------------|
C|-42--42--42--42----42--42--42--42--|-42--42--42--42----42--42--42--42----|-42--42--42--42----42----42-42-42--------|
C|---------38----------------38------|---------38----------------38--------|---------38-----------38-------38--38-38-|
C|-----------------------------------|-------------------------------------|-----------------------------------------|
C|-----------------------------------|-------------------------------------|-----------------------------------------|
C|-36----------36-36-----36------36--|-36----------36-36-----36---------36-|-36----------36-36-------36-36-----------|


C|-57---------------------------57---|----------------------------------|-----------------------------------|
C|-42---42----------42----------42---|-42---42----------42------42------|-42---42----------42----------42---|
C|------38-------------38-------38---|------38------------------38------|------38-------------38-------38---|
C|-----------------------------------|----------------------------------|-----------------------------------|
C|-----------------------------------|----------------------------------|-----------------------------------|
C|-36---------36-36-------36---------|-36---------36-36-----36------36--|-36---------36-36-------36---------|


C|----------------------------------------|----------------------------------------|
C|-42---42----------42--------------------|-42---42----------42----------42--------|
C|------38----------38-38----38-38--38-38-|------38-------------38----38-38--------|
C|----------------------------------------|----------------------------------------|
C|----------------------------------------|----------------------------------------|
C|-36---------36-36-------36-36-----------|-36---------36-36-------36-36--------36-|


C|----------------------------------|------------------------------------------|-57------------57---------------------|
C|-42---42----------42------42------|-42---42----------42----------------------|-42---42----------42----------42------|
C|------38------------------38------|------38-------------38----38-38-38-38-38-|------38-------------38----38---------|
C|----------------------------------|------------------------------------------|--------------------------------------|
C|----------------------------------|------------------------------------------|--------------------------------------|
C|-36---------36-36-----36------36--|-36---------36-36-------36-36-------------|-36---------36-36-------36-36-----36--|


C|--------------------------------|-57------------57---------------------|------------------------------------------|
C|-42---42--------42------42------|-42---42----------42----------42------|-42---42----------42----------42----------|
C|------38------------------------|------38-------------38----38---------|------38-------------38----38-38----38-38-|
C|--------------------------------|--------------------------------------|------------------------------------------|
C|--------------------------------|--------------------------------------|------------------------------------------|
C|-36-------36-36-----36------36--|-36---------36-36-------36-36-----36--|-36---------36-36-------36-36----36-------|


C|-57------------57---------------------|--------------------------------------|-57------------57-------------------------|
C|-42---42----------42----------42------|-42---42----------42------42----42----|-42---42----------42----------42----------|
C|------38-------------38----38---------|------38------------------38----------|------38-------------38----38-------------|
C|--------------------------------------|--------------------------------------|------------------------------------------|
C|--------------------------------------|--------------------------------------|------------------------------------------|
C|-36---------36-36-------36-36-----36--|-36---------36-36-----36-----36----36-|-36---------36-36-------36-36----36-36-36-|


C|-49-------------49-------------------------|-57------------57---------------------|
C|-42------42--42----42----42----42----------|-42---42----------42------42----------|
C|---------38-----38----38----38----38-38-38-|------38------------------38----------|
C|-------------------------------------------|--------------------------------------|
C|-------------------------------------------|--------------------------------------|
C|-36---36-----------------------36----------|-36---------36-36-----36-----36----36-|


C|--------------------------------------|-57------------57---------------------|--------------------------------------|
C|-42---42----------42------42----------|-42---42----------42------42----------|-42---42----------42------42----------|
C|------38------------------38----------|------38------------------38----------|------38------------------38----------|
C|--------------------------------------|--------------------------------------|--------------------------------------|
C|--------------------------------------|--------------------------------------|--------------------------------------|
C|-36------------36-----36-----36----36-|-36---------36-36-----36-----36----36-|-36---------36-36-----36-----36----36-|


C|-57------------57---------------------|--------------------------------------|-57------------57---------------------|
C|-42---42----------42------42----------|-42---42----------42------42----------|-42---42----------42------42----------|
C|------38------------------38----------|------38------------------38----------|------38------------------38----------|
C|--------------------------------------|--------------------------------------|--------------------------------------|
C|--------------------------------------|--------------------------------------|--------------------------------------|
C|-36---------36-36-----36-----36----36-|-36---------36-36-----36-----36----36-|-36---------36-36-----36-----36----36-|


C|----------------------------------------|-57----------57-----------------|-------------------------------------|
C|-42---42----------42--------------------|-42---42--42----42--42--42--42--|-42--42--42--42----42--42--42-----42-|
C|------38-------------38----38-38--38-38-|------38----------------38------|---------38----------------38--------|
C|----------------------------------------|--------------------------------|-------------------------------------|
C|----------------------------------------|--------------------------------|-------------------------------------|
C|-36---------36-36-------36--------------|-36-------36-36-----36----------|-36----------36-36-----36------36----|


C|-------------------------------------|---------------------------------------|-57----------57-----------------|
C|-42--42--42--42----42--42--42-----42-|-42--42--42--42----42--42--42----42----|-42---42--42----42--42--42--42--|
C|---------38----------------38--------|---------38----------------38----------|------38----------------38------|
C|-------------------------------------|---------------------------------------|--------------------------------|
C|-------------------------------------|---------------------------------------|--------------------------------|
C|-36----------36-36-----36------36----|-36----------36-36-----36-----36----36-|-36-------36-36-----36----------|


C|-------------------------------------|-----------------------------------|-57---57---------|
C|-42--42--42--42----42--42--42-----42-|-42--42--42--42----42--42--42--42--|-----------------|
C|---------38----------------38--------|---------38----------------38------|-----------------|
C|-------------------------------------|-----------------------------------|-----------------|
C|-------------------------------------|-----------------------------------|-----------------|
C|-36----------36-36-----36------36----|-36-------------36-----36------36--|-36--------------|


C|--------|-57---------------------------57----------|----------------------------------|
C|--------|-42---42----------42----------42----------|-42---42----------42------42------|
C|--------|------38-------------38-------38----------|------38------------------38------|
C|--------|------------------------------------------|----------------------------------|
C|--------|------------------------------------------|----------------------------------|
C|--------|-36---------36-36-------36-36----36----36-|-36---------36-36-----36------36--|


C|-----------------------------------|----------------------------------------|-49------------49---------------------|
C|-42---42----------42----------42---|-42---42----------42--------------------|-42---42----------42------42----------|
C|------38-------------38-------38---|------38----------38-38----38-38--38-38-|------38------------------38----------|
C|-----------------------------------|----------------------------------------|--------------------------------------|
C|-----------------------------------|----------------------------------------|--------------------------------------|
C|-36---------36-36-------36-36------|-36---------36-36-------36-36-----------|-36---------36-36-----36-----36----36-|


C|----------------------------------|------------------------------------------|-57------------57-----------------|
C|-42---42----------42------42------|-42---42----------42----------------------|-42---42----------42------42------|
C|------38------------------38------|---------------------38-------38-38-38-38-|------38------------------38------|
C|----------------------------------|------------------------------------------|----------------------------------|
C|----------------------------------|------------------------------------------|----------------------------------|
C|-36------------36-----36------36--|-36---------36-36-------36-36-------------|-36---------36-36-----36------36--|


C|--------------------------------------|------------------------------------------|
C|-42---42----------42------42----------|-42---42----------42----------42----------|
C|------38------------------38----------|------38-------------38-------38----------|
C|--------------------------------------|------------------------------------------|
C|--------------------------------------|------------------------------------------|
C|-36------------36-----36-----36----36-|-36---------36-36----------36----36----36-|


C|-----------------------------------------|-57------------57-----------------|--------------------------------------|
C|-42--------42--42--42----42----42--------|-42---42----------42------42------|-42---42----------42------42----------|
C|-----------38------38-38-------38--38-38-|------38------------------38------|------38------------------38----------|
C|-----------------------------------------|----------------------------------|--------------------------------------|
C|-----------------------------------------|----------------------------------|--------------------------------------|
C|-36-----36---------------36-36-----------|-36---------36-36-----36------36--|-36---------36-36-----36-----36----36-|


C|------------------------------------------|-57------------57------------------|-49---------------49-------|
C|-42---42----------42----42----------------|-42---42----------42----------42---|-42--42----42--------------|
C|------38-------------38-------38-38-38-38-|------38-------------38-------38---|-----------38--38-38-------|
C|------------------------------------------|-----------------------------------|---------------------------|
C|------------------------------------------|-----------------------------------|---------------------------|
C|-36---------36-36-------36-36-------------|-36---------36-36----------36------|-36-----36-----------------|


C|-------------|
C|-------------|
C|-------------|
C|-------------|
C|-------------|
C|-------------|









Track 6: Congas and Bongos
Back to top
C|-64--64-64-63--63-64----64-63-64-64-64-63-63-|-64--64-64-63--63-64----64-63-64-64-64-63-63-|
C|---------------------------------------------|---------------------------------------------|
C|---------------------------------------------|---------------------------------------------|
C|---------------------------------------------|---------------------------------------------|
C|---------------------------------------------|---------------------------------------------|
C|---------------------------------------61-61-|---------------------------------------61-61-|


C|-64--64-64-63--63-64----64-63-64-64-64-63-63-|-64--64-64-63--63-64----64-63-64-64-64-63-63-|
C|---------------------------------------------|---------------------------------------------|
C|---------------------------------------------|---------------------------------------------|
C|---------------------------------------------|---------------------------------------------|
C|---------------------------------------------|---------------------------------------------|
C|---------------------------------------61-61-|---------------------------------------61-61-|


C|-64--64-64-63--63-64----64-63-64-64-64-63-63-|-64--64-64-63--63-64----64-63-64-64-64-63-63-|
C|---------------------------------------------|---------------------------------------------|
C|---------------------------------------------|---------------------------------------------|
C|---------------------------------------------|---------------------------------------------|
C|---------------------------------------------|---------------------------------------------|
C|---------------------------------------61-61-|---------------------------------------61-61-|


C|-64--64-64-63--63-64----64-63-64-64-64-63-63-|-64--64-64-63--63-64----64-63-64-64-64-63-63-|
C|---------------------------------------------|---------------------------------------------|
C|---------------------------------------------|---------------------------------------------|
C|---------------------------------------------|---------------------------------------------|
C|---------------------------------------------|---------------------------------------------|
C|---------------------------------------61-61-|---------------------------------------61-61-|


C|-64--64-64-63--63-64----64-63-64-64-64-63-63-|-64--64-64-63--63-64----64-63-64-64-64-63-63-|
C|---------------------------------------------|---------------------------------------------|
C|---------------------------------------------|---------------------------------------------|
C|---------------------------------------------|---------------------------------------------|
C|---------------------------------------------|---------------------------------------------|
C|---------------------------------------61-61-|---------------------------------------61-61-|


C|-64--64-64-63--63-64----64-63-64-64-64-63-63-|-64--64-64-63--63-64----64-63-64-64-64-63-63-|
C|---------------------------------------------|---------------------------------------------|
C|---------------------------------------------|---------------------------------------------|
C|---------------------------------------------|---------------------------------------------|
C|---------------------------------------------|---------------------------------------------|
C|---------------------------------------61-61-|---------------------------------------61-61-|


C|-64--64-64-63--63-64----64-63-64-64-64-63-63-|-64--64-64-63--63-64----64-63-64-64-64-63-63-|
C|---------------------------------------------|---------------------------------------------|
C|---------------------------------------------|---------------------------------------------|
C|---------------------------------------------|---------------------------------------------|
C|---------------------------------------------|---------------------------------------------|
C|---------------------------------------61-61-|---------------------------------------61-61-|


C|-64--64-64-63--63-64----64-63-64-64-64-63-63-|-64--64-64-63--63-64----64-63-64-64-64-63-63-|
C|---------------------------------------------|---------------------------------------------|
C|---------------------------------------------|---------------------------------------------|
C|---------------------------------------------|---------------------------------------------|
C|---------------------------------------------|---------------------------------------------|
C|---------------------------------------61-61-|---------------------------------------61-61-|


C|-64--64-64-63--63-64----64-63-64-64-64-63-63-|-64--64-64-63--63-64----64-63-64-64-64-63-63-|
C|---------------------------------------------|---------------------------------------------|
C|---------------------------------------------|---------------------------------------------|
C|---------------------------------------------|---------------------------------------------|
C|---------------------------------------------|---------------------------------------------|
C|---------------------------------------61-61-|---------------------------------------61-61-|


C|-64--64-64-63--63-64----64-63-64-64-64-63-63-|-64--64-64-63--63-64----64-63-64-64-64-63-63-|
C|---------------------------------------------|---------------------------------------------|
C|---------------------------------------------|---------------------------------------------|
C|---------------------------------------------|---------------------------------------------|
C|---------------------------------------------|---------------------------------------------|
C|---------------------------------------61-61-|---------------------------------------61-61-|


C|-64--64-64-63--63-64----64-63-64-64-64-63-63-|-64--64-64-63--63-64----64-63-64-64-64-63-63-|
C|---------------------------------------------|---------------------------------------------|
C|---------------------------------------------|---------------------------------------------|
C|---------------------------------------------|---------------------------------------------|
C|---------------------------------------------|---------------------------------------------|
C|---------------------------------------61-61-|---------------------------------------61-61-|


C|-64--64-64-63--63-64-63-64-63-64-6464646463636363|-64--64-64-63--63-64----64-63-64-64-64-63-63-|
C|-------------------------------------------------|---------------------------------------------|
C|-------------------------------------------------|---------------------------------------------|
C|-------------------------------------------------|---------------------------------------------|
C|-------------------------------------------------|---------------------------------------------|
C|-----------------------------------------61--61--|---------------------------------------61-61-|


C|-64--64-64-63--63-64----64-63-64-64-64-63-63-|-64--64-64-63--63-64----64-63-64-64-64-63-63-|
C|---------------------------------------------|---------------------------------------------|
C|---------------------------------------------|---------------------------------------------|
C|---------------------------------------------|---------------------------------------------|
C|---------------------------------------------|---------------------------------------------|
C|---------------------------------------61-61-|---------------------------------------61-61-|


C|-64--64-64-63--63-64----64-63-64-64-64-63-63-|-64--64-64-63--63-64----64-63-64-64-64-63-63-|
C|---------------------------------------------|---------------------------------------------|
C|---------------------------------------------|---------------------------------------------|
C|---------------------------------------------|---------------------------------------------|
C|---------------------------------------------|---------------------------------------------|
C|---------------------------------------61-61-|---------------------------------------61-61-|


C|-64--64-64-63--63-64----64-63-64-64-64-63-63-|-64--64-64-63--63-64----64-63-64-64-64-63-63-|
C|---------------------------------------------|---------------------------------------------|
C|---------------------------------------------|---------------------------------------------|
C|---------------------------------------------|---------------------------------------------|
C|---------------------------------------------|---------------------------------------------|
C|---------------------------------------61-61-|---------------------------------------61-61-|


C|-64--64-64-63--63-64----64-63-64-64-64-63-63-|-64--64-64-63--63-64-------|-64--64-64-63--63-64----64-63-64-64-64-63-63-|
C|---------------------------------------------|---------------------------|---------------------------------------------|
C|---------------------------------------------|---------------------------|---------------------------------------------|
C|---------------------------------------------|---------------------------|---------------------------------------------|
C|---------------------------------------------|---------------------------|---------------------------------------------|
C|---------------------------------------61-61-|---------------------------|---------------------------------------61-61-|


C|-64--64-64-63--63-64----64-63-64-64-64-63-63-|-64--64-64-63--63-64----64-63-64-64-64-63-63-|
C|---------------------------------------------|---------------------------------------------|
C|---------------------------------------------|---------------------------------------------|
C|---------------------------------------------|---------------------------------------------|
C|---------------------------------------------|---------------------------------------------|
C|---------------------------------------61-61-|---------------------------------------61-61-|


C|-64--64-64-63--63-64----64-63-64-64-64-63-63-|-64--64-64-63--63-64----64-63-64-64-64-63-63-|
C|---------------------------------------------|---------------------------------------------|
C|---------------------------------------------|---------------------------------------------|
C|---------------------------------------------|---------------------------------------------|
C|---------------------------------------------|---------------------------------------------|
C|---------------------------------------61-61-|---------------------------------------61-61-|


C|-64--64-64-63--63-64----64-63-64-64-64-63-63-|-64--64-64-63--63-64----64-63-64-64-64-63-63-|
C|---------------------------------------------|---------------------------------------------|
C|---------------------------------------------|---------------------------------------------|
C|---------------------------------------------|---------------------------------------------|
C|---------------------------------------------|---------------------------------------------|
C|---------------------------------------61-61-|---------------------------------------61-61-|


C|-64--64-64-63--63-64----64-63-64-64-64-63-63-|-64--64-64-63--63-64----64-63-64-64-64-63-63-|
C|---------------------------------------------|---------------------------------------------|
C|---------------------------------------------|---------------------------------------------|
C|---------------------------------------------|---------------------------------------------|
C|---------------------------------------------|---------------------------------------------|
C|---------------------------------------61-61-|---------------------------------------61-61-|


C|-64--64-64-63--63-64----64-63-64-64-64-63-63-|-64--64-64-63--63-64----64-63-64-64-64-63-63-|
C|---------------------------------------------|---------------------------------------------|
C|---------------------------------------------|---------------------------------------------|
C|---------------------------------------------|---------------------------------------------|
C|---------------------------------------------|---------------------------------------------|
C|---------------------------------------61-61-|---------------------------------------61-61-|


C|-64--64-64-63--63-64----64-63-64-64-64-63-63-|-64--64-64-63--63-64----64-63-64-64-64-63-63-|
C|---------------------------------------------|---------------------------------------------|
C|---------------------------------------------|---------------------------------------------|
C|---------------------------------------------|---------------------------------------------|
C|---------------------------------------------|---------------------------------------------|
C|---------------------------------------61-61-|---------------------------------------61-61-|


C|-64--64-64-63--63-64----64-63-64-64-64-63-63-|-64--64-64-63--63-64----64-63-64-64-64-63-63-|
C|---------------------------------------------|---------------------------------------------|
C|---------------------------------------------|---------------------------------------------|
C|---------------------------------------------|---------------------------------------------|
C|---------------------------------------------|---------------------------------------------|
C|---------------------------------------61-61-|---------------------------------------61-61-|


C|-64--64-64-63--63-64-63-64-63-64-6464646463636363|-64--64-64-63--63-64----64-63-64-64-64-63-63-|
C|-------------------------------------------------|---------------------------------------------|
C|-------------------------------------------------|---------------------------------------------|
C|-------------------------------------------------|---------------------------------------------|
C|-------------------------------------------------|---------------------------------------------|
C|-----------------------------------------61--61--|---------------------------------------61-61-|


C|-64--64-64-63--63-64----64-63-64-64-64-63-63-|-64--64-64-63--63-64----64-63-64-64-64-63-63-|
C|---------------------------------------------|---------------------------------------------|
C|---------------------------------------------|---------------------------------------------|
C|---------------------------------------------|---------------------------------------------|
C|---------------------------------------------|---------------------------------------------|
C|---------------------------------------61-61-|---------------------------------------61-61-|


C|-64--64-64-63--63-64----64-63-64-64-64-63-63-|-64--64-64-63--63-64----64-63-64-64-64-63-63-|
C|---------------------------------------------|---------------------------------------------|
C|---------------------------------------------|---------------------------------------------|
C|---------------------------------------------|---------------------------------------------|
C|---------------------------------------------|---------------------------------------------|
C|---------------------------------------61-61-|---------------------------------------61-61-|


C|-64--64-64-63--63-64----64-63-64-64-64-63-63-|-64--64-64-63--63-64----64-63-64-64-64-63-63-|
C|---------------------------------------------|---------------------------------------------|
C|---------------------------------------------|---------------------------------------------|
C|---------------------------------------------|---------------------------------------------|
C|---------------------------------------------|---------------------------------------------|
C|---------------------------------------61-61-|---------------------------------------61-61-|


C|-64--64-64-63--63-64----64-63-64-64-64-63-63-|-64--64-64-63--63-64----64-63-64-64-64-63-63-|
C|---------------------------------------------|---------------------------------------------|
C|---------------------------------------------|---------------------------------------------|
C|---------------------------------------------|---------------------------------------------|
C|---------------------------------------------|---------------------------------------------|
C|---------------------------------------61-61-|---------------------------------------61-61-|


C|-64--64-64-63--63-64----64-63-64-64-64-63-63-|-64--64-64-63--63-64----64-63-64-64-64-63-63-|
C|---------------------------------------------|---------------------------------------------|
C|---------------------------------------------|---------------------------------------------|
C|---------------------------------------------|---------------------------------------------|
C|---------------------------------------------|---------------------------------------------|
C|---------------------------------------61-61-|---------------------------------------61-61-|


C|-64--64-64-63--63-64----64-63-64-64-64-63-63-|-64--64-64-63--63-64----64-63-64-64-64-63-63-|
C|---------------------------------------------|---------------------------------------------|
C|---------------------------------------------|---------------------------------------------|
C|---------------------------------------------|---------------------------------------------|
C|---------------------------------------------|---------------------------------------------|
C|---------------------------------------61-61-|---------------------------------------61-61-|


C|-64--64-64-63--63-64----64-63-64-64-64-63-63-|-64--64-64-63--63-64----64-63-64-64-64-63-63-|
C|---------------------------------------------|---------------------------------------------|
C|---------------------------------------------|---------------------------------------------|
C|---------------------------------------------|---------------------------------------------|
C|---------------------------------------------|---------------------------------------------|
C|---------------------------------------61-61-|---------------------------------------61-61-|


C|-64--64-64-63--63-64----64-63-64-64-64-63-63-|-64--64-64-63--63-64----64-63-64-64-64-63-63-|
C|---------------------------------------------|---------------------------------------------|
C|---------------------------------------------|---------------------------------------------|
C|---------------------------------------------|---------------------------------------------|
C|---------------------------------------------|---------------------------------------------|
C|---------------------------------------61-61-|---------------------------------------61-61-|


C|-64--64-64-63--63-64----64-63-64-64-64-63-63-|-64--64-64-63--63-64----64-63-64-64-64-63-63-|
C|---------------------------------------------|---------------------------------------------|
C|---------------------------------------------|---------------------------------------------|
C|---------------------------------------------|---------------------------------------------|
C|---------------------------------------------|---------------------------------------------|
C|---------------------------------------61-61-|---------------------------------------61-61-|


C|-64--64-64-63--63-64----64-63-64-64-64-63-63-|-64--64-64-63--63-64----64-63-64-64-64-63-63-|
C|---------------------------------------------|---------------------------------------------|
C|---------------------------------------------|---------------------------------------------|
C|---------------------------------------------|---------------------------------------------|
C|---------------------------------------------|---------------------------------------------|
C|---------------------------------------61-61-|---------------------------------------61-61-|


C|-64--64-64-63--63-64----64-63-64-64-64-63-63-|-64--64-64-63--63-64----64-63-64-64-64-63-63-|
C|---------------------------------------------|---------------------------------------------|
C|---------------------------------------------|---------------------------------------------|
C|---------------------------------------------|---------------------------------------------|
C|---------------------------------------------|---------------------------------------------|
C|---------------------------------------61-61-|---------------------------------------61-61-|


C|-64--64-64-63--63-64----64-63-64-64-64-63-63-|-64--64-64-63--63-64----64-63-64-64-64-63-63-|
C|---------------------------------------------|---------------------------------------------|
C|---------------------------------------------|---------------------------------------------|
C|---------------------------------------------|---------------------------------------------|
C|---------------------------------------------|---------------------------------------------|
C|---------------------------------------61-61-|---------------------------------------61-61-|


C|-64--64-64-63--63-64----64-63-64-64-64-63-63-|-64--64-64-63--63-64----64-63-64-64-64-63-63-|
C|---------------------------------------------|---------------------------------------------|
C|---------------------------------------------|---------------------------------------------|
C|---------------------------------------------|---------------------------------------------|
C|---------------------------------------------|---------------------------------------------|
C|---------------------------------------61-61-|---------------------------------------61-61-|


C|-64--64-64-63--63-64----64-63-64-64-64-63-63-|-64--64-64-63--63-64----64-63-64-64-64-63-63-|
C|---------------------------------------------|---------------------------------------------|
C|---------------------------------------------|---------------------------------------------|
C|---------------------------------------------|---------------------------------------------|
C|---------------------------------------------|---------------------------------------------|
C|---------------------------------------61-61-|---------------------------------------61-61-|


C|-64--64-64-63--63-64----64-63-64-64-64-63-63-|-64--63-64------------|--------|-64--64-64-63--63-64----64-63-64-64-64-63-63-|
C|---------------------------------------------|----------------------|--------|---------------------------------------------|
C|---------------------------------------------|----------------------|--------|---------------------------------------------|
C|---------------------------------------------|----------------------|--------|---------------------------------------------|
C|---------------------------------------------|----------------------|--------|---------------------------------------------|
C|---------------------------------------61-61-|-----62-62------------|--------|---------------------------------------61-61-|


C|-64--64-64-63--63-64----64-63-64-64-64-63-63-|-64--64-64-63--63-64----64-63-64-64-64-63-63-|
C|---------------------------------------------|---------------------------------------------|
C|---------------------------------------------|---------------------------------------------|
C|---------------------------------------------|---------------------------------------------|
C|---------------------------------------------|---------------------------------------------|
C|---------------------------------------61-61-|---------------------------------------61-61-|


C|-64--64-64-63--63-64----64-63-64-64-64-63-63-|-64--64-64-63--63-64----64-63-64-64-64-63-63-|
C|---------------------------------------------|---------------------------------------------|
C|---------------------------------------------|---------------------------------------------|
C|---------------------------------------------|---------------------------------------------|
C|---------------------------------------------|---------------------------------------------|
C|---------------------------------------61-61-|---------------------------------------61-61-|


C|-64--64-64-63--63-64----64-63-64-64-64-63-63-|-64--64-64-63--63-64----64-63-64-64-64-63-63-|
C|---------------------------------------------|---------------------------------------------|
C|---------------------------------------------|---------------------------------------------|
C|---------------------------------------------|---------------------------------------------|
C|---------------------------------------------|---------------------------------------------|
C|---------------------------------------61-61-|---------------------------------------61-61-|


C|-64--64-64-63--63-64----64-63-64-64-64-63-63-|-64--64-64-63--63-64----64-63-64-64-64-63-63-|
C|---------------------------------------------|---------------------------------------------|
C|---------------------------------------------|---------------------------------------------|
C|---------------------------------------------|---------------------------------------------|
C|---------------------------------------------|---------------------------------------------|
C|---------------------------------------61-61-|---------------------------------------61-61-|


C|-64--64-64-63--63-64----64-63-64-64-64-63-63-|-64--64-64-63--63-64----64-63-64-64-64-63-63-|
C|---------------------------------------------|---------------------------------------------|
C|---------------------------------------------|---------------------------------------------|
C|---------------------------------------------|---------------------------------------------|
C|---------------------------------------------|---------------------------------------------|
C|---------------------------------------61-61-|---------------------------------------61-61-|


C|-64--64-64-63--63-64----64-63-64-64-64-63-63-|-64--64-64-63--63-64----64-63-64-64-64-63-63-|
C|---------------------------------------------|---------------------------------------------|
C|---------------------------------------------|---------------------------------------------|
C|---------------------------------------------|---------------------------------------------|
C|---------------------------------------------|---------------------------------------------|
C|---------------------------------------61-61-|---------------------------------------61-61-|


C|-64--64-64-63--63-64----64-63-64-64-64-63-63-|-64--64-64-63--63-64----64-63-64-64-64-63-63-|
C|---------------------------------------------|---------------------------------------------|
C|---------------------------------------------|---------------------------------------------|
C|---------------------------------------------|---------------------------------------------|
C|---------------------------------------------|---------------------------------------------|
C|---------------------------------------61-61-|---------------------------------------61-61-|


C|-64--63-64-64--63-64-------|-------------|
C|---------------63-64-------|-------------|
C|---------------------------|-------------|
C|---------------------------|-------------|
C|---------------61-61-------|-------------|
C|---------------62-62-------|-------------|









Track 7: Shaker and Tambourine
Back to top
C|--------|--------|--------|--------|--------|--------|--------|--------|--------|
C|--------|--------|--------|--------|--------|--------|--------|--------|--------|
C|--------|--------|--------|--------|--------|--------|--------|--------|--------|
C|--------|--------|--------|--------|--------|--------|--------|--------|--------|
C|--------|--------|--------|--------|--------|--------|--------|--------|--------|
C|--------|--------|--------|--------|--------|--------|--------|--------|--------|


C|--------|--------|--------|--------|--------|--------|-82-82-82-82-82-82-82-82-82-82-82-82-82-82-82-82-|
C|--------|--------|--------|--------|--------|--------|-------------------------------------------------|
C|--------|--------|--------|--------|--------|--------|-------------------------------------------------|
C|--------|--------|--------|--------|--------|--------|-------------------------------------------------|
C|--------|--------|--------|--------|--------|--------|-------------------------------------------------|
C|--------|--------|--------|--------|--------|--------|-------------------------------------------------|


C|-82-82-82-82-82-82-82-82-82-82-82-82-82-82-82-82-|-82-82-82-82-82-82-82-82-82-82-82-82-82-82-82-82-|
C|-------------------------------------------------|-------------------------------------------------|
C|-------------------------------------------------|-------------------------------------------------|
C|-------------------------------------------------|-------------------------------------------------|
C|-------------------------------------------------|-------------------------------------------------|
C|-------------------------------------------------|-------------------------------------------------|


C|-82-82-82-82-82-82-82-82-82-82-82-82-82-82-82-82-|-82-82-82-82-82-82-82-82-82-82-82-82-82-82-82-82-|
C|-------------------------------------------------|-------------------------------------------------|
C|-------------------------------------------------|-------------------------------------------------|
C|-------------------------------------------------|-------------------------------------------------|
C|-------------------------------------------------|-------------------------------------------------|
C|-------------------------------------------------|-------------------------------------------------|


C|-82-82-82-82-82-82-82-82-82-82-82-82-82-82-82-82-|-82-82-82-82-82-82-82-82-82-82-82-82-82-82-82-82-|
C|-------------------------------------------------|-------------------------------------------------|
C|-------------------------------------------------|-------------------------------------------------|
C|-------------------------------------------------|-------------------------------------------------|
C|-------------------------------------------------|-------------------------------------------------|
C|-------------------------------------------------|-------------------------------------------------|


C|-82-82-82-82-82-82-82-82-82-82-82-82-82-82-82-82-|-82-82-82-82-82-82-82-82-82-82-82-82-82-82-82-82-|
C|-------------------------------------------------|-------------------------------------------------|
C|-------------------------------------------------|-------------------------------------------------|
C|-------------------------------------------------|-------------------------------------------------|
C|-------------------------------------------------|-------------------------------------------------|
C|-------------------------------------------------|-------------54-------54-------------54-------54-|


C|-82-82-82-82-82-82-82-82-82-82-82-82-82-82-82-82-|-82-82-82-82-82-82-82-82-82-82-82-82-82-82-82-82-|
C|-------------------------------------------------|-------------------------------------------------|
C|-------------------------------------------------|-------------------------------------------------|
C|-------------------------------------------------|-------------------------------------------------|
C|-------------------------------------------------|-------------------------------------------------|
C|-------------54-------54-------------54-------54-|-------------54-------54-------------54-------54-|


C|-82-82-82-82-82-82-82-82-82-82-82-82-82-82-82-82-|-82-82-82-82-82-82-82-82-82-82-82-82-82-82-82-82-|
C|-------------------------------------------------|-------------------------------------------------|
C|-------------------------------------------------|-------------------------------------------------|
C|-------------------------------------------------|-------------------------------------------------|
C|-------------------------------------------------|-------------------------------------------------|
C|-------------54-------54-------------54-------54-|-------------54-------54-------------54-------54-|


C|-82-82-82-82-82-82-82-82-82-82-82-82-82-82-82-82-|-82-82-82-82-82-82-82-82-82-82-82-82-82-82-82-82-|
C|-------------------------------------------------|-------------------------------------------------|
C|-------------------------------------------------|-------------------------------------------------|
C|-------------------------------------------------|-------------------------------------------------|
C|-------------------------------------------------|-------------------------------------------------|
C|-------------54-------54-------------54-------54-|-------------54-------54-------------54-------54-|


C|-82-82-82-82-82-82-82-82-82-82-82-82-82-82-82-82-|-82-82-82-82-82-82-82-82-------|
C|-------------------------------------------------|-------------------------------|
C|-------------------------------------------------|-------------------------------|
C|-------------------------------------------------|-------------------------------|
C|-------------------------------------------------|-------------------------------|
C|-------------54-------54-------------54-------54-|-------------54-------54-------|


C|-82-82-82-82-82-82-82-82-82-82-82-82-82-82-82-82-|-82-82-82-82-82-82-82-82-82-82-82-82-82-82-82-82-|
C|-------------------------------------------------|-------------------------------------------------|
C|-------------------------------------------------|-------------------------------------------------|
C|-------------------------------------------------|-------------------------------------------------|
C|-------------------------------------------------|-------------------------------------------------|
C|-------------54-------54-------------54-------54-|-------------54-------54-------------54-------54-|


C|-82-82-82-82-82-82-82-82-82-82-82-82-82-82-82-82-|-82-82-82-82-82-82-82-82-82-82-82-82-82-82-82-82-|
C|-------------------------------------------------|-------------------------------------------------|
C|-------------------------------------------------|-------------------------------------------------|
C|-------------------------------------------------|-------------------------------------------------|
C|-------------------------------------------------|-------------------------------------------------|
C|-------------54-------54-------------54-------54-|-------------54-------54-------------54-------54-|


C|-82-82-82-82-82-82-82-82-82-82-82-82-82-82-82-82-|-82-82-82-82-82-82-82-82-82-82-82-82-82-82-82-82-|
C|-------------------------------------------------|-------------------------------------------------|
C|-------------------------------------------------|-------------------------------------------------|
C|-------------------------------------------------|-------------------------------------------------|
C|-------------------------------------------------|-------------------------------------------------|
C|-------------54-------54-------------54-------54-|-------------54-------54-------------54-------54-|


C|-82-82-82-82-82-82-82-82-82-82-82-82-82-82-82-82-|-82-82-82-82-82-82-82-82-82-82-82-82-82-82-82-82-|
C|-------------------------------------------------|-------------------------------------------------|
C|-------------------------------------------------|-------------------------------------------------|
C|-------------------------------------------------|-------------------------------------------------|
C|-------------------------------------------------|-------------------------------------------------|
C|-------------54-------54-------------54-------54-|-------------54-------54-------------54-------54-|


C|-82-82-82-82-82-82-82-82-82-82-82-82-82-82-82-82-|-82-82-82-82-82-82-82-82-82-82-82-82-82-82-82-82-|
C|-------------------------------------------------|-------------------------------------------------|
C|-------------------------------------------------|-------------------------------------------------|
C|-------------------------------------------------|-------------------------------------------------|
C|-------------------------------------------------|-------------------------------------------------|
C|-------------54-------54-------------54-------54-|-------------54-------54-------------54-------54-|


C|-82-82-82-82-82-82-82-82-82-82-82-82-82-82-82-82-|-82-82-82-82-82-82-82-82-82-82-82-82-82-82-82-82-|
C|-------------------------------------------------|-------------------------------------------------|
C|-------------------------------------------------|-------------------------------------------------|
C|-------------------------------------------------|-------------------------------------------------|
C|-------------------------------------------------|-------------------------------------------------|
C|-------------54-------54-------------54-------54-|-------------54-------54-------------54-------54-|


C|-82-82-82-82-82-82-82-82-82-82-82-82-82-82-82-82-|-82-82-82-82-82-82-82-82-82-82-82-82-82-82-82-82-|
C|-------------------------------------------------|-------------------------------------------------|
C|-------------------------------------------------|-------------------------------------------------|
C|-------------------------------------------------|-------------------------------------------------|
C|-------------------------------------------------|-------------------------------------------------|
C|-------------54-------54-------------54-------54-|-------------54-------54-------------54-------54-|


C|-82-82-82-82-82-82-82-82-82-82-82-82-82-82-82-82-|-82-82-82-82-82-82-82-82-82-82-82-82-82-82-82-82-|
C|-------------------------------------------------|-------------------------------------------------|
C|-------------------------------------------------|-------------------------------------------------|
C|-------------------------------------------------|-------------------------------------------------|
C|-------------------------------------------------|-------------------------------------------------|
C|-------------54-------54-------------54-------54-|-------------54-------54-------------54-------54-|


C|-82-82-82-82-82-82-82-82-82-82-82-82-82-82-82-82-|-82-82-82-82-82-82-82-82-82-82-82-82-82-82-82-82-|
C|-------------------------------------------------|-------------------------------------------------|
C|-------------------------------------------------|-------------------------------------------------|
C|-------------------------------------------------|-------------------------------------------------|
C|-------------------------------------------------|-------------------------------------------------|
C|-------------54-------54-------------54-------54-|-------------54-------54-------------54-------54-|


C|-82-82-82-82-82-82-82-82-82-82-82-82-82-82-82-82-|-82-82-82-82-82-82-82-82-82-82-82-82-82-82-82-82-|
C|-------------------------------------------------|-------------------------------------------------|
C|-------------------------------------------------|-------------------------------------------------|
C|-------------------------------------------------|-------------------------------------------------|
C|-------------------------------------------------|-------------------------------------------------|
C|-------------54-------54-------------54-------54-|-------------54-------54-------------54-------54-|


C|-82-82-82-82-82-82-82-82-82-82-82-82-82-82-82-82-|-82-82-82-82-82-82-82-82-82-82-82-82-82-82-82-82-|
C|-------------------------------------------------|-------------------------------------------------|
C|-------------------------------------------------|-------------------------------------------------|
C|-------------------------------------------------|-------------------------------------------------|
C|-------------------------------------------------|-------------------------------------------------|
C|-------------54-------54-------------54-------54-|-------------54-------54-------------54-------54-|


C|-82-82-82-82-82-82-82-82-82-82-82-82-82-82-82-82-|-82-82-82-82-82-82-82-82-82-82-82-82-82-82-82-82-|
C|-------------------------------------------------|-------------------------------------------------|
C|-------------------------------------------------|-------------------------------------------------|
C|-------------------------------------------------|-------------------------------------------------|
C|-------------------------------------------------|-------------------------------------------------|
C|-------------54-------54-------------54-------54-|-------------------------------------------------|


C|-82-82-82-82-82-82-82-82-82-82-82-82-82-82-82-82-|-82-82-82-82-82-82-82-82-82-82-82-82-82-82-82-82-|
C|-------------------------------------------------|-------------------------------------------------|
C|-------------------------------------------------|-------------------------------------------------|
C|-------------------------------------------------|-------------------------------------------------|
C|-------------------------------------------------|-------------------------------------------------|
C|-------------------------------------------------|-------------------------------------------------|


C|-82-82-82-82-82-82-82-82-82-82-82-82-82-82-82-82-|-82-82-82-82-82-82-82-82-82-82-82-82-82-82-82-82-|
C|-------------------------------------------------|-------------------------------------------------|
C|-------------------------------------------------|-------------------------------------------------|
C|-------------------------------------------------|-------------------------------------------------|
C|-------------------------------------------------|-------------------------------------------------|
C|-------------------------------------------------|-------------------------------------------------|


C|-82-82-82-82-82-82-82-82-82-82-82-82-82-82-82-82-|-82-82-82-82-82-82-82-82-82-82-82-82-82-82-82-82-|
C|-------------------------------------------------|-------------------------------------------------|
C|-------------------------------------------------|-------------------------------------------------|
C|-------------------------------------------------|-------------------------------------------------|
C|-------------------------------------------------|-------------------------------------------------|
C|-------------------------------------------------|-------------------------------------------------|


C|-82-82-82-82-82-82-82-82-82-82-82-82-82-82-82-82-|-82-82-82-82-82-82-82-82-82-82-82-82-82-82-82-82-|
C|-------------------------------------------------|-------------------------------------------------|
C|-------------------------------------------------|-------------------------------------------------|
C|-------------------------------------------------|-------------------------------------------------|
C|-------------------------------------------------|-------------------------------------------------|
C|-------------------------------------------------|-------------------------------------------------|


C|-82-82-82-82-82-82-82-82-82-82-82-82-82-82-82-82-|-82-82-82-82-82-82-82-82-82-82-82-82-82-82-82-82-|
C|-------------------------------------------------|-------------------------------------------------|
C|-------------------------------------------------|-------------------------------------------------|
C|-------------------------------------------------|-------------------------------------------------|
C|-------------------------------------------------|-------------------------------------------------|
C|-------------------------------------------------|-------------------------------------------------|


C|-82-82-82-82-82-82-82-82-82-82-82-82-82-82-82-82-|-82-82-82-82-82-82-82-82-82-82-82-82-82-82-82-82-|
C|-------------------------------------------------|-------------------------------------------------|
C|-------------------------------------------------|-------------------------------------------------|
C|-------------------------------------------------|-------------------------------------------------|
C|-------------------------------------------------|-------------------------------------------------|
C|-------------------------------------------------|-------------------------------------------------|


C|-82-82-82-82-82-82-82-82-82-82-82-82-82-82-82-82-|-82-82-82-82-82-82-82-82-82-82-82-82-82-82-82-82-|
C|-------------------------------------------------|-------------------------------------------------|
C|-------------------------------------------------|-------------------------------------------------|
C|-------------------------------------------------|-------------------------------------------------|
C|-------------------------------------------------|-------------------------------------------------|
C|-------------------------------------------------|-------------------------------------------------|


C|-82-82-82-82-82-82-82-82-82-82-82-82-82-82-82-82-|-82-82-82-82-82-82-82-82-82-82-82-82-82-82-82-82-|
C|-------------------------------------------------|-------------------------------------------------|
C|-------------------------------------------------|-------------------------------------------------|
C|-------------------------------------------------|-------------------------------------------------|
C|-------------------------------------------------|-------------------------------------------------|
C|-------------------------------------------------|-------------------------------------------------|


C|-82-82-82-82-82-82-82-82-82-82-82-82-82-82-82-82-|-82-82-82-82-82-82-82-82-82-82-82-82-82-82-82-82-|
C|-------------------------------------------------|-------------------------------------------------|
C|-------------------------------------------------|-------------------------------------------------|
C|-------------------------------------------------|-------------------------------------------------|
C|-------------------------------------------------|-------------------------------------------------|
C|-------------------------------------------------|-------------------------------------------------|


C|-82-82-82-82-82-82-82-82-82-82-82-82-82-82-82-82-|-82-82-82-82-82-82-82-82-82-82-82-82-82-82-82-82-|
C|-------------------------------------------------|-------------------------------------------------|
C|-------------------------------------------------|-------------------------------------------------|
C|-------------------------------------------------|-------------------------------------------------|
C|-------------------------------------------------|-------------------------------------------------|
C|-------------------------------------------------|-------------------------------------------------|


C|-82-82-82-82-82-82-82-82-82-82-82-82-82-82-82-82-|-82-82-82-82-82-82-82-82-82-82-82-82-82-82-82-82-|
C|-------------------------------------------------|-------------------------------------------------|
C|-------------------------------------------------|-------------------------------------------------|
C|-------------------------------------------------|-------------------------------------------------|
C|-------------------------------------------------|-------------------------------------------------|
C|-------------------------------------------------|-------------------------------------------------|


C|-82-82-82-82------------|--------|-82-82-82-82-82-82-82-82-82-82-82-82-82-82-82-82-|
C|------------------------|--------|-------------------------------------------------|
C|------------------------|--------|-------------------------------------------------|
C|------------------------|--------|-------------------------------------------------|
C|------------------------|--------|-------------------------------------------------|
C|------------------------|--------|-------------54-------54-------------54-------54-|


C|-82-82-82-82-82-82-82-82-82-82-82-82-82-82-82-82-|-82-82-82-82-82-82-82-82-82-82-82-82-82-82-82-82-|
C|-------------------------------------------------|-------------------------------------------------|
C|-------------------------------------------------|-------------------------------------------------|
C|-------------------------------------------------|-------------------------------------------------|
C|-------------------------------------------------|-------------------------------------------------|
C|-------------54-------54-------------54-------54-|-------------54-------54-------------54-------54-|


C|-82-82-82-82-82-82-82-82-82-82-82-82-82-82-82-82-|-82-82-82-82-82-82-82-82-82-82-82-82-82-82-82-82-|
C|-------------------------------------------------|-------------------------------------------------|
C|-------------------------------------------------|-------------------------------------------------|
C|-------------------------------------------------|-------------------------------------------------|
C|-------------------------------------------------|-------------------------------------------------|
C|-------------54-------54-------------54-------54-|-------------54-------54-------------54-------54-|


C|-82-82-82-82-82-82-82-82-82-82-82-82-82-82-82-82-|-82-82-82-82-82-82-82-82-82-82-82-82-82-82-82-82-|
C|-------------------------------------------------|-------------------------------------------------|
C|-------------------------------------------------|-------------------------------------------------|
C|-------------------------------------------------|-------------------------------------------------|
C|-------------------------------------------------|-------------------------------------------------|
C|-------------54-------54-------------54-------54-|-------------54-------54-------------54-------54-|


C|-82-82-82-82-82-82-82-82-82-82-82-82-82-82-82-82-|-82-82-82-82-82-82-82-82-82-82-82-82-82-82-82-82-|
C|-------------------------------------------------|-------------------------------------------------|
C|-------------------------------------------------|-------------------------------------------------|
C|-------------------------------------------------|-------------------------------------------------|
C|-------------------------------------------------|-------------------------------------------------|
C|-------------54-------54-------------54-------54-|-------------54-------54-------------54-------54-|


C|-82-82-82-82-82-82-82-82-82-82-82-82-82-82-82-82-|-82-82-82-82-82-82-82-82-82-82-82-82-82-82-82-82-|
C|-------------------------------------------------|-------------------------------------------------|
C|-------------------------------------------------|-------------------------------------------------|
C|-------------------------------------------------|-------------------------------------------------|
C|-------------------------------------------------|-------------------------------------------------|
C|-------------54-------54-------------54-------54-|-------------54-------54-------------54-------54-|


C|-82-82-82-82-82-82-82-82-82-82-82-82-82-82-82-82-|-82-82-82-82-82-82-82-82-82-82-82-82-82-82-82-82-|
C|-------------------------------------------------|-------------------------------------------------|
C|-------------------------------------------------|-------------------------------------------------|
C|-------------------------------------------------|-------------------------------------------------|
C|-------------------------------------------------|-------------------------------------------------|
C|-------------54-------54-------------54-------54-|-------------54-------54-------------54-------54-|


C|-82-82-82-82-82-82-82-82-82-82-82-82-82-82-82-82-|-82-82-82-82-82-82-82-82-82-82-82-82-82-82-82-82-|
C|-------------------------------------------------|-------------------------------------------------|
C|-------------------------------------------------|-------------------------------------------------|
C|-------------------------------------------------|-------------------------------------------------|
C|-------------------------------------------------|-------------------------------------------------|
C|-------------54-------54-------------54-------54-|-------------54-------54-------------54-------54-|


C|-82-82-82-82-82-82-82-82-------|-------------|
C|-------------------------------|-------------|
C|-------------------------------|-------------|
C|-------------------------------|-------------|
C|-------------------------------|-------------|
C|-------------54-------54-------|-------------|



← Back to top