Welcome to the Jungle

by Guns N' Roses

Guitar Pro Tab  |  v3.00  |  Posted on March 29, 2007, 10:56 a.m. ← Back

Guitar Pro Tab Summary

Album

Live Era

Song Author

W. Axl Rose,Slash, Izzy Stradlin', Duff McKagan and Steve Adler

Tabbed by

Pedro

Instruments

1st → Slashr 1(Dist)
2nd → Bassk 5
3rd → Izzyar 2(Dist)
4th → Mattuss´┐Żo

File Size

33 KB

Views

48,090






Tablature Sheet

Title: Welcome to the Jungle
Artist: Guns N' Roses
Album: Live Era
Author: W. Axl Rose,Slash, Izzy Stradlin', Duff McKagan and Steve Adler






Track 1: Slash
Back to top
D#|-------------------------------------------------|-------------------------------------------------|
A#|----0--------0--------0--------0--------0-----0--|----0--------0--------0--------0--------0-----0--|
F#|-4-----4--2-----2--------------------------------|-4-----4--2-----2--------------------------------|
C#|-------------------4-----4--2-----2--0-----------|-------------------4-----4--2-----2--0-----------|
G#|-------------------------------------------2-----|-------------------------------------------0-----|
D#|-------------------------------------------------|-------------------------------------------------|


D#|-------------------------------------------------|-------------------------------------------------|
A#|----0--------0--------0--------0--------0-----0--|----0--------0--------0--------0--------0-----0--|
F#|-4-----4--2-----2--------------------------------|-4-----4--2-----2--------------------------------|
C#|-------------------4-----4--2-----2--0-----------|-------------------4-----4--2-----2--0-----------|
G#|-------------------------------------------2-----|-------------------------------------------0-----|
D#|-------------------------------------------------|-------------------------------------------------|


D#|-------------------------------------------------|-------------------------------------------------|
A#|----0--------0--------0--------0--------0-----0--|----0--------0--------0--------0--------0-----0--|
F#|-4-----4--2-----2--------------------------------|-4-----4--2-----2--------------------------------|
C#|-------------------4-----4--2-----2--0-----------|-------------------4-----4--2-----2--0-----------|
G#|-------------------------------------------2-----|-------------------------------------------0-----|
D#|-------------------------------------------------|-------------------------------------------------|


D#|-------------------------------------------------|-------------------------------------------------|
A#|----0--------0--------0--------0--------0-----0--|----0--------0--------0--------0--------0-----0--|
F#|-4-----4--2-----2--------------------------------|-4-----4--2-----2--------------------------------|
C#|-------------------4-----4--2-----2--0-----------|-------------------4-----4--2-----2--0-----------|
G#|-------------------------------------------0-----|-------------------------------------------2-----|
D#|-------------------------------------------------|-------------------------------------------------|


D#|-------------------------------------------------|-------------|---------------------------------|
A#|----0--------0--------0--------0--------0-----0--|-3-----------|---------------------------------|
F#|-4-----4--2-----2--------------------------------|-2-----2-----|-4---4---4---4---4---4---4---4---|
C#|-------------------4-----4--2-----2--0-----------|-0-----2-----|-4---4---4---4---4---4---4---4---|
G#|-------------------------------------------0-----|-0-----0-----|-2---2---2---2---2---2---2---2---|
D#|-------------------------------------------------|-------------|---------------------------------|


D#|--------------------------------|----------------------------------|----------------------------------|
A#|--------------------------------|----------------------------------|----------------------------------|
F#|-4---4---4---4---4---0--0--0----|----------------------------------|----------------------------------|
C#|-4---4---4---4---4---0--0--0----|----------------------------------|----------------------------------|
G#|-2---2---2---2---2---0--0--0----|-7----5---0--7--7--0--5---4-------|-7----5---0--7--7--0--5---4-------|
D#|--------------------------------|-5----3---0--5--5--0--3---2---0---|-5----3---0--5--5--0--3---2---0---|


D#|----------------------------------|-----------------------------------------------|
A#|----------------------------------|-----------------------------------------------|
F#|----------------------------------|-7--7--5-----7--5------------------------------|
C#|----------------------------------|----------7--------7--5------------------------|
G#|-7----5---0--7--7--0--5---4-------|-------------------------7--6--5--3--3---------|
D#|-5----3---0--5--5--0--3---2---0---|-----------------------------------------5--3--|


D#|------------------------------------|------------------------------------|------------------------------------|
A#|------------------------------------|------------------------------------|------------------------------------|
F#|------------------------------------|------------------------------------|------------------------------------|
C#|------------------------------------|------------------------------------|------------------------------------|
G#|------------------------------------|------------------------------------|------------------------------------|
D#|-5----3---3--5--5--5--3---2---0--0--|-5----3---3--5--5--5--3---2---0--0--|-5----3---3--5--5--5--3---2---0--0--|


D#|------------------------------------|----------------------------------|----------------------------------|
A#|------------------------------------|----------------------------------|----------------------------------|
F#|------------------------------------|----------------------------------|----------------------------------|
C#|------------------------------------|-9----7---0--9--9--0--7---6---4---|-9----7---0--9--9--0--7---6---4---|
G#|------------------------------------|-7----5---0--7--7--0--5---4---2---|-7----5---0--7--7--0--5---4---2---|
D#|-5----3---3--5--5--5--3---2---0--0--|----------------------------------|----------------------------------|


D#|----------------------------------|----------------------------------|-------------|
A#|----------------------------------|----------------------------------|-------------|
F#|----------------------------------|----------------------------------|-5-----------|
C#|-9----7---0--9--9--0--7---6---4---|-9----7---0--9--9--0--7---6-------|-5------5----|
G#|-7----5---0--7--7--0--5---4---2---|-7----5---0--7--7--0--5---4---0---|-3------5----|
D#|----------------------------------|----------------------------------|--------3----|


D#|--------|-------------------------------------|-------------------------------------|
A#|--------|-------------------------------------|-------------------------------------|
F#|-7------|-------------------------------------|-------------------------------------|
C#|-7------|-------------------------------------|-------------------------------------|
G#|-5------|-7---7---5---0-----------------------|-7---7---5---0-----------------------|
D#|--------|----------------6--6--6--5---3---0---|----------------6--6--6--5---3---0---|


D#|-------------------------------------|---------------------------------|------------------------------------|
A#|-------------------------------------|---------------------------------|------------------------------------|
F#|-------------------------------------|---------------------------------|------------------------------------|
C#|-------------------------------------|---------------------------------|------------------------------------|
G#|-7---7---5---0-----------------------|-7----5--5-----------------------|------------------------------------|
D#|----------------6--6--6--5---3---0---|-------------6---6---5---3---4---|-5----3---3--5--5--5--3---2---0--0--|


D#|---------------------------------------|------------------------------------|-----------------------------------------|
A#|-----------------5--7--7---7--5--------|------------------------------------|---------------------------------7-------|
F#|------7--7---5---5--7--7---7--5--------|------------------------------------|---------------------------------7-------|
C#|------7--7---5-------------------7--5--|------------------------------------|-----5--7--7--5------------------7-------|
G#|-7-------------------------------------|------------------------------------|-7---------------7--6--7---6--5----------|
D#|---------------------------------------|-5----3---3--5--5--5--3---2---0--0--|-----------------------------------------|


D#|----------------------------------|----------------------------------|----------------------------------|
A#|----------------------------------|----------------------------------|----------------------------------|
F#|----------------------------------|----------------------------------|----------------------------------|
C#|-9----7---0--9--9--0--7---6---4---|-9----7---0--9--9--0--7---6---4---|-9----7---0--9--9--0--7---6---4---|
G#|-7----5---0--7--7--0--5---4---2---|-7----5---0--7--7--0--5---4---2---|-7----5---0--7--7--0--5---4---2---|
D#|----------------------------------|----------------------------------|----------------------------------|


D#|----------------------------------|-------------|--------|-------------------------------------|
A#|----------------------------------|-------------|--------|-------------------------------------|
F#|----------------------------------|-5-----------|-7------|-------------------------------------|
C#|-9----7---0--9--9--0--7---6-------|-5------5----|-7------|-------------------------------------|
G#|-7----5---0--7--7--0--5---4---0---|-3------5----|-5------|-7---7---5---0-----------------------|
D#|----------------------------------|--------3----|--------|----------------6--6--6--5---3---0---|


D#|-------------------------------------|-------------------------------------|---------------------------|
A#|-------------------------------------|-------------------------------------|---------------------------|
F#|-------------------------------------|-------------------------------------|-4----4--4---4---4---------|
C#|-------------------------------------|-------------------------------------|-4----4--4---4---4---------|
G#|-7---7---5---0-----------------------|-7---7---5---0-----------------------|-2----2--2---2---2----2----|
D#|----------------6--6--6--5---3---0---|----------------6--6--6--5---3---0---|---------------------------|


D#|---------------------------------|---------------------------|---------------------------------|
A#|-----14--15----------------------|---------------------12----|-----12--------------15------15--|
F#|-----12--13----------13------13--|-13--12--13----------12----|-----12--13----------13------13--|
C#|-----11--12----------14------14--|-14------------------------|---------------------------------|
G#|---------------------------------|---------------------------|---------------------------------|
D#|-0-----------0---0-------0-------|-------------0---0---------|-0-----------0---0---------------|


D#|---------------------15--15---|---------19--19---19---19--18--|-17--17---15-16---------12-----|
A#|-15------------------15--15---|-----17------------------------|----------------15---15-----15-|
F#|-13--15--16-------------------|-19----------------------------|-------------------------------|
C#|------------------------------|-------------------------------|-------------------------------|
G#|------------------------------|-------------------------------|-------------------------------|
D#|-------------0---0------------|-------------------------------|-------------------------------|


D#|----------------------------------------------|---------------------------------------|
A#|-12-------------------------------------------|---------------------------------------|
F#|-----15--14-15-14-12-14-12--------------------|-------7--9--9--8--7---7---------------|
C#|---------------------------14-12--------7--7--|-7--5----------------------------------|
G#|---------------------------------14-----------|---------------------------------------|
D#|----------------------------------------------|---------------------------14--7---0---|


D#|------------------------------------|-------------------------------------------|
A#|------------------------------------|-------------------------------------------|
F#|------------------------------------|-------------------------------------------|
C#|------------------------------------|-------------------------5---7---5--6--7---|
G#|------------------------------3--3--|-5--3--5--3--6--3--6--7--------------------|
D#|-5----3---3--5--5--5--3---2---------|-------------------------------------------|


D#|------------------------------------|--------------8--7--5------------------------------------------|
A#|------------------------------------|-----8--7--5-----------8--7--5--8--7--5------------------------|
F#|------------------------------0--5--|-5---------------------------------------8--7--5--8--7--5------|
C#|------------------------------------|-----------------------------------------------------------7---|
G#|------------------------------------|---------------------------------------------------------------|
D#|-5----3---3--5--5--5--3---2---------|---------------------------------------------------------------|


D#|----------------------------------|----------------------------------|----------------------------------|
A#|----------------------------------|----------------------------------|----------------------------------|
F#|----------------------------------|----------------------------------|----------------------------------|
C#|-9----7---0--9--9--0--7---6---4---|-9----7---0--9--9--0--7---6---4---|-9----7---0--9--9--0--7---6---4---|
G#|-7----5---0--7--7--0--5---4---2---|-7----5---0--7--7--0--5---4---2---|-7----5---0--7--7--0--5---4---2---|
D#|----------------------------------|----------------------------------|----------------------------------|


D#|----------------------------------|-------------|--------|-------------------------------------|
A#|----------------------------------|-------------|--------|-------------------------------------|
F#|----------------------------------|-5-----------|-7------|-------------------------------------|
C#|-9----7---0--9--9--0--7---6-------|-5------5----|-7------|-------------------------------------|
G#|-7----5---0--7--7--0--5---4---0---|-3------5----|-5------|-7---7---5---0-----------------------|
D#|----------------------------------|--------3----|--------|----------------6--6--6--5---3---0---|


D#|-------------------------------------|-------------------------------------|---------------------------------|
A#|-------------------------------------|-------------------------------------|---------------------------------|
F#|-------------------------------------|-------------------------------------|---------------------------------|
C#|-------------------------------------|-------------------------------------|---------------------------------|
G#|-7---7---5---0-----------------------|-7---7---5---0-----------------------|-7----5--5-----------------------|
D#|----------------6--6--6--5---3---0---|----------------6--6--6--5---3---0---|-------------6---6---5---3---4---|


D#|--------|-3------|-2------|-3-----3-----3---|-2--------------|-3--------3---------------------|
A#|-3------|-3------|-3------|-3-----3---------|-----3----------|--------------3--------------0--|
F#|-2------|-0------|-2------|-0-----0---------|---------2------|------4------------4---2--0-----|
C#|-0------|-0------|-0------|-0-----0---------|----------------|--------------------------------|
G#|-0------|-0------|--------|-0---------------|----------------|--------------------------------|
D#|--------|-3------|--------|-3-----3---------|----------------|--------------------------------|


D#|-10----------|-------------------------------|-------------------------------|-------------------------------|
A#|-------------|-------------------------------|-------------------------------|-------------------------------|
F#|-------------|-------------------------------|-------------------------------|-------------------------------|
C#|-------------|-5---------5---------5----3----|-5---------5---------5----3----|-5---------5---------5----3----|
G#|-------------|-5---------5---------5----3----|-5---------5---------5----3----|-5---------5---------5----3----|
D#|--------0----|-3---3--3--3---3--3--3----1----|-3---3--3--3---3--3--3----1----|-3---3--3--3---3--3--3----1----|


D#|---------------------------------|------------------13-------|-12--12----------------------|
A#|-----------------------------0---|-15---15--15--15------15---|-15--15---15--15---15-15-----|
F#|---------------------------------|---------------------------|-------------------------0---|
C#|-7---7---7---7---7---7---7-------|---------------------------|-----------------------------|
G#|-7---7---7---7---7---7---7-------|---------------------------|-----------------------------|
D#|-5---5---5---5---5---5---5-------|---------------------------|-----------------------------|


D#|------12--12------15----------|------15-------------------|---------------------------|
A#|------12--12--15--15----------|-15-------15--15-----------|---------------------------|
F#|-14---------------14--14--12--|---------------------------|---------------------------|
C#|------------------------------|---------------------------|---------------------------|
G#|------------------------------|---------------------------|-----------7-------9---9---|
D#|------------------------------|------------------0---0----|-7---9---------9-----------|


D#|------------------------------|-----------------------|-----------------------------|
A#|------------------------------|-----------------------|-------------------------12--|
F#|------------------------------|-------9-------11--11--|-11---11--11--11-11-9----11--|
C#|------------------9---9---11--|-11--------11----------|-----------------------------|
G#|-9----9---7---11--------------|-----------------------|-----------------------------|
D#|------------------------------|-----------------------|-----------------------------|


D#|-------------------------|-------------------0---|-0---0---0----0----0----|--------------------------------|
A#|-12----------------------|-----------5-------5---|-5---5---3----2----0----|-2----0--2----------------------|
F#|-11----11--11-9----------|-------6-------6-------|------------------------|-2----0--2---0--1--1----2---4---|
C#|-----------------11--9---|-9---------------------|------------------------|--------------------------------|
G#|-------------------------|-----------------------|------------------------|--------------------------------|
D#|-------------------------|-----------------------|------------------------|--------------------------------|


D#|------------------------------|-----------------------------------|------------------------|
A#|-----0---0--------0-------0---|---------------------------0---15--|-15---15--15--10---10---|
F#|-4---4---2----1---------------|-----------------------2-----------|------------------------|
C#|----------------------4-------|-2----0--2---0--1--1---------------|------------------------|
G#|------------------------------|-----------------------------------|------------------------|
D#|------------------------------|-----------------------------------|------------------------|


D#|-------------------9--7--7------------|---------------------------------|------------------------------|
A#|-10-10-8------------------------------|---------------------------------|------------------------------|
F#|----------9--7--9--9--7--7----0---6---|-6---6---4-----------------------|------------------------------|
C#|--------------------------------------|-------------6---6---6---4-------|------------------------------|
G#|--------------------------------------|-----------------------------4---|-4---4---2--------------------|
D#|--------------------------------------|---------------------------------|-------------4---4---4---0----|


D#|---------------------------------|---------------------------------|-4------|--------------------|
A#|---------------------------------|---------------------------------|-4------|-4-----4---4--------|
F#|---------------------------------|---------------------------------|--------|--------------------|
C#|-4---4---4---4---4---4---4---4---|-4---4---4---4---4---4---4---0---|--------|--------------------|
G#|-4---4---4---4---4---4---4---4---|-4---4---4---4---4---4---4---0---|--------|--------------------|
D#|-2---2---2---2---2---2---2---2---|-2---2---2---2---2---2---2---0---|--------|----------------0---|


D#|----------------|-----------------|--------|--------|-------------------------------------------------|
A#|----------------|-----------------|--------|--------|-------------------------------------------------|
F#|-4------4----12-|-12----12---12---|-12-----|-12-----|-------------------------------------------------|
C#|-0--------------|-----------------|--------|--------|-------------------------------------------------|
G#|-2------2-------|-----------------|--------|--------|-7--7--7--7--6--6--6--5--5--5--4--4--3--3--2--2--|
D#|----------------|-----------------|--------|--------|-------------------------------------------------|


D#|-------------------------------------------------|-------------------------------------------------|
A#|-------------------------------------------------|-------------------------------------------------|
F#|-------------------------------------------------|-------------------------------------------------|
C#|-------------------------------------------------|-5--5--5--5--4--4--4--3--3--3--2--2--1--1--0--0--|
G#|-7--7--7--7--6--6--6--5--5--5--4--4--3--3--2--2--|-------------------------------------------------|
D#|-------------------------------------------------|-------------------------------------------------|


D#|-------------------------------------------------|-------------------------------------------------|
A#|-------------------------------------------------|-------------------------------------------------|
F#|-------------------------------------------------|-------------------------------------------------|
C#|-5--5--5--5--4--4--4--3--3--3--2--2--1--1--0--0--|-6--6--6--6--5--5--5--4--4--4--3--3--2--2--1--1--|
G#|-------------------------------------------------|-------------------------------------------------|
D#|-------------------------------------------------|-------------------------------------------------|


D#|-------------------------------------------------|-4---5---6---7---8---9---10--11--|
A#|-------------------------------------------------|-3---4---5---6---7---8---9---11--|
F#|-------------------------------------------------|---------------------------------|
C#|-6--6--6--6--5--5--5--4--4--4--3--3--2--2--1--1--|---------------------------------|
G#|-------------------------------------------------|---------------------------------|
D#|-------------------------------------------------|---------------------------------|


D#|-12--13--14--15--16---16---|---------------------|---------------------|-------------|
A#|-11--12--13--14--15---15---|---------------------|---------------------|-------------|
F#|---------------------------|---------------------|---------------------|-5-----------|
C#|---------------------------|-4----3----4----5----|-7----6----7----8----|-5------5----|
G#|---------------------------|-4----3----4----5----|-7----6----7----8----|-3------5----|
D#|---------------------------|-2----1----2----3----|-5----4----5----6----|--------3----|


D#|--------|-------------------------------------|-------------------------------------|
A#|--------|-------------------------------------|-------------------------------------|
F#|-7------|-------------------------------------|-------------------------------------|
C#|-7------|-------------------------------------|-------------------------------------|
G#|-5------|-7---7---5---0-----------------------|-7---7---5---0-----------------------|
D#|--------|----------------6--6--6--5---3---0---|----------------6--6--6--5---3---0---|


D#|-------------|--------|-------------------------------------|-------------------------------------|
A#|-------------|--------|-------------------------------------|-------------------------------------|
F#|-5-----------|-7------|-------------------------------------|-------------------------------------|
C#|-5------5----|-7------|-------------------------------------|-------------------------------------|
G#|-3------5----|-5------|-7---7---5---0-----------------------|-7---7---5---0-----------------------|
D#|--------3----|--------|----------------6--6--6--5---3---0---|----------------6--6--6--5---3---0---|


D#|-------------|--------|-------------------------------------|-------------------------------------|
A#|-------------|--------|-------------------------------------|-------------------------------------|
F#|-5-----------|-7------|-------------------------------------|-------------------------------------|
C#|-5------5----|-7------|-------------------------------------|-------------------------------------|
G#|-3------5----|-5------|-7---7---5---0-----------------------|-7---7---5---0-----------------------|
D#|--------3----|--------|----------------6--6--6--5---3---0---|----------------6--6--6--5---3---0---|


D#|-------------|--------|---------------------------------|-------------0----------------|
A#|-------------|--------|---------------------------------|-----------------0-------12---|
F#|-5-----------|-7------|---------------------------------|-------------------------12---|
C#|-5------5----|-7------|---------------------------------|-------------------------12---|
G#|-3------5----|-5------|-7----5--5-----------------------|------------------------------|
D#|--------3----|--------|-------------6---6--5----3---0---|-5----3--3--------------------|


D#|--------|-----------------|---------------------------------|---------------------------------|
A#|-12-----|-12----12--------|-----------------12--12--12--12--|-12--12--12--12--12--12--12--12--|
F#|-12-----|-12----12--------|-----------------12--12--12--12--|-12--12--12--12--12--12--12--12--|
C#|-12-----|-12----12----12--|-12--12--12--12--12--12--12--12--|-12--12--12--12--12--12--12--12--|
G#|--------|-------------11--|-11--11--11--11--11--11--11--11--|-11--11--11--11--11--11--11--11--|
D#|--------|-----------------|---------------------------------|---------------------------------|


D#|--------------------|-------------|-------------------------------------------------|
A#|-12--12--12---12----|-12----------|-------------------------------------------------|
F#|-12--12--12---12----|-12----------|-------------------------------------------------|
C#|-12--12--12---12----|-12----------|-------------------------------------------------|
G#|-11--11--12---12----|-12-----0----|-7--7--7--5--5--5--------------------------------|
D#|--------------------|-------------|-------------------6--6--6--5--5--5--3--3--0--0--|


D#|-------------0---------|
A#|-------------0---------|
F#|-2----0--0---9---------|
C#|-2----0--0---9---------|
G#|-------------7---------|
D#|-----------------------|









Track 2: Izzy
Back to top
D#|----------------|-------------|----------------|------------------|-----------------------------|
A#|----------------|-------------|----------------|------------------|-----------------------------|
F#|----------------|-------------|--------7---9---|-9--9---7--7------|-----------------------------|
C#|----------------|-------------|-9--------------|------------------|-7--9----9----9-----9--7--9--|
G#|----------------|-------------|----------------|------------------|-----------------------------|
D#|----------------|-------------|----------------|------------------|-----------------------------|


D#|-------------------|-------------------|-------------------|-------------------|
A#|-------------------|-------------------|-------------------|-------------------|
F#|-------------------|-------------------|-------------------|-9-----9-----0--0--|
C#|-------------0--0--|-9-----9-----0--0--|-7-----7-----0--0--|-9-----9-----0--0--|
G#|-7-----7-----0--0--|-9-----9-----0--0--|-7-----7-----0--0--|-7-----7-----0--0--|
D#|-------------0--0--|-7-----7-----0--0--|-5-----5-----0--0--|-------------------|


D#|-------------|---------------------------------|------------------------------|
A#|-------------|---------------------------------|------------------------------|
F#|-7-----------|---------------------------------|------------------------------|
C#|-7-----7-----|-9---9---9---9---9---9---9---9---|-9---9---9---9---9---9---9----|
G#|-5-----7-----|-9---9---9---9---9---9---9---9---|-9---9---9---9---9---9---9----|
D#|-------5-----|-7---7---7---7---7---7---7---7---|-7---7---7---7---7---7---7----|


D#|-------------------------------------|-------------------------------------|-------------------------------------|
A#|-------------------------------------|-------------------------------------|-------------------------------------|
F#|-2---2-------0--2--2-----------------|-2---2-------0--2--2-----------------|-2---2-------0--2--2-----------------|
C#|-2---2-------0--2--2-----------------|-2---2-------0--2--2-----------------|-2---2-------0--2--2-----------------|
G#|-0---0-------0--0--0--0--------------|-0---0-------0--0--0--0--------------|-0---0-------0--0--0--0--------------|
D#|---------3---------------3---2---0---|---------3---------------3---2---0---|---------3---------------3---2---0---|


D#|-------------------------------------|-------------------------------------|-------------------------------------|
A#|-------------------------------------|-------------------------------------|-------------------------------------|
F#|-2---2-------0--2--2-----------------|-2---2-------0--2--2-----------------|-2---2-------0--2--2-----------------|
C#|-2---2-------0--2--2-----------------|-2---2-------0--2--2-----------------|-2---2-------0--2--2-----------------|
G#|-0---0-------0--0--0--0--------------|-0---0-------0--0--0--0--------------|-0---0-------0--0--0--0--------------|
D#|---------3---------------3---2---0---|---------3---------------3---2---0---|---------3---------------3---2---0---|


D#|-------------------------------------|-------------------------------------|-------------------------------------|
A#|-------------------------------------|-------------------------------------|-------------------------------------|
F#|-2---2-------0--2--2-----------------|-2---2-------0--2--2-----------------|-------------------------------------|
C#|-2---2-------0--2--2-----------------|-2---2-------0--2--2-----------------|-------------------------------------|
G#|-0---0-------0--0--0--0--------------|-0---0-------0--0--0--0--------------|-7---7---5---0--7--7--0--5---4---2---|
D#|---------3---------------3---2---0---|---------3---------------3---2---0---|-------------------------------------|


D#|-------------------------------------|-------------------------------------|-------------------------------------|
A#|-------------------------------------|-------------------------------------|-------------------------------------|
F#|-------------------------------------|-------------------------------------|-------------------------------------|
C#|-------------------------------------|-------------------------------------|-------------------------------------|
G#|-7---7---5---0--7--7--0--5---4---2---|-7---7---5---0--7--7--0--5---4---2---|-7---7---5---0--7--7--0--5---4---0---|
D#|-------------------------------------|-------------------------------------|-------------------------------------|


D#|-------------|--------|-------------------------------------|-------------------------------------|
A#|-------------|--------|-------------------------------------|-------------------------------------|
F#|-5-----------|-7------|-------------------------------------|-------------------------------------|
C#|-5------5----|-7------|-------------------------------------|-------------------------------------|
G#|-3------5----|-5------|-7---7---5---0-----------------------|-7---7---5---0-----------------------|
D#|--------3----|--------|----------------6--6--6--5---3---0---|----------------6--6--6--5---3---0---|


D#|-------------------------------------|---------------------------------|-------------------------------------|
A#|-------------------------------------|---------------------------------|-------------------------------------|
F#|-------------------------------------|---------------------------------|-2---2-------0--2--2-----------------|
C#|-------------------------------------|---------------------------------|-2---2-------0--2--2-----------------|
G#|-7---7---5---0-----------------------|-7----5--5-----------------------|-0---0-------0--0--0--0--------------|
D#|----------------6--6--6--5---3---0---|-------------6---6---5---3---4---|---------3---------------3---2---0---|


D#|-------------------------------------|-------------------------------------|-------------------------------------|
A#|-------------------------------------|-------------------------------------|-------------------------------------|
F#|-2---2-------0--2--2-----------------|-2---2-------0--2--2-----------------|-2---2-------0--2--2-----------------|
C#|-2---2-------0--2--2-----------------|-2---2-------0--2--2-----------------|-2---2-------0--2--2-----------------|
G#|-0---0-------0--0--0--0--------------|-0---0-------0--0--0--0--------------|-0---0-------0--0--0--0--------------|
D#|---------3---------------3---2---0---|---------3---------------3---2---0---|---------3---------------3---2---0---|


D#|-------------------------------------|-------------------------------------|-------------------------------------|
A#|-------------------------------------|-------------------------------------|-------------------------------------|
F#|-------------------------------------|-------------------------------------|-------------------------------------|
C#|-------------------------------------|-------------------------------------|-------------------------------------|
G#|-7---7---5---0--7--7--0--5---4---2---|-7---7---5---0--7--7--0--5---4---2---|-7---7---5---0--7--7--0--5---4---2---|
D#|-------------------------------------|-------------------------------------|-------------------------------------|


D#|-------------------------------------|-------------|--------|-------------------------------------|
A#|-------------------------------------|-------------|--------|-------------------------------------|
F#|-------------------------------------|-5-----------|-7------|-------------------------------------|
C#|-------------------------------------|-5------5----|-7------|-------------------------------------|
G#|-7---7---5---0--7--7--0--5---4---0---|-3------5----|-5------|-7---7---5---0-----------------------|
D#|-------------------------------------|--------3----|--------|----------------6--6--6--5---3---0---|


D#|-------------------------------------|-------------------------------------|-------------------------------|
A#|-------------------------------------|-------------------------------------|-------------------------------|
F#|-------------------------------------|-------------------------------------|-4------4--4-----4---4----4----|
C#|-------------------------------------|-------------------------------------|-4------4--4-----4---4----4----|
G#|-7---7---5---0-----------------------|-7---7---5---0-----------------------|-2------2--2-----2---2----2----|
D#|----------------6--6--6--5---3---0---|----------------6--6--6--5---3---0---|-------------------------------|


D#|---------------------------------|------------------------|---------------------------------|
A#|---------------------8-------8---|-8----8---0-------------|---------------------8-------8---|
F#|---------------------7-------7---|-7----7---0-------------|---------------------7-------7---|
C#|-----2---2---2-------6-------6---|-6----6---0---2----2----|-----2---2---2-------6-------6---|
G#|-----2---2---2-------7-------7---|-7----7---0---2----2----|-----2---2---2-------7-------7---|
D#|-0---0---0---0-------------------|--------------0----0----|-0---0---0---0-------------------|


D#|------------------------|---------------------------------|------------------------|
A#|-8----8---0-------------|---------------------8-------8---|-8----8---0-------------|
F#|-7----7---0-------------|---------------------7-------7---|-7----7---0-------------|
C#|-6----6---0---2----2----|-----2---2---2-------6-------6---|-6----6---0---2----2----|
G#|-7----7---0---2----2----|-----2---2---2-------7-------7---|-7----7---0---2----2----|
D#|--------------0----0----|-0---0---0---0-------------------|--------------0----0----|


D#|---------------------------------|------------------------|-------------------------------------|
A#|---------------------8-------8---|-8----8---0-------------|-------------------------------------|
F#|---------------------7-------7---|-7----7---0-------------|-2---2-------0--2--2-----------------|
C#|-----2---2---2-------6-------6---|-6----6---0---2----2----|-2---2-------0--2--2-----------------|
G#|-----2---2---2-------7-------7---|-7----7---0---2----2----|-0---0-------0--0--0--0--------------|
D#|-0---0---0---0-------------------|--------------0----0----|---------3---------------3---2---0---|


D#|-------------------------------------|-------------------------------------|-------------------------------------|
A#|-------------------------------------|-------------------------------------|-------------------------------------|
F#|-2---2-------0--2--2-----------------|-2---2-------0--2--2-----------------|-2---2-------0--2--2-----------------|
C#|-2---2-------0--2--2-----------------|-2---2-------0--2--2-----------------|-2---2-------0--2--2-----------------|
G#|-0---0-------0--0--0--0--------------|-0---0-------0--0--0--0--------------|-0---0-------0--0--0--0--------------|
D#|---------3---------------3---2---0---|---------3---------------3---2---0---|---------3---------------3---2---0---|


D#|-------------------------------------|-------------------------------------|-------------------------------------|
A#|-------------------------------------|-------------------------------------|-------------------------------------|
F#|-------------------------------------|-------------------------------------|-------------------------------------|
C#|-------------------------------------|-------------------------------------|-------------------------------------|
G#|-7---7---5---0--7--7--0--5---4---2---|-7---7---5---0--7--7--0--5---4---2---|-7---7---5---0--7--7--0--5---4---2---|
D#|-------------------------------------|-------------------------------------|-------------------------------------|


D#|-------------------------------------|-------------|--------|-------------------------------------|
A#|-------------------------------------|-------------|--------|-------------------------------------|
F#|-------------------------------------|-5-----------|-7------|-------------------------------------|
C#|-------------------------------------|-5------5----|-7------|-------------------------------------|
G#|-7---7---5---0--7--7--0--5---4---0---|-3------5----|-5------|-7---7---5---0-----------------------|
D#|-------------------------------------|--------3----|--------|----------------6--6--6--5---3---0---|


D#|-------------------------------------|-------------------------------------|---------------------------------|
A#|-------------------------------------|-------------------------------------|---------------------------------|
F#|-------------------------------------|-------------------------------------|---------------------------------|
C#|-------------------------------------|-------------------------------------|---------------------------------|
G#|-7---7---5---0-----------------------|-7---7---5---0-----------------------|-7----5--5-----------------------|
D#|----------------6--6--6--5---3---0---|----------------6--6--6--5---3---0---|-------------6---6---5---3---4---|


D#|-2------|-3------|-2------|-3------|-2-----2---2---2---2---2---|-3------|-2----2----2-----0---|
A#|-3------|-3------|-3------|-3------|-3-----3---3---3---3---3---|-3------|-3----3----3-----0---|
F#|-2------|-0------|-2------|-0------|-2-----2---2---2---2---2---|-0------|-2----2----2-----0---|
C#|-0------|-0------|-0------|-0------|-0-----0---0---0---0---0---|-0------|-0----0----0-----0---|
G#|--------|-0------|--------|-0------|---------------------------|-0------|---------------------|
D#|--------|-3------|--------|-3------|---------------------------|-3------|---------------------|


D#|------------------------------|------------------------------|------------------------------|
A#|------------------------------|------------------------------|------------------------------|
F#|------------------------------|------------------------------|------------------------------|
C#|-5---5---5---5---5------------|-5---5---5---5---5------------|-7---7---7---7---7------------|
G#|-5---5---5---5---5------------|-5---5---5---5---5------------|-7---7---7---7---7------------|
D#|-3---3---3---3---3------------|-3---3---3---3---3------------|-5---5---5---5---5------------|


D#|-------------|---------------------------------|---------------------------|--------------------------------|
A#|-------------|---------------------------------|-----------------7----7----|--------------------------------|
F#|-------------|---------------------------------|-----------------7----7----|--------------------------------|
C#|-7------0----|-----2---2---2-------2-------2---|-2---2---2-------6----6----|-----2--2--2--------2-------2---|
G#|-7------0----|-----2---2---2-------2-------2---|-2---2---2-------7----7----|-----2--2--2--------2-------2---|
D#|-5------0----|-0---0---0---0-------0-------0---|-0---0---0---0-------------|-0---0--0--0--------0-------0---|


D#|------------------------|-----------------------|---------------------------------|
A#|------------------------|-----------------------|---------------------------------|
F#|------------------------|-6-----6---6-------4---|-4---4---4---4---4---4---4---4---|
C#|-2---2---2----2----2----|-6-----6---6-------4---|-4---4---4---4---4---4---4---4---|
G#|-2---2---2----2----2----|-4-----4---4-------2---|-2---2---2---2---2---2---2---2---|
D#|-0---0---0----0----0----|-----------------------|---------------------------------|


D#|-----------------------|-----------------------|-----------------------|---------------------------------|
A#|-----------------------|-----------------------|-----------------------|---------------------------------|
F#|-6-----6---6-------4---|-4-----4---4---4---4---|-6-----6---6-------4---|-4-------4-----------------------|
C#|-6-----6---6-------4---|-4-----4---4---4---4---|-6-----6---6-------4---|-4-------4-----------------------|
G#|-4-----4---4-------2---|-2-----2---2---2---2---|-4-----4---4-------2---|-2---0---2-------2---------------|
D#|-----------------------|-----------------------|-----------------------|---------------------3---2---0---|


D#|-----0-----------0------------|-----0-----------0---------------|---------------------------------|
A#|-----0-----------0----0-------|-----0-----------0---------------|---------------------------------|
F#|----------------------0-------|-----------------------------4---|-4---4-------4---4---4-------4---|
C#|------------------------------|-----------------------------4---|-4---4-------4---4---4-------4---|
G#|------------------------------|-------------------------0---2---|-2---2-------2---2---2---0---2---|
D#|-0-------0---0------------0---|-0-------0---0-------4-----------|---------------------------------|


D#|---------------------------------|-----0-----------0------------|-----0-----------0---------------|
A#|---------------------------------|-----0-----------0----0-------|-----0-----------0---------------|
F#|-4---4---4-----------------------|----------------------0-------|-----------------------------4---|
C#|-4---4---4-----------------------|------------------------------|-----------------------------4---|
G#|-2---2---2-------2---------------|------------------------------|-------------------------0---2---|
D#|---------------------3---2---0---|-0-------0---0------------0---|-0-------0---0-------4-----------|


D#|---------------------------------|------------------------------|------------------------------|
A#|---------------------------------|------------------------------|------------------------------|
F#|-4---4-------4---4---4-------4---|-4---4---4-------4------------|------------------------------|
C#|-4---4-------4---4---4-------4---|-4---4---4-------4------------|-4----4---4---4---4---4---4---|
G#|-2---2---0---2---2---2---0---2---|-2---2---2---0---2---0--------|-4----4---4---4---4---4---4---|
D#|---------------------------------|-------------------------0----|-2----2---2---2---2---2---2---|


D#|---------------------------------|--------|--------|---------------------|---------------------|
A#|---------------------------------|--------|--------|---------------------|---------------------|
F#|---------------------------------|-4------|-4------|---------------------|---------------------|
C#|-4---4---4---4---4---4---4---0---|-4------|-4------|------3----3----3----|-3----3----3----3----|
G#|-4---4---4---4---4---4---4---0---|-2------|-2------|---------------------|---------------------|
D#|-2---2---2---2---2---2---2---0---|--------|--------|---------------------|---------------------|


D#|-------------|--------|----------------|----------------|----------------|----------------|
A#|-------------|--------|-12------12-----|-12-----12------|-12------12-----|-12-----12------|
F#|-------------|--------|-14------14-----|-14-----14------|-14------14-----|-14-----14------|
C#|-3------3----|-3------|----------------|----------------|----------------|----------------|
G#|-------------|--------|----------------|----------------|----------------|----------------|
D#|-------------|--------|----------------|----------------|----------------|----------------|


D#|----------------|----------------|----------------|----------------|---------------------|
A#|-12------12-----|-12-----12------|-12------12-----|-12-----12------|---------------------|
F#|-14------14-----|-14-----14------|-14------14-----|-14-----14------|---------------------|
C#|----------------|----------------|----------------|----------------|-4----3----4----5----|
G#|----------------|----------------|----------------|----------------|-4----3----4----5----|
D#|----------------|----------------|----------------|----------------|-2----1----2----3----|


D#|---------------------|-------------|--------|-------------------------------------|
A#|---------------------|-------------|--------|-------------------------------------|
F#|---------------------|-5-----------|-7------|-------------------------------------|
C#|-7----6----7----8----|-5------5----|-7------|-------------------------------------|
G#|-7----6----7----8----|-3------5----|-5------|-7---7---5---0-----------------------|
D#|-5----4----5----6----|--------3----|--------|----------------6--6--6--5---3---0---|


D#|-------------------------------------|-------------|--------|-------------------------------------|
A#|-------------------------------------|-------------|--------|-------------------------------------|
F#|-------------------------------------|-5-----------|-7------|-------------------------------------|
C#|-------------------------------------|-5------5----|-7------|-------------------------------------|
G#|-7---7---5---0-----------------------|-3------5----|-5------|-7---7---5---0-----------------------|
D#|----------------6--6--6--5---3---0---|--------3----|--------|----------------6--6--6--5---3---0---|


D#|-------------------------------------|-------------|--------|-------------------------------------|
A#|-------------------------------------|-------------|--------|-------------------------------------|
F#|-------------------------------------|-5-----------|-7------|-------------------------------------|
C#|-------------------------------------|-5------5----|-7------|-------------------------------------|
G#|-7---7---5---0-----------------------|-3------5----|-5------|-7---7---5---0-----------------------|
D#|----------------6--6--6--5---3---0---|--------3----|--------|----------------6--6--6--5---3---0---|


D#|-------------------------------------|-------------|--------|---------------------------------|
A#|-------------------------------------|-------------|--------|---------------------------------|
F#|-------------------------------------|-5-----------|-7------|---------------------------------|
C#|-------------------------------------|-5------5----|-7------|---------------------------------|
G#|-7---7---5---0-----------------------|-3------5----|-5------|-7----5--5-----------------------|
D#|----------------6--6--6--5---3---0---|--------3----|--------|-------------6---6--5----3---0---|


D#|----------------------0----|-0-----------------------------|---------------------------------------------|
A#|----------------------0----|-0-----------------------------|---------------------------------------------|
F#|---------------------------|-------9--9--9--9--9--9--9--9--|-9--9--9--9--9--9--9--9--9--9--9--9--9---9---|
C#|---------------------------|-------9--9--9--9--9--9--9--9--|-9--9--9--9--9--9--9--9--9--9--9--9--9---9---|
G#|---------------------------|-------7--7--7--7--7--7--7--7--|-7--7--7--7--7--7--7--7--7--7--7--7--7---7---|
D#|-5----3--3---0-------------|-------0--0--0--0--0--0--0--0--|-0--0--0--0--0--0--0--0--0--0--0--0--0---0---|


D#|---------------------------------|---------------------------------|-----------------------|
A#|---------------------------------|---------------------------------|-----------------------|
F#|-9---9---9---9---9---9---9---9---|-9---9---9---9---9---9---9---9---|-9---9---9---9---------|
C#|-9---9---9---9---9---9---9---9---|-9---9---9---9---9---9---9---9---|-9---9---9---9---------|
G#|-7---7---7---7---7---7---7---7---|-7---7---7---7---7---7---7---7---|-7---7---7---7---------|
D#|-0---0---0---0---0---0---0---0---|-0---0---0---0---0---0---0---0---|-0---0---0---0---0-----|


D#|--------|---------------------------------|-----------------------|
A#|--------|---------------------------------|-----------------------|
F#|--------|---------------------------------|-----------------------|
C#|--------|---------------------------------|-----------------------|
G#|--------|-7----5--5-----------------------|-----------------------|
D#|-0------|-------------6---6--5----3---0---|-5----3--3---0---------|









Track 3: Bass
Back to top
F#|-------------|-------------|----------------|--------|------------------|----------------|
C#|-------------|-------------|-7--9----9------|-7------|------------------|--------7---8---|
G#|-------------|-------------|----------------|--------|------------5--6--|-7--------------|
D#|-------------|-------------|----------------|--------|-7---3------------|----------------|


F#|--------|--------|-------------|------------------|---------------------------------|
C#|-9------|-7------|-------------|------------------|---------------------------------|
G#|--------|--------|-7----2------|-5-----0-----2----|-2---2---2---2---2---2---2---2---|
D#|--------|--------|-------------|------------------|---------------------------------|


F#|-----2---3---4---4---0-----------|---------------------------------|---------------------------------|
C#|-------------------------5---0---|---------------------------------|---------------------------------|
G#|-2-------------------------------|-0---0-------0---0---------------|-0---0-------0---0---------------|
D#|---------------------------------|---------3-----------3---2---0---|---------3-----------3---2---0---|


F#|---------------------------------|---------------------------------|---------------------------------|
C#|---------------------------------|---------------------4---5---4---|---------------------------------|
G#|-0---0-------0---0---------------|-0---0-----------0---------------|-0---0-------0---0---------------|
D#|---------3-----------3---2---0---|---------3---3-------------------|---------3-----------3---2---0---|


F#|---------------------------------|---------------------------------|---------------------------------|
C#|---------------------------------|---------------------------------|---------------------------------|
G#|-0---0-------0---0---------------|-0---0-------0---0---------------|-0---0-------0---0---------------|
D#|---------3-----------3---2---0---|---------3-----------3---2---0---|---------3-----------3---2---0---|


F#|---------------------------------|---------------------------------|---------------------------------|
C#|-2---2---0---0---2---0-----------|-2---2---0---0---2---0-----------|-2---2---0---0---2---0-----------|
G#|-------------------------4---2---|-------------------------4---2---|-------------------------4---2---|
D#|---------------------------------|---------------------------------|---------------------------------|


F#|---------------------------------|--------|--------|-----------------------------------|
C#|-2---2---0---0---2---0-----------|--------|--------|-2---2---0---0---------------------|
G#|-------------------------4---2---|-3------|-5------|-----------------1---1---0---------|
D#|---------------------------------|--------|--------|----------------------------3--0---|


F#|-----------------------------------|-----------------------------------|---------------------------------|
C#|-2---2---0---0---------------------|-2---2---0---0---------------------|-2----0--0-----------------------|
G#|-----------------1---1---0---------|-----------------1---1---0---------|-------------1---1---0-----------|
D#|----------------------------3--0---|----------------------------3--0---|-------------------------3---0---|


F#|---------------------------------|---------------------------------|---------------------------------|
C#|---------------------------------|---------------------------------|---------------------------------|
G#|-0---0-------0---0---------------|-0---0-------0---0---------------|-0---0-------0---0---------------|
D#|---------3-----------3---2---0---|---------3-----------3---2---0---|---------3-----------3---2---0---|


F#|---------------------------------|---------------------------------|---------------------------------|
C#|---------------------------------|-2---2---0---0---2---0-----------|-2---2---0---0---2---0-----------|
G#|-0---0-------0---0---------------|-------------------------4---2---|-------------------------4---2---|
D#|---------3-----------3---2---0---|---------------------------------|---------------------------------|


F#|---------------------------------|---------------------------------|--------|--------|
C#|-2---2---0---0---2---0-----------|-2---2---0---0---2---0-----------|--------|--------|
G#|-------------------------4---2---|-------------------------4---2---|-3------|-5------|
D#|---------------------------------|---------------------------------|--------|--------|


F#|-----------------------------------|-----------------------------------|-----------------------------------|
C#|-2---2---0---0---------------------|-2---2---0---0---------------------|-2---2---0---0---------------------|
G#|-----------------1---1---0---------|-----------------1---1---0---------|-----------------1---1---0---------|
D#|----------------------------3--0---|----------------------------3--0---|----------------------------3--0---|


F#|-4----4--4---4---4---------|---------------------------------|------------------------------|
C#|---------------------------|---------------------------------|------------------------------|
G#|---------------------------|-----4---5-------7---7------7----|-----4---5--------7---7---7---|
D#|---------------------------|-0----------0------------0-------|-0-----------0----------------|


F#|---------------------------------|------------------------------|---------------------------------|
C#|---------------------------------|------------------------------|---------------------------------|
G#|-----4---5-------7---7------7----|-----4---5--------7---7---7---|-----4---5-------7---7------7----|
D#|-0----------0------------0-------|-0-----------0----------------|-0----------0------------0-------|


F#|------------------------------|---------------------------------|------------------------------|
C#|------------------------------|---------------------------------|------------------------------|
G#|-----4---5--------7---7---7---|-----4---5-------7---7------7----|-----4---5--------7---7---7---|
D#|-0-----------0----------------|-0----------0------------0-------|-0-----------0----------------|


F#|---------------------------------|---------------------------------|---------------------------------|
C#|---------------------------------|---------------------------------|---------------------------------|
G#|-0---0-------0---0---------------|-0---0-------0---0---------------|-0---0-------0---0---------------|
D#|---------3-----------3---2---0---|---------3-----------3---2---0---|---------3-----------3---2---0---|


F#|---------------------------------|---------------------------------|---------------------------------|
C#|---------------------------------|-2---2---0---0---2---0-----------|-2---2---0---0---2---0-----------|
G#|-0---0-------0---0---------------|-------------------------4---2---|-------------------------4---2---|
D#|---------3-----------3---2---0---|---------------------------------|---------------------------------|


F#|---------------------------------|---------------------------------|--------|--------|
C#|-2---2---0---0---2---0-----------|-2---2---0---0---2---0-----------|--------|--------|
G#|-------------------------4---2---|-------------------------4---2---|-3------|-5------|
D#|---------------------------------|---------------------------------|--------|--------|


F#|-----------------------------------|-----------------------------------|-----------------------------------|
C#|-2---2---0---0---------------------|-2---2---0---0---------------------|-2---2---0---0---------------------|
G#|-----------------1---1---0---------|-----------------1---1---0---------|-----------------1---1---0---------|
D#|----------------------------3--0---|----------------------------3--0---|----------------------------3--0---|


F#|---------------------------------|--------|--------|--------|--------|--------|
C#|-2----0--0-----------------------|--------|--------|--------|--------|--------|
G#|-------------1---1---0-----------|-5------|-10-----|-5------|-10-----|-5------|
D#|-------------------------3---0---|--------|--------|--------|--------|--------|


F#|--------|--------|---------------------------|---------------------------|---------------------------|
C#|--------|--------|---------------------------|---------------------------|---------------------------|
G#|-10-----|-5------|---------------------------|---------------------------|---------------------------|
D#|--------|--------|-3---3---3---3---3---1-----|-3---3---3---3---3---1-----|-3---3---3---3---3---1-----|


F#|-2---2---2---2---0---0-----------|---------------------------------|------------------------------|
C#|-------------------------4---2---|---------------------------------|------------------------------|
G#|---------------------------------|-----4---5-------7---7------7----|-----4---5--------7---7---7---|
D#|---------------------------------|-0----------0------------0-------|-0-----------0----------------|


F#|---------------------------------|------------------------------|---------------------------|
C#|---------------------------------|------------------------------|---------------------------|
G#|-----4---5-------7---7------7----|-----4---5--------7---7---7---|-4---2---4-----4---2---4---|
D#|-0----------0------------0-------|-0-----------0----------------|---------------------------|


F#|---------------------------|---------------------------|---------------------------|
C#|---------------------------|---------------------------|---------------------------|
G#|-2---0---2-----2---0---2---|-4---2---4-----4---2---4---|-2---0---2-----2---0---2---|
D#|---------------------------|---------------------------|---------------------------|


F#|---------------------------|---------------------------|--------|--------------------|
C#|---------------------------|---------------------------|--------|--------------------|
G#|-4---2---4-----4---2---4---|-2---0---2-----2---0---2---|--------|--------------------|
D#|---------------------------|---------------------------|-0------|-0-----0----2---4---|


F#|---------------------------|------------------------------|---------------------------|
C#|---------------------------|------------------------------|-2---2---0-------0---2-----|
G#|-2---2---0-------0---2-----|-2---2---0----0---2-----------|--------------2------------|
D#|--------------2------------|--------------2--------5---4--|---------------------------|


F#|-------------------------------|---------------------------|---------------------------------|
C#|-2---2---0-------0-------------|---------------------------|---------------------------------|
G#|--------------2-------0---1----|-2---2---0-------0---2-----|-2---2---0--------0--------------|
D#|-------------------------------|--------------2------------|--------------2-------0---0---2--|


F#|---------------------------------|---------------------------------|--------|----------------|
C#|---------------------------------|-4---4---4---4---4---4---4---4---|--------|----------------|
G#|---------------------------------|---------------------------------|-2------|-2---14-----14--|
D#|-2---2---2---2---2---2---2---2---|---------------------------------|--------|----------------|


F#|-----------------------------------|-----------------------------------|-----------------------------------|
C#|-----------------------------------|-----------------------------------|-----------------------------------|
G#|-----------------------------------|-----------------------------------|-7---7---6---6---5---5---4---3--2--|
D#|-0---0---1---1---2---2---1---2--3--|-5---5---4---4---5---5---4---5--6--|-----------------------------------|


F#|-----------------------------------|-----------------------------------|-----------------------------------|
C#|-----------------------------------|-----------------------------------|-----------------------------------|
G#|-7---7---6---6---5---5---4---3--2--|-7---7---6---6---5---5---4---3--2--|-7---7---6---6---5---5---4---3--2--|
D#|-----------------------------------|-----------------------------------|-----------------------------------|


F#|-----------------------------------|-----------------------------------|-----------------------------------|
C#|-----------------------------------|-----------------------------------|-----------------------------------|
G#|-7---7---6---6---5---5---4---3--2--|-7---7---6---6---5---5---4---3--2--|-7---7---6---6---5---5---4---3--2--|
D#|-----------------------------------|-----------------------------------|-----------------------------------|


F#|-----------------------------------|-----------------------------------|-----------------------------------|
C#|-----------------------------------|-----------------------------------|-----------------------------------|
G#|-7---7---6---6---5---5---4---3--2--|-7---7---6---6---5---5---4---3--2--|-7---7---6---6---5---5---4---3--2--|
D#|-----------------------------------|-----------------------------------|-----------------------------------|


F#|---------------------|---------------------|--------|--------|-----------------------------------|
C#|---------------------|---------------------|--------|--------|-2---2---0---0---------------------|
G#|---------------------|---------------------|-3------|-5------|-----------------1---1---0---------|
D#|-2----1----2----3----|-5----4----5----6----|--------|--------|----------------------------3--0---|


F#|-----------------------------------|--------|--------|-----------------------------------|
C#|-2---2---0---0---------------------|--------|--------|-2---2---0---0---------------------|
G#|-----------------1---1---0---------|-3------|-5------|-----------------1---1---0---------|
D#|----------------------------3--0---|--------|--------|----------------------------3--0---|


F#|-----------------------------------|--------|--------|-----------------------------------|
C#|-2---2---0---0---------------------|--------|--------|-2---2---0---0---------------------|
G#|-----------------1---1---0---------|-3------|-5------|-----------------1---1---0---------|
D#|----------------------------3--0---|--------|--------|----------------------------3--0---|


F#|-----------------------------------|--------|--------|---------------------------------|
C#|-2---2---0---0---------------------|--------|--------|-2----0--0-----------------------|
G#|-----------------1---1---0---------|-3------|-5------|-------------1---1--0------------|
D#|----------------------------3--0---|--------|--------|-------------------------3---0---|


F#|---------------------------|------------------------------------------|-------------------------------------------------|
C#|---------------------------|------------------------------------------|-------------------------------------------------|
G#|-0--------------------7----|------------------------------------------|-------------------------------------------------|
D#|------3--3---0----0---0----|-0----0--0--0--0--0--0--0--0--0--0--0--0--|-0--0--0--0--0--0--0--0--0--0--0--0--0--0--0--0--|


F#|-------------------------------------------------|-------------------------------------------------|
C#|-------------------------------------------------|-------------------------------------------------|
G#|-------------------------------------------------|-------------------------------------------------|
D#|-0--0--0--0--0--0--0--0--0--0--0--0--0--0--0--0--|-0--0--0--0--0--0--0--0--0--0--0--0--0--0--0--0--|


F#|-------------------------------|--------|-------------------------------------------------|
C#|-------------------------------|--------|-------------------------------------------------|
G#|-------------------------------|--------|-7--7--7--5--5--5--------------------------------|
D#|-0--0--0--0--0--0--0--0--0-----|-0------|-------------------6--6--6--5--5--5--3--3--0--0--|


F#|-----------------------|
C#|-----------------------|
G#|-----------------------|
D#|-5----3--3---0---------|









Track 4: Matt
Back to top
C|-------------|-------------|-----------------------------|-----------------------------|
C|-------------|-------------|-----------------------------|-----------------------------|
C|-------------|-------------|-57---49---49---49---49--49--|-57---49---49---49---49--49--|
C|-------------|-------------|-47--------------------------|-47--------------------------|
C|-------------|-------------|-----------------------------|-----------------------------|
C|-------------|-------------|-----------------------------|-----------------------------|


C|-----------------------------|-----------------------------|-----------------------------|
C|-----------------------------|-----------------------------|-----------------------------|
C|-57---49---49---49---49--49--|-57---49---49---49---49--49--|-57---49---49---49---49--49--|
C|-47--------------------------|-47--------------------------|-47--------------------------|
C|-----------------------------|-----------------------------|-----------------------------|
C|-----------------------------|-----------------------------|-----------------------------|


C|-----------------------------|-----------------------------|-------------|---------------------------------|
C|-----------------------------|-----------------------------|-------------|---------------------------------|
C|-57---49---49---49---49--49--|-57---49---49---49---49--49--|-57----57----|-40------------------------------|
C|-47--------------------------|-47--------------------------|-47----47----|-47--47--47--47--47--47--47--47--|
C|-----------------------------|-----------------------------|-------------|---------------------------------|
C|-----------------------------|-----------------------------|-------------|---------------------------------|


C|----------------------------------|-49---49---49---49------|-49---49---49---49------|
C|----------------------------------|------------------------|------------------------|
C|----------------------------------|------------------------|------------------------|
C|-47--47--47--47--47--47--4040-----|------40--------40------|------40--------40------|
C|----------------------------------|-47--------47---47--47--|-47--------47---47--47--|
C|----------------------------------|------------------------|------------------------|


C|-49---49---49---49------|-49---49---49-------------|-49---44---44---44------|-49---44---44---44------|
C|------------------------|--------------------------|------------------------|------------------------|
C|------------------------|--------------------------|------------------------|------------------------|
C|------40--------40------|------40--------40--40-40-|------40--------40------|------40--------40------|
C|-47--------47---47--47--|-47--------47---47--------|-47--------47---47--47--|-47--------47---47--47--|
C|------------------------|--------------------------|------------------------|------------------------|


C|-49---44---44---44------|-44---44---44-------------|-49---44---44---44------|-44---44---44---44------|
C|------------------------|--------------------------|------------------------|------------------------|
C|------------------------|--------------------------|------------------------|------------------------|
C|------40--------40------|------40--------40--40-40-|------40--------40------|------40--------40------|
C|-47--------47---47--47--|-47--------47---47--------|-47--------47---47--47--|-47--------47---47--47--|
C|------------------------|--------------------------|------------------------|------------------------|


C|-44---44---44---44------|-44---44---44------------|------44---44------44------|------44---44------44--------|
C|------------------------|-------------------------|---------------------------|-----------------------------|
C|------------------------|-------------------------|---------------------------|-----------------------------|
C|------40--------40------|------40--------4040-----|-49------------------------|-49----------------40--40-40-|
C|-47--------47---47--47--|-47--------47------------|-47--------47--47------47--|-47--------47--47--47--------|
C|------------------------|-------------------------|---------------------------|-----------------------------|


C|---------------------------|---------------------------|----------------------------|
C|---------------------------|---------------------------|----------------------------|
C|---------------------------|---------------------------|----------------------------|
C|------40-----------40------|------40-----------40------|------40-----------4040-----|
C|-47-------47--47---47--47--|-47-------47--47---47--47--|-47-------47--47------------|
C|---------------------------|---------------------------|----------------------------|


C|--------------------------------|-49---44------44---44------|-44---44------44---44------|
C|--------------------------------|---------------------------|---------------------------|
C|-49---49---49-------------------|---------------------------|---------------------------|
C|-40---40---40----------4040-----|------40-----------40------|------40-----------40------|
C|---------------47--47-----------|-47-------47--47---47--47--|-47-------47--47---47--47--|
C|--------------------------------|---------------------------|---------------------------|


C|-44---44------44---44------|-44---44------44-------------|-49---44------44---44------|
C|---------------------------|-----------------------------|---------------------------|
C|---------------------------|-----------------------------|---------------------------|
C|------40-----------40------|------40-----------40--40-40-|------40-----------40------|
C|-47-------47--47---47--47--|-47-------47--47---47--------|-47-------47--47---47--47--|
C|---------------------------|-----------------------------|---------------------------|


C|-44---44------44---44------|-44---44------44---44------|-44---44------44------------|
C|---------------------------|---------------------------|----------------------------|
C|---------------------------|---------------------------|----------------------------|
C|------40-----------40------|------40-----------40------|------40-----------4040-----|
C|-47-------47--47---47--47--|-47-------47--47---47--47--|-47-------47--47------------|
C|---------------------------|---------------------------|----------------------------|


C|------44---44------44------|------44---44------44--------|---------------------------|
C|---------------------------|-----------------------------|---------------------------|
C|---------------------------|-----------------------------|---------------------------|
C|-49------------------------|-49----------------40--40-40-|------40-----------40------|
C|-47--------47--47------47--|-47--------47--47--47--------|-47-------47--47---47--47--|
C|---------------------------|-----------------------------|---------------------------|


C|---------------------------|----------------------------|--------------------------------|
C|---------------------------|----------------------------|--------------------------------|
C|---------------------------|----------------------------|-49---49---49-------------------|
C|------40-----------40------|------40-----------4040-----|-40---40---40----------4040-----|
C|-47-------47--47---47--47--|-47-------47--47------------|---------------47--47-----------|
C|---------------------------|----------------------------|--------------------------------|


C|-44---44------44---44------|-44---44------44---49------|-44---44------44---44------|
C|---------------------------|---------------------------|---------------------------|
C|---------------------------|---------------------------|---------------------------|
C|------40-----------40------|------40-----------40------|------40-----------40------|
C|-47-------47--47---47--47--|-47-------47--47---47--47--|-47-------47--47---47--47--|
C|---------------------------|---------------------------|---------------------------|


C|-44---44------44---49------|-44---44------44------44------|-44---44------44------49------|
C|---------------------------|------------------------------|------------------------------|
C|---------------------------|------------------------------|------------------------------|
C|------40-----------40------|------40--------------40------|------40--------------40------|
C|-47-------47--47---47--47--|-47-------47--47--47--47--47--|-47-------47--47--47--47--47--|
C|---------------------------|------------------------------|------------------------------|


C|-44---44------44------44------|-44---44------44----------------|-44---44------44---44------|
C|------------------------------|--------------------------------|---------------------------|
C|------------------------------|--------------------------------|---------------------------|
C|------40--------------40------|------40--------------40--40-40-|------40-----------40------|
C|-47-------47--47--47--47--47--|-47-------47--47--47--47--------|-47-------47--47---47--47--|
C|------------------------------|--------------------------------|---------------------------|


C|-44---44------44---44------|-44---44------44---44------|-44---44------44-------------|
C|---------------------------|---------------------------|-----------------------------|
C|---------------------------|---------------------------|-----------------------------|
C|------40-----------40------|------40-----------40------|------40-----------40--40-40-|
C|-47-------47--47---47--47--|-47-------47--47---47--47--|-47-------47--47---47--------|
C|---------------------------|---------------------------|-----------------------------|


C|-49---44------44---44------|-44---44------44---44------|-44---44------44---44------|
C|---------------------------|---------------------------|---------------------------|
C|---------------------------|---------------------------|---------------------------|
C|------40-----------40------|------40-----------40------|------40-----------40------|
C|-47-------47--47---47--47--|-47-------47--47---47--47--|-47-------47--47---47--47--|
C|---------------------------|---------------------------|---------------------------|


C|-44---44------44------------|------44---44------44------|------44---44------44--------|
C|----------------------------|---------------------------|-----------------------------|
C|----------------------------|---------------------------|-----------------------------|
C|------40-----------4040-----|-49------------------------|-49----------------40--40-40-|
C|-47-------47--47------------|-47--------47--47------47--|-47--------47--47--47--------|
C|----------------------------|---------------------------|-----------------------------|


C|---------------------------|---------------------------|----------------------------|
C|---------------------------|---------------------------|----------------------------|
C|---------------------------|---------------------------|----------------------------|
C|------40-----------40------|------40-----------40------|------40-----------4040-----|
C|-47-------47--47---47--47--|-47-------47--47---47--47--|-47-------47--47------------|
C|---------------------------|---------------------------|----------------------------|


C|--------------------------------|-49---44------44------44---|-49---44------44------44---|
C|--------------------------------|---------------------------|---------------------------|
C|-49---49---49-------------------|---------------------------|---------------------------|
C|-40---40---40----------4040-----|------40--------------40---|------40--------------40---|
C|---------------47--47-----------|-47-------47------47--47---|-47-------47------47--47---|
C|--------------------------------|---------------------------|---------------------------|


C|-49---44------44------44---|-49---44------44------44---|-49---44------44------44---|
C|---------------------------|---------------------------|---------------------------|
C|---------------------------|---------------------------|---------------------------|
C|------40--------------40---|------40--------------40---|------40--------------40---|
C|-47-------47------47--47---|-47-------47------47--47---|-47-------47------47--47---|
C|---------------------------|---------------------------|---------------------------|


C|-49---44------44------44---|-49---44------44------44---|---------------------------|
C|---------------------------|---------------------------|---------------------------|
C|---------------------------|---------------------------|----------------------49---|
C|------40--------------40---|------40--------------40---|-43--43--43--43--43---40---|
C|-47-------47------47--47---|-47-------47------47--47---|-47--47--47--47--47--------|
C|---------------------------|---------------------------|---------------------------|


C|---------------------------|---------------------------|------------------------------------|
C|---------------------------|---------------------------|------------------------------------|
C|----------------------49---|----------------------49---|------------------------------------|
C|-43--43--43--43--43---40---|-43--43--43--43--43---40---|-43--43--43--43--43--43--4040-------|
C|-47--47--47--47--47--------|-47--47--47--47--47--------|-47--47--47--47--47--47---------47--|
C|---------------------------|---------------------------|------------------------------------|


C|-49---49------49------49---|-49---49------49------49---|-49---49------49------49---|
C|---------------------------|---------------------------|---------------------------|
C|---------------------------|---------------------------|---------------------------|
C|------40--------------40---|------40--------------40---|------40--------------40---|
C|-47-------47------47--47---|-47-------47------47--47---|-47-------47------47--47---|
C|---------------------------|---------------------------|---------------------------|


C|-49---49--------------------------|-44------44------44----------44--|-44---44------44------49---|
C|----------------------------------|-----------------------------49--|---------------------------|
C|----------------------------------|---------------------------------|---------------------------|
C|------40------4040---40--4040-----|---------40----------40----------|------40--------------40---|
C|-47-------47---------47-----------|-47--47------47------47--47--47--|-47-------47------47--47---|
C|----------------------------------|---------------------------------|---------------------------|


C|-44------44------44----------44--|-44---44------44------49---|-44------44------44----------44--|
C|-----------------------------49--|---------------------------|-----------------------------49--|
C|---------------------------------|---------------------------|---------------------------------|
C|---------40----------40----------|------40--------------40---|---------40----------40----------|
C|-47--47------47------47--47--47--|-47-------47------47--47---|-47--47------47------47--47--47--|
C|---------------------------------|---------------------------|---------------------------------|


C|-44---44-------------49--57--49--|-44---44-----------44---|---------44-------49------49--|
C|---------------------------------|------------------------|------------------------------|
C|---------------------------------|------40-----------40---|---------40-----------40------|
C|------40------4040---47--47--47--|-47--------47--47-------|-47--47-------47--47--47--47--|
C|-47------------------------------|------------------------|------------------------------|
C|---------------------------------|------------------------|------------------------------|


C|-44---44------44---44------|-44---44---------------------49--|-44---44------44---44------|
C|---------------------------|---------------------------------|---------------------------|
C|---------------------------|---------------------------------|---------------------------|
C|------40-----------40------|------40----------4040---40------|------40-----------40------|
C|-47-------47--47-------47--|-47-------47--47---------47--47--|-47-------47--47-------47--|
C|---------------------------|---------------------------------|---------------------------|


C|-44---44------44---44------|-44---44------44---44------|-44-----------44---44---|
C|---------------------------|---------------------------|------------------------|
C|---------------------------|---------------------------|------------------------|
C|------40-----------40------|------40-----------40------|------40------40---40---|
C|-47-------47--47-------47--|-47-------47--47-------47--|-47-----------47---47---|
C|---------------------------|---------------------------|------------------------|


C|---------------------------------|----------------------------------|-57----------------------------|
C|---------------------------------|----------------------------------|-------------------------------|
C|-57------------------------------|----------------------------------|-40----------------------------|
C|-43--43--43--43--43--43--43--43--|-43--43--43--43--43--43--4040-----|-47---47---43--43-43-43-43--47-|
C|-47--47--47--47--47--47--47--47--|-47--47--47--47--47--47-----------|-------------------------------|
C|---------------------------------|----------------------------------|-------------------------------|


C|---------------------------------|----------------------------------|-------------------------------|
C|---------------------------------|----------------------------------|-------------------------------|
C|---------------------60----60-60-|-60-------------------------------|-------------------------------|
C|-43---47---43--43-43-43-43----47-|-----43--47---43--43-43-43-43--47-|-43---47---43--43-43-43-43--47-|
C|---------------------------------|----------------------------------|-------------------------------|
C|---------------------------------|----------------------------------|-------------------------------|


C|-------------------------------|-------------------------------|-------------------------------|
C|-------------------------------|-------------------------------|-------------------------------|
C|-------------------------------|-------------------------------|-------------------------------|
C|-43---47---43--43-43-43-43--47-|-43---47---43--43-43-43-43--47-|-43---47---43--43-43-43-43--47-|
C|-------------------------------|-------------------------------|-------------------------------|
C|-------------------------------|-------------------------------|-------------------------------|


C|-------------------------------|-49----------------------------|-------------------------------|
C|-------------------------------|-------------------------------|-------------------------------|
C|-------------------------------|-40----------------------------|-------------------------------|
C|-43---47---43--43-43-43-43--47-|-43---47---43--43-43-43-43--47-|-43---47---43--43-43-43-43--47-|
C|-------------------------------|-------------------------------|-------------------------------|
C|-------------------------------|-------------------------------|-------------------------------|


C|-------------------------------|-------------------------------|-------------------------------|
C|-------------------------------|-------------------------------|-------------------------------|
C|-------------------------------|-------------------------------|-------------------------------|
C|-43---47---43--43-43-43-43--47-|-43---47---43--43-43-43-43--47-|-43---47---43--43-43-43-43--47-|
C|-------------------------------|-------------------------------|-------------------------------|
C|-------------------------------|-------------------------------|-------------------------------|


C|-------------------------------|---------------------|------------------------|------44---44------44------|
C|-------------------------------|-49---49---49---49---|-49---49---57-----------|---------------------------|
C|-------------------------------|---------------------|----------------40------|---------------------------|
C|-43---47---43--43-43-43-43--47-|-43---47---43---47---|-43---47---43-------47--|-49------------------------|
C|-------------------------------|---------------------|------------------------|-47--------47--47------47--|
C|-------------------------------|---------------------|------------------------|---------------------------|


C|------44---44------44--------|---------------------------|---------------------------|
C|-----------------------------|---------------------------|---------------------------|
C|-----------------------------|---------------------------|---------------------------|
C|-49----------------40--40-40-|------40-----------40------|------40-----------40------|
C|-47--------47--47--47--------|-47-------47--47---47--47--|-47-------47--47---47--47--|
C|-----------------------------|---------------------------|---------------------------|


C|------44---44------44------|------44---44------44--------|---------------------------|
C|---------------------------|-----------------------------|---------------------------|
C|---------------------------|-----------------------------|---------------------------|
C|-49------------------------|-49----------------40--40-40-|------40-----------40------|
C|-47--------47--47------47--|-47--------47--47--47--------|-47-------47--47---47--47--|
C|---------------------------|-----------------------------|---------------------------|


C|---------------------------|------44---44------44------|------44---44------44--------|
C|---------------------------|---------------------------|-----------------------------|
C|---------------------------|---------------------------|-----------------------------|
C|------40-----------40------|-49------------------------|-49----------------40--40-40-|
C|-47-------47--47---47--47--|-47--------47--47------47--|-47--------47--47--47--------|
C|---------------------------|---------------------------|-----------------------------|


C|---------------------------|---------------------------|------44---44------44------|
C|---------------------------|---------------------------|---------------------------|
C|---------------------------|---------------------------|---------------------------|
C|------40-----------40------|------40-----------40------|-49------------------------|
C|-47-------47--47---47--47--|-47-------47--47---47--47--|-47--------47--47------47--|
C|---------------------------|---------------------------|---------------------------|


C|------44---44------44--------|-57---57---57---57---57--57--|-57---57---57-----------52---|
C|-----------------------------|-----------------------------|------------------------57---|
C|-----------------------------|-----------------------------|-----------------------------|
C|-49----------------40--40-40-|-40---40---40---40---40--40--|-40---40---40--4040----------|
C|-47--------47--47--47--------|-47---47---47---47---47--47--|-47---47---47-----------47---|
C|-----------------------------|-----------------------------|-----------------------------|


C|-52--52--52--52--52--52--52--52--|-52--52--52--52--52--52--52--52--|-52--52--52--52--52--52--52--52--|
C|---------------------------------|---------------------------------|---------------------------------|
C|---------------------------------|---------------------------------|---------------------------------|
C|---------------------------------|---------------------------------|---------------------------------|
C|-47--47--47--47--47--47--47--47--|-47--47--47--47--47--47--47--47--|-47--47--47--47--47--47--47--47--|
C|---------------------------------|---------------------------------|---------------------------------|


C|-52--52--52--52--52--52--52--52--|-52--52--49---------|-44---44---44---44---|-54-54-40-54-40-40-40-40-40-40-40-38-40-38-38-38-|
C|---------------------------------|--------------------|---------------------|-------------------------------------------------|
C|---------------------------------|--------------------|---------------------|-------------------------------------------------|
C|---------------------------------|--------------------|---------------------|-------------------------------------------------|
C|-47--47--47--47--47--47--47--47--|-47--47--47---------|---------------------|-47-47-47-47-47-47-43-43-43-47-47-47-47-47-43-43-|
C|---------------------------------|--------------------|---------------------|-------------------------------------------------|


C|-38-38----38-38----57--------|
C|-------------------49--------|
C|-----------------------------|
C|-----------------------------|
C|-47-47-47-43-43-43-47--------|
C|-----------------------------|



← Back to top