Starwest

by Hollywood ***stars

Guitar Pro Tab  |  v4.06  |  Posted on March 29, 2007, 11:06 a.m. ← Back

Guitar Pro Tab Summary

Album

year of the tiger

Song Author

Hollywood Pornstars

Tabbed by

Ben

Instruments

1st → anthony
2nd → bencussions
3rd → redboy2
4th → guitar fill
5th → erice 4

File Size

22 KB

Views

2,982

Notice

la meilleure chanson de HPS !!! enfin tabl´┐Że Paroles : She goes that way Cause she's scared Since the day That he's gone by Left her there Tied to a chair She cries for help Could she know which way to go What the hell What a time To prepare A cold revenge Depraved and get Away from here Cause she rests off, in peace For days or months or years She'll be straight down An martyrdom






Tablature Sheet

Title: Starwest
Artist: Hollywood ***stars
Album: year of the tiger
Author: Hollywood Pornstars






Track 1: anthony
Back to top
E|-5-----5----5---5---|-5---5---5---5---5---5---5---5---|-5-----5----5---5---|-5---5---5---5---5---5---5---5---|
B|-6-----6----6---6---|-6---6---6---6---6---6---6---6---|-6-----6----6---6---|-6---6---6---6---6---6---6---6---|
G|-7-----7----7---7---|-7---7---7---7---7---7---7---7---|-7-----7----7---7---|-7---7---7---7---7---7---7---7---|
D|-7-----7----7---7---|-7---7---7---7---7---7---7---7---|-7-----7----7---7---|-7---7---7---7---7---7---7---7---|
A|-5-----5----5---5---|-5---5---5---5---5---5---5---5---|-5-----5----5---5---|-5---5---5---5---5---5---5---5---|
E|--------------------|---------------------------------|--------------------|---------------------------------|


E|-5-----5----5---5---|-5---5---5---5---5---5---5---5---|-5-----5----5---5---|-5---5---5---5---5---5---5---5---|
B|-5-----5----5---5---|-5---5---5---5---5---5---5---5---|-5-----5----5---5---|-5---5---5---5---5---5---5---5---|
G|-6-----6----6---6---|-6---6---6---6---6---6---6---6---|-6-----6----6---6---|-6---6---6---6---6---6---6---6---|
D|-7-----7----7---7---|-7---7---7---7---7---7---7---7---|-7-----7----7---7---|-7---7---7---7---7---7---7---7---|
A|-7-----7----7---7---|-7---7---7---7---7---7---7---7---|-7-----7----7---7---|-7---7---7---7---7---7---7---7---|
E|-5-----5----5---5---|-5---5---5---5---5---5---5---5---|-5-----5----5---5---|-5---5---5---5---5---5---5---5---|


E|-3-----3----3---3---|-3---3---3---3---3---3---3---3---|-6-----6----6---6---|-6---6---6---6---6---6---6---6---|
B|-3-----3----3---3---|-3---3---3---3---3---3---3---3---|-6-----6----6---6---|-6---6---6---6---6---6---6---6---|
G|-3-----3----3---3---|-3---3---3---3---3---3---3---3---|-7-----7----7---7---|-7---7---7---7---7---7---7---7---|
D|-5-----5----5---5---|-5---5---5---5---5---5---5---5---|-8-----8----8---8---|-8---8---8---8---8---8---8---8---|
A|-5-----5----5---5---|-5---5---5---5---5---5---5---5---|-8-----8----8---8---|-8---8---8---8---8---8---8---8---|
E|-3-----3----3---3---|-3---3---3---3---3---3---3---3---|-6-----6----6---6---|-6---6---6---6---6---6---6---6---|


E|-5-----5----5---5---|-5---5---5---5---5---5---5---5---|-5-----5----5---5---|-5---5---5---5---5---5---5---5---|
B|-6-----6----6---6---|-6---6---6---6---6---6---6---6---|-6-----6----6---6---|-6---6---6---6---6---6---6---6---|
G|-7-----7----7---7---|-7---7---7---7---7---7---7---7---|-7-----7----7---7---|-7---7---7---7---7---7---7---7---|
D|-7-----7----7---7---|-7---7---7---7---7---7---7---7---|-7-----7----7---7---|-7---7---7---7---7---7---7---7---|
A|-5-----5----5---5---|-5---5---5---5---5---5---5---5---|-5-----5----5---5---|-5---5---5---5---5---5---5---5---|
E|--------------------|---------------------------------|--------------------|---------------------------------|


E|-5-----5----5---5---|-5---5---5---5---5---5---5---5---|-5-----5----5---5---|-5---5---5---5---5---5---5---5---|
B|-5-----5----5---5---|-5---5---5---5---5---5---5---5---|-5-----5----5---5---|-5---5---5---5---5---5---5---5---|
G|-6-----6----6---6---|-6---6---6---6---6---6---6---6---|-6-----6----6---6---|-6---6---6---6---6---6---6---6---|
D|-7-----7----7---7---|-7---7---7---7---7---7---7---7---|-7-----7----7---7---|-7---7---7---7---7---7---7---7---|
A|-7-----7----7---7---|-7---7---7---7---7---7---7---7---|-7-----7----7---7---|-7---7---7---7---7---7---7---7---|
E|-5-----5----5---5---|-5---5---5---5---5---5---5---5---|-5-----5----5---5---|-5---5---5---5---5---5---5---5---|


E|-3-----3----3---3---|-3---3---3---3---3---3---3---3---|-6-----6----6---6---|-6---6---6---6---6---6---6---6---|
B|-3-----3----3---3---|-3---3---3---3---3---3---3---3---|-6-----6----6---6---|-6---6---6---6---6---6---6---6---|
G|-3-----3----3---3---|-3---3---3---3---3---3---3---3---|-7-----7----7---7---|-7---7---7---7---7---7---7---7---|
D|-5-----5----5---5---|-5---5---5---5---5---5---5---5---|-8-----8----8---8---|-8---8---8---8---8---8---8---8---|
A|-5-----5----5---5---|-5---5---5---5---5---5---5---5---|-8-----8----8---8---|-8---8---8---8---8---8---8---8---|
E|-3-----3----3---3---|-3---3---3---3---3---3---3---3---|-6-----6----6---6---|-6---6---6---6---6---6---6---6---|


E|-5-----5----5---5---|-5---5---5---5---5---5---5---5---|-5-----5----5---5---|-5---5---5---5---5---5---5---5---|
B|-6-----6----6---6---|-6---6---6---6---6---6---6---6---|-6-----6----6---6---|-6---6---6---6---6---6---6---6---|
G|-7-----7----7---7---|-7---7---7---7---7---7---7---7---|-7-----7----7---7---|-7---7---7---7---7---7---7---7---|
D|-7-----7----7---7---|-7---7---7---7---7---7---7---7---|-7-----7----7---7---|-7---7---7---7---7---7---7---7---|
A|-5-----5----5---5---|-5---5---5---5---5---5---5---5---|-5-----5----5---5---|-5---5---5---5---5---5---5---5---|
E|--------------------|---------------------------------|--------------------|---------------------------------|


E|-5-----5----5---5---|-5---5---5---5---5---5---5---5---|-5-----5----5---5---|-5---5---5---5---5---5---5---5---|
B|-5-----5----5---5---|-5---5---5---5---5---5---5---5---|-5-----5----5---5---|-5---5---5---5---5---5---5---5---|
G|-6-----6----6---6---|-6---6---6---6---6---6---6---6---|-6-----6----6---6---|-6---6---6---6---6---6---6---6---|
D|-7-----7----7---7---|-7---7---7---7---7---7---7---7---|-7-----7----7---7---|-7---7---7---7---7---7---7---7---|
A|-7-----7----7---7---|-7---7---7---7---7---7---7---7---|-7-----7----7---7---|-7---7---7---7---7---7---7---7---|
E|-5-----5----5---5---|-5---5---5---5---5---5---5---5---|-5-----5----5---5---|-5---5---5---5---5---5---5---5---|


E|-3-----3----3---3---|-3---3---3---3---3---3---3---3---|-6-----6----6---6---|-6---6---6---6---6---6---6---6---|
B|-3-----3----3---3---|-3---3---3---3---3---3---3---3---|-6-----6----6---6---|-6---6---6---6---6---6---6---6---|
G|-3-----3----3---3---|-3---3---3---3---3---3---3---3---|-7-----7----7---7---|-7---7---7---7---7---7---7---7---|
D|-5-----5----5---5---|-5---5---5---5---5---5---5---5---|-8-----8----8---8---|-8---8---8---8---8---8---8---8---|
A|-5-----5----5---5---|-5---5---5---5---5---5---5---5---|-8-----8----8---8---|-8---8---8---8---8---8---8---8---|
E|-3-----3----3---3---|-3---3---3---3---3---3---3---3---|-6-----6----6---6---|-6---6---6---6---6---6---6---6---|


E|-5-----5----5---5---|-5---5---5---5---5---5---5---5---|-5-----5----5---5---|-5---5---5---5---5---5---5---5---|
B|-6-----6----6---6---|-6---6---6---6---6---6---6---6---|-6-----6----6---6---|-6---6---6---6---6---6---6---6---|
G|-7-----7----7---7---|-7---7---7---7---7---7---7---7---|-7-----7----7---7---|-7---7---7---7---7---7---7---7---|
D|-7-----7----7---7---|-7---7---7---7---7---7---7---7---|-7-----7----7---7---|-7---7---7---7---7---7---7---7---|
A|-5-----5----5---5---|-5---5---5---5---5---5---5---5---|-5-----5----5---5---|-5---5---5---5---5---5---5---5---|
E|--------------------|---------------------------------|--------------------|---------------------------------|


E|-5-----5----5---5---|-5---5---5---5---5---5---5---5---|-5-----5----5---5---|-5---5---5---5---5---5---5---5---|
B|-5-----5----5---5---|-5---5---5---5---5---5---5---5---|-5-----5----5---5---|-5---5---5---5---5---5---5---5---|
G|-6-----6----6---6---|-6---6---6---6---6---6---6---6---|-6-----6----6---6---|-6---6---6---6---6---6---6---6---|
D|-7-----7----7---7---|-7---7---7---7---7---7---7---7---|-7-----7----7---7---|-7---7---7---7---7---7---7---7---|
A|-7-----7----7---7---|-7---7---7---7---7---7---7---7---|-7-----7----7---7---|-7---7---7---7---7---7---7---7---|
E|-5-----5----5---5---|-5---5---5---5---5---5---5---5---|-5-----5----5---5---|-5---5---5---5---5---5---5---5---|


E|-3-----3----3---3---|-3---3---3---3---3---3---3---3---|-6-----6----6---6---|-6---6---6---6---6---6---6---6---|
B|-3-----3----3---3---|-3---3---3---3---3---3---3---3---|-6-----6----6---6---|-6---6---6---6---6---6---6---6---|
G|-3-----3----3---3---|-3---3---3---3---3---3---3---3---|-7-----7----7---7---|-7---7---7---7---7---7---7---7---|
D|-5-----5----5---5---|-5---5---5---5---5---5---5---5---|-8-----8----8---8---|-8---8---8---8---8---8---8---8---|
A|-5-----5----5---5---|-5---5---5---5---5---5---5---5---|-8-----8----8---8---|-8---8---8---8---8---8---8---8---|
E|-3-----3----3---3---|-3---3---3---3---3---3---3---3---|-6-----6----6---6---|-6---6---6---6---6---6---6---6---|


E|---------------------------|---------------------------|---------------------------|
B|---------------------------|---------------------------|---------------------------|
G|-7----7----0---0---7---7---|-7----7----0---0---7---7---|-7----7----0---0---7---7---|
D|-7----7----0---0---7---7---|-7----7----0---0---7---7---|-7----7----0---0---7---7---|
A|-5----5----0---0---5---5---|-5----5----0---0---5---5---|-5----5----0---0---5---5---|
E|---------------------------|---------------------------|---------------------------|


E|---------------------------|---------------------------|---------------------------|
B|---------------------------|---------------------------|---------------------------|
G|-7----7----0---0---7---7---|---------------------------|---------------------------|
D|-7----7----0---0---7---7---|-7----7----0---0---0---7---|-7----7----0---0---0---7---|
A|-5----5----0---0---5---5---|-7----7----0---0---0---7---|-7----7----0---0---0---7---|
E|---------------------------|-5----5----0---0---0---5---|-5----5----0---0---0---5---|


E|---------------------------|---------------------------|---------------------------|
B|---------------------------|---------------------------|---------------------------|
G|---------------------------|---------------------------|---------------------------|
D|-7----7----0---0---0---7---|-7----7----0---0---0---7---|-5----5----0---0---0---5---|
A|-7----7----0---0---0---7---|-7----7----0---0---0---7---|-5----5----0---0---0---5---|
E|-5----5----0---0---0---5---|-5----5----0---0---0---5---|-3----3----0---0---0---3---|


E|---------------------------|---------------------------|---------------------------|
B|---------------------------|---------------------------|---------------------------|
G|---------------------------|---------------------------|---------------------------|
D|-5----5----0---0---0---5---|-8----8----0---0---0---8---|-8----8----0---0---0---8---|
A|-5----5----0---0---0---5---|-8----8----0---0---0---8---|-8----8----0---0---0---8---|
E|-3----3----0---0---0---3---|-6----6----0---0---0---6---|-6----6----0---0---0---6---|


E|-5---5---0---5---5---5---0---5---|-5---5---0---5---5---5---0---5---|-5---5---0---5---5---5---0---5---|
B|-6---6---0---6---6---6---0---6---|-6---6---0---6---6---6---0---6---|-6---6---0---6---6---6---0---6---|
G|-7---7---0---7---7---7---0---7---|-7---7---0---7---7---7---0---7---|-7---7---0---7---7---7---0---7---|
D|-7---7---0---7---7---7---0---7---|-7---7---0---7---7---7---0---7---|-7---7---0---7---7---7---0---7---|
A|---------------------------------|---------------------------------|---------------------------------|
E|---------------------------------|---------------------------------|---------------------------------|


E|-5---5---0---5---5---5---0-------|---------------------------------|---------------------------------|
B|-6---6---0---6---6---6---0-------|---------------------------------|---------------------------------|
G|-7---7---0---7---7---7---0-------|-7---7---0---7---7---7---0---7---|-9---9---0---9---9---9---0---9---|
D|-7---7---0---7---7---7---0-------|-7---7---0---7---7---7---0---7---|-9---9---0---9---9---9---0---9---|
A|---------------------------------|-5---5---0---5---5---5---0---5---|-7---7---0---7---7---7---0---7---|
E|---------------------------------|---------------------------------|---------------------------------|


E|---------------------------------|---------------------------------|---------------------------------|
B|---------------------------------|---------------------------------|---------------------------------|
G|-10--10--0---10--10--10--0---10--|-7---7---0---7---7---7---0---7---|-12--12------12--12--12------12--|
D|-10--10--0---10--10--10--0---10--|-7---7---0---7---7---7---0---7---|-12--12--0---12--12--12--0---12--|
A|-8---8---0---8---8---8---0---8---|-5---5---0---5---5---5---0---5---|-10--10--0---10--10--10--0---10--|
E|---------------------------------|---------------------------------|---------------------------------|


E|---------------------------------|--------|--------|-5---5---0---5---5---5---0---5---|
B|---------------------------------|--------|--------|-6---6---0---6---6---6---0---6---|
G|-5---5---0---5---5---5---5---5---|--------|--------|-7---7---0---7---7---7---0---7---|
D|-5---5---0---5---5---5---0---5---|--------|--------|-7---7-------7---7---7-------7---|
A|-3---3---0---3---3---3---0---3---|--------|--------|-5---5-------5---5---5-------5---|
E|---------------------------------|--------|--------|---------------------------------|


E|-5---5---0---5---5---5---0---5---|---------------------------------|---------------------------------|
B|-6---6---0---6---6---6---0---6---|---------------------------------|---------------------------------|
G|-7---7---0---7---7---7---0---7---|-7---7---0---0---9---9---0---0---|-10--10--0---0---7---7---0---0---|
D|-7---7-------7---7---7-------7---|-7---7---0---0---9---9---0---0---|-10--10--0---0---7---7---0---0---|
A|-5---5-------5---5---5-------5---|-5---5---0---0---7---7---0---0---|-8---8---0---0---5---5---0---0---|
E|---------------------------------|---------------------------------|---------------------------------|


E|---------------------------------|---------------------------------|---------------------------------|
B|---------------------------------|---------------------------------|---------------------------------|
G|-12--12--0---0---5---5---0---0---|-7---7-----------9---9-----------|-10--10----------7---7-----------|
D|-12--12--0---0---5---5---0---0---|-7---7-----------9---9-----------|-10--10----------7---7-----------|
A|-10--10--0---0---3---3---0---0---|-5---5-----------7---7-----------|-8---8-----------5---5-----------|
E|---------------------------------|---------------------------------|---------------------------------|


E|---------------------------------|---------------------------------|---------------------------------|
B|---------------------------------|---------------------------------|---------------------------------|
G|-12--12----------5---5-----------|-7---7---7---7---7---7---7---7---|-7---7---7---7---7---7---7---7---|
D|-12--12----------5---5-----------|---------------------------------|---------------------------------|
A|-10--10----------3---3-----------|-5---5---5---5---5---5---5---5---|-5---5---5---5---5---5---5---5---|
E|---------------------------------|---------------------------------|---------------------------------|


E|--------------------|
B|--------------------|
G|-7----0-------------|
D|--------------------|
A|-5----0-------------|
E|--------------------|









Track 2: redboy
Back to top
E|---------------------|--------|--------|--------|---------------------|--------|
B|---------------------|--------|--------|--------|---------------------|--------|
G|---------------------|--------|--------|--------|---------------------|--------|
D|-----------7----7----|-7------|--------|--------|-----------7----7----|-7------|
A|-5----8--------------|--------|--------|--------|-4----7--------------|--------|
E|---------------------|--------|--------|--------|---------------------|--------|


E|--------|--------|---------------------|--------|---------------------|--------|
B|--------|--------|---------------------|--------|---------------------|--------|
G|--------|--------|---------------------|--------|---------------------|--------|
D|--------|--------|-----------5----5----|-5------|-0----3----3----5----|-7------|
A|--------|--------|-1----5--------------|--------|---------------------|--------|
E|--------|--------|---------------------|--------|---------------------|--------|


E|---------------------|--------|--------|--------|---------------------|--------|
B|---------------------|--------|--------|--------|---------------------|--------|
G|---------------------|--------|--------|--------|---------------------|--------|
D|-----------7----7----|-7------|--------|--------|-----------7----7----|-7------|
A|-5----8--------------|--------|--------|--------|-4----7--------------|--------|
E|---------------------|--------|--------|--------|---------------------|--------|


E|--------|--------|---------------------|--------|---------------------|--------|
B|--------|--------|---------------------|--------|---------------------|--------|
G|--------|--------|---------------------|--------|---------------------|--------|
D|--------|--------|-----------5----5----|-5------|-0----3----3----5----|-7------|
A|--------|--------|-1----5--------------|--------|---------------------|--------|
E|--------|--------|---------------------|--------|---------------------|--------|


E|---------------------|--------|--------|--------|---------------------|--------|
B|---------------------|--------|--------|--------|---------------------|--------|
G|---------------------|--------|--------|--------|---------------------|--------|
D|-----------7----7----|-7------|--------|--------|-----------7----7----|-7------|
A|-5----8--------------|--------|--------|--------|-4----7--------------|--------|
E|---------------------|--------|--------|--------|---------------------|--------|


E|--------|--------|---------------------|--------|---------------------|--------|
B|--------|--------|---------------------|--------|---------------------|--------|
G|--------|--------|---------------------|--------|---------------------|--------|
D|--------|--------|-----------5----5----|-5------|-0----3----3----5----|-7------|
A|--------|--------|-1----5--------------|--------|---------------------|--------|
E|--------|--------|---------------------|--------|---------------------|--------|


E|---------------------|--------|--------|--------|---------------------|--------|
B|---------------------|--------|--------|--------|---------------------|--------|
G|---------------------|--------|--------|--------|---------------------|--------|
D|-----------7----7----|-7------|--------|--------|-----------7----7----|-7------|
A|-5----8--------------|--------|--------|--------|-4----7--------------|--------|
E|---------------------|--------|--------|--------|---------------------|--------|


E|--------|--------|---------------------|--------|---------------------|--------|
B|--------|--------|---------------------|--------|---------------------|--------|
G|--------|--------|---------------------|--------|---------------------|--------|
D|--------|--------|-----------5----5----|-5------|-0----3----3----5----|-7------|
A|--------|--------|-1----5--------------|--------|---------------------|--------|
E|--------|--------|---------------------|--------|---------------------|--------|


E|-5---5---5---5---5---5---5---5---|-5---5---5---5---5---5---5---5---|-5---5---5---5---5---5---5---5---|
B|-6---6---6---6---6---6---6---6---|-6---6---6---6---6---6---6---6---|-5---5---5---5---5---5---5---5---|
G|-7---7---7---7---7---7---7---7---|-7---7---7---7---7---7---7---7---|-7---7---7---7---7---7---7---7---|
D|---------------------------------|---------------------------------|---------------------------------|
A|---------------------------------|---------------------------------|---------------------------------|
E|---------------------------------|---------------------------------|---------------------------------|


E|-5---5---5---5---5---5---5---5---|-5---5---5---5---5---5---5---5---|-5---5---5---5---5---5---5---5---|
B|-6---6---6---6---6---6---6---6---|-5---5---5---5---5---5---5---5---|-5---5---5---5---5---5---5---5---|
G|-7---7---7---7---7---7---7---7---|-6---6---6---6---6---6---6---6---|-6---6---6---6---6---6---6---6---|
D|---------------------------------|---------------------------------|---------------------------------|
A|---------------------------------|---------------------------------|---------------------------------|
E|---------------------------------|---------------------------------|---------------------------------|


E|-5---5---5---5---5---5---5---5---|-5---5---5---5---5---5---5---5---|-3---3---3---3---3---3---3---3---|
B|-5---5---5---5---5---5---5---5---|-5---5---5---5---5---5---5---5---|-3---3---3---3---3---3---3---3---|
G|-6---6---6---6---6---6---6---6---|-6---6---6---6---6---6---6---6---|-3---3---3---3---3---3---3---3---|
D|---------------------------------|---------------------------------|---------------------------------|
A|---------------------------------|---------------------------------|---------------------------------|
E|---------------------------------|---------------------------------|---------------------------------|


E|-3---3---3---3---3---3---3---3---|-6---6---6---6---6---6---6---6---|-6---6---6---6---6---6---6---6---|
B|-3---3---3---3---3---3---3---3---|-6---6---6---6---6---6---6---6---|-6---6---6---6---6---6---6---6---|
G|-3---3---3---3---3---3---3---3---|-7---7---7---7---7---7---7---7---|-7---7---7---7---7---7---7---7---|
D|---------------------------------|---------------------------------|---------------------------------|
A|---------------------------------|---------------------------------|---------------------------------|
E|---------------------------------|---------------------------------|---------------------------------|


E|--------|--------|--------|--------|-5---5---0---5---5---5---5---5---|-5---5-------5---5---5-------5---|
B|--------|--------|--------|--------|-6---6---0---6---6---6---6---6---|-5---5---0---5---5---5---0---5---|
G|--------|--------|--------|--------|-7---7---0---7---7---7---7---7---|-4---4---0---4---4---4---0---4---|
D|--------|--------|--------|--------|---------------------------------|---------------------------------|
A|--------|--------|--------|--------|---------------------------------|---------------------------------|
E|--------|--------|--------|--------|---------------------------------|---------------------------------|


E|-5---5---0---5---5---5---5---5---|--------|-6---6---0---6---6---6---0---6---|-6---6---0---6---6---6---0---6---|
B|-6---6---0---6---6---6---6---6---|--------|-8---8---0---8---8---8---0---8---|-8---8---0---8---8---8---0---8---|
G|-7---7---0---7---7---7---7---7---|--------|-7---7---0---7---7---7---0---7---|-7---7---0---7---7---7---0---7---|
D|---------------------------------|--------|---------------------------------|---------------------------------|
A|---------------------------------|--------|---------------------------------|---------------------------------|
E|---------------------------------|--------|---------------------------------|---------------------------------|


E|-5---5---0---5---5---5---0---5---|-5---5---0---5---5---5---0---5---|-5---5---0---5---5---5---0---5---|
B|-6---6---0---6---6---6---0---6---|-6---6---0---6---6---6---0---6---|-6---6---0---6---6---6---0---6---|
G|-7---7---0---7---7---7---0---7---|-7---7---0---7---7---7---0---7---|-7---7---0---7---7---7---0---7---|
D|---------------------------------|---------------------------------|---------------------------------|
A|---------------------------------|---------------------------------|---------------------------------|
E|---------------------------------|---------------------------------|---------------------------------|


E|-5---5---0---5---5---5---0---5---|-5---5---0---0---5---5---0---5---|-5---5---0---0---0---0---0---0---|
B|-6---6---0---6---6---6---0---6---|-6---6---0---0---5---5---0---0---|-6---6---0---0---0---0---0---0---|
G|-7---7---0---7---7---7---0---7---|-7---7---0---0---4---4---0---0---|-7---7---0---0---0---0---0---0---|
D|---------------------------------|---------------------------------|---------------------------------|
A|---------------------------------|---------------------------------|---------------------------------|
E|---------------------------------|---------------------------------|---------------------------------|


E|-6---6---0---0---6---6---0---0---|-5---5---0---0---5---5---0---5---|-5---5---0---0---0---0---0---0---|
B|-8---8---0---0---8---8---0---0---|-6---6---0---0---5---5---0---0---|-6---6---0---0---0---0---0---0---|
G|-7---7---0---0---7---7---0---0---|-7---7---0---0---4---4---0---0---|-7---7---0---0---0---0---0---0---|
D|---------------------------------|---------------------------------|---------------------------------|
A|---------------------------------|---------------------------------|---------------------------------|
E|---------------------------------|---------------------------------|---------------------------------|


E|-6---6---0---0---6---6---0---0---|---------------------------------|---------------------------------|
B|-8---8---0---0---8---8---0---0---|---------------------------------|---------------------------------|
G|-7---7---0---0---7---7---0---0---|-7---7---7---7---7---7---7---7---|-7---7---7---7---7---7---7---7---|
D|---------------------------------|---------------------------------|---------------------------------|
A|---------------------------------|-5---5---5---5---5---5---5---5---|-5---5---5---5---5---5---5---5---|
E|---------------------------------|---------------------------------|---------------------------------|


E|--------------------|
B|--------------------|
G|-7----0-------------|
D|--------------------|
A|-5----0-------------|
E|--------------------|









Track 3: ben
Back to top
C|-57------------------------------|---------------------------------|---------------------------------|
C|---------------------------------|---------------------------------|---------------------------------|
C|-----------------40--------------|-----------------40--------------|-----------------40--------------|
C|---------------------------------|---------------------------------|---------------------------------|
C|---------------------------------|---------------------------------|---------------------------------|
C|---------44------44------44------|-44------44------44------44------|-44------44------44------44------|


C|-----------------------------57--|-49------------------------------|---------------------------------|
C|---------------------------------|---------------------------------|---------------------------------|
C|-----------------40--------------|-----------------40--------------|-----------------40--------------|
C|---------------------------------|---------------------------------|---------------------------------|
C|---------------------------------|---------------------------------|---------------------------------|
C|-44------44------44------44------|-44------44------44------44------|-44------44------44------44------|


C|---------------------------------|-----------------------------49--|-55------------------------------|
C|---------------------------------|---------------------------------|---------------------------------|
C|-----------------40--------------|-----------------40--------------|-----------------40--------------|
C|---------------------------------|---------------------------------|---------------------------------|
C|---------------------------------|---------------------------------|---------------------------------|
C|-44------44------44------44------|-44------44------44------44------|-44------44------44------44------|


C|---------------------------------|---------------------------------|-----------------------------55--|
C|---------------------------------|---------------------------------|---------------------------------|
C|-----------------40--------------|-----------------40--------------|-----------------40--------------|
C|---------------------------------|---------------------------------|---------------------------------|
C|---------------------------------|---------------------------------|---------------------------------|
C|-44------44------44------44------|-44------44------44------44------|-44------44------44------44------|


C|-57------------------------------|---------------------------------|---------------------------------|
C|---------------------------------|---------------------------------|---------------------------------|
C|-----------------40--------------|-----------------40--------------|-----------------40--------------|
C|---------------------------------|---------------------------------|---------------------------------|
C|---------------------------------|---------------------------------|---------------------------------|
C|---------44------44------44------|-44------44------44------44------|-44------44------44------44------|


C|-----------------------------57--|-49------------------------------|---------------------------------|
C|---------------------------------|---------------------------------|---------------------------------|
C|-----------------40--------------|-----------------40--------------|-----------------40--------------|
C|---------------------------------|---------------------------------|---------------------------------|
C|---------------------------------|---------------------------------|---------------------------------|
C|-44------44------44------44------|-44------44------44------44------|-44------44------44------44------|


C|---------------------------------|-----------------------------49--|-55------------------------------|
C|---------------------------------|---------------------------------|---------------------------------|
C|-----------------40--------------|-----------------40--------------|-----------------40--------------|
C|---------------------------------|---------------------------------|---------------------------------|
C|---------------------------------|---------------------------------|---------------------------------|
C|-44------44------44------44------|-44------44------44------44------|-44------44------44------44------|


C|---------------------------------|---------------------------------|-----------------------------55--|
C|---------------------------------|---------------------------------|---------------------------------|
C|-----------------40--------------|-----------------40--------------|-----------------40--------------|
C|---------------------------------|---------------------------------|---------------------------------|
C|---------------------------------|---------------------------------|---------------------------------|
C|-44------44------44------44------|-44------44------44------44------|-44------44------44------44------|


C|-57------------------------------|---------------------------------|---------------------------------|
C|---------------------------------|---------------------------------|---------------------------------|
C|-----------------40--------------|-----------------40--------------|-----------------40--------------|
C|---------------------------------|---------------------------------|---------------------------------|
C|---------------------------------|---------------------------------|---------------------------------|
C|---------44------44------44------|-44------44------44------44------|-44------44------44------44------|


C|-----------------------------57--|-49------------------------------|---------------------------------|
C|---------------------------------|---------------------------------|---------------------------------|
C|-----------------40--------------|-----------------40--------------|-----------------40--------------|
C|---------------------------------|---------------------------------|---------------------------------|
C|---------------------------------|---------------------------------|---------------------------------|
C|-44------44------44------44------|-44------44------44------44------|-44------44------44------44------|


C|---------------------------------|-----------------------------49--|-55------------------------------|
C|---------------------------------|---------------------------------|---------------------------------|
C|-----------------40--------------|-----------------40--------------|-----------------40--------------|
C|---------------------------------|---------------------------------|---------------------------------|
C|---------------------------------|---------------------------------|---------------------------------|
C|-44------44------44------44------|-44------44------44------44------|-44------44------44------44------|


C|---------------------------------|---------------------------------|-----------------------------55--|
C|---------------------------------|---------------------------------|---------------------------------|
C|-----------------40--------------|-----------------40--------------|-----------------40--------------|
C|---------------------------------|---------------------------------|---------------------------------|
C|---------------------------------|---------------------------------|---------------------------------|
C|-44------44------44------44------|-44------44------44------44------|-44------44------44------44------|


C|-57------------------------------|---------------------------------|---------------------------------|
C|---------------------------------|---------------------------------|---------------------------------|
C|-----------------40--------------|-----------------40--------------|-----------------40--------------|
C|---------------------------------|---------------------------------|---------------------------------|
C|---------------------------------|---------------------------------|---------------------------------|
C|---------44------44------44------|-44------44------44------44------|-44------44------44------44------|


C|-----------------------------57--|-49------------------------------|---------------------------------|
C|---------------------------------|---------------------------------|---------------------------------|
C|-----------------40--------------|-----------------40--------------|-----------------40--------------|
C|---------------------------------|---------------------------------|---------------------------------|
C|---------------------------------|---------------------------------|---------------------------------|
C|-44------44------44------44------|-44------44------44------44------|-44------44------44------44------|


C|---------------------------------|-----------------------------49--|-55------------------------------|
C|---------------------------------|---------------------------------|---------------------------------|
C|-----------------40--------------|-----------------40--------------|-----------------40--------------|
C|---------------------------------|---------------------------------|---------------------------------|
C|---------------------------------|---------------------------------|---------------------------------|
C|-44------44------44------44------|-44------44------44------44------|-44------44------44------44------|


C|---------------------------------|---------------------------------|-----------------------------55--|
C|---------------------------------|---------------------------------|---------------------------------|
C|-----------------40--------------|-----------------40--------------|-----------------40--------------|
C|---------------------------------|---------------------------------|---------------------------------|
C|---------------------------------|---------------------------------|---------------------------------|
C|-44------44------44------44------|-44------44------44------44------|-44------44------44------44------|


C|-49---------------------|------------------------|------------------------|------------------------|
C|-49---------------------|------------------------|------------------------|------------------------|
C|-36---36---40-----------|-36---36---40-----------|-36---36---40-----------|-36---36---40-----------|
C|-----------44---42--40--|-----------44---42------|-----------44---42--40--|-----------44---42------|
C|-46---46----------------|-46---46----------------|-46---46----------------|-46---46----------------|
C|------------------------|------------------------|------------------------|------------------------|


C|-55---------------------|------------------------|------------------------|------------------------|
C|-55---------------------|------------------------|------------------------|------------------------|
C|-36---36---40-----------|-36---36---40-----------|-36---36---40-----------|-36---36---40-----------|
C|-----------44---42--40--|-----------44---42------|-----------44---42--40--|-----------44---42------|
C|-46---46----------------|-46---46----------------|-46---46----------------|-46---46----------------|
C|------------------------|------------------------|------------------------|------------------------|


C|-57---------------------|------------------------|-49---------------------|------------------------|
C|------------------------|------------------------|------------------------|------------------------|
C|-36---36---40-----------|-36---36---40-----------|-36---36---40-----------|-36---36---40-----------|
C|-----------44---42--40--|-----------44---42------|-----------44---42--40--|-----------44---42------|
C|-46---46----------------|-46---46----------------|-46---46----------------|-46---46----------------|
C|------------------------|------------------------|------------------------|------------------------|


C|-------------|-------------|-------------|-------------|-46------46------46------46------|
C|-------------|-------------|-------------|-------------|---------------------------------|
C|-------------|-------------|-------------|-------------|---------------------------------|
C|-------------|-------------|-------------|-------------|-36------38------36--36--38------|
C|-------------|-------------|-------------|-------------|---------------------------------|
C|-------------|-------------|-------------|-------------|---------------------------------|


C|-46------46------46------46------|-46------46------46------46------|-46------46------46------46------|
C|---------------------------------|---------------------------------|---------------------------------|
C|---------------------------------|---------------------------------|---------------------------------|
C|-36------38------36--36--38------|-36------38------36--36--38------|-36------38------36--36--38------|
C|---------------------------------|---------------------------------|---------------------------------|
C|---------------------------------|---------------------------------|---------------------------------|


C|-46------46------46------46------|-46------46------46------46------|--------|--------|
C|---------------------------------|---------------------------------|--------|--------|
C|---------------------------------|---------------------------------|--------|--------|
C|-36------38------36--36--38------|-36------38------36--36--38------|--------|--------|
C|---------------------------------|---------------------------------|--------|--------|
C|---------------------------------|---------------------------------|--------|--------|


C|--------|---------------------------|-46------46------46------46------|-46------46------46------46------|
C|--------|---------------------------|---------------------------------|---------------------------------|
C|--------|-------48--48--47--45--45--|---------------------------------|---------------------------------|
C|--------|---------------------------|-36------38------36--36--38------|-36------38------36--36--38------|
C|--------|---------------------------|---------------------------------|---------------------------------|
C|--------|---------------------------|---------------------------------|---------------------------------|


C|-46------46------46------46------|-46------46------46------46------|-46------46------46------46------|
C|---------------------------------|---------------------------------|---------------------------------|
C|---------------------------------|---------------------------------|---------------------------------|
C|-36------38------36--36--38------|-36------38------36--36--38------|-36------38------36--36--38------|
C|---------------------------------|---------------------------------|---------------------------------|
C|---------------------------------|---------------------------------|---------------------------------|


C|-46------46------46------46------|-46------46------46------46------|-46------46------46------46------|
C|---------------------------------|---------------------------------|---------------------------------|
C|---------------------40------38--|-38------38------38------38------|-38------38------38------38------|
C|-36------38------36--36--38------|---------------------------------|---------------------------------|
C|---------------------------------|-36--------------36--------------|-36--------------36--------------|
C|---------------------------------|---------------------------------|---------------------------------|


C|-40-----|
C|--------|
C|-49-----|
C|--------|
C|-46-----|
C|-57-----|









Track 4: eric
Back to top
G|--------|--------|--------|--------|--------|--------|--------|--------|--------|
D|--------|--------|--------|--------|--------|--------|--------|--------|--------|
A|-5------|-5------|-5------|-5------|--------|--------|--------|--------|--------|
E|--------|--------|--------|--------|-5------|-5------|-5------|-5------|-3------|


G|--------|--------|--------|--------|--------------------|---------------------------|
D|--------|--------|--------|--------|--------------------|---------------------------|
A|--------|--------|--------|-5------|-5-----5----0-------|-5-------5---5----5----5---|
E|-3------|-6------|-6------|--------|--------------------|---------------------------|


G|--------|--------|--------------------|-----------------------|--------|--------|
D|--------|--------|--------------------|-----------------------|--------|--------|
A|-5------|--------|--------------------|-----------------------|--------|--------|
E|--------|-5------|-5-----5----5---5---|-5-------5---5---5-----|-5------|-3------|


G|--------|--------|--------|--------|--------------------|---------------------------|
D|--------|--------|--------|--------|--------------------|---------------------------|
A|--------|--------|--------|-5------|-5-----5----0-------|-5-------5---5----5----5---|
E|-3------|-6------|-6------|--------|--------------------|---------------------------|


G|--------|--------|--------------------|-----------------------|--------|--------|
D|--------|--------|--------------------|-----------------------|--------|--------|
A|-5------|--------|--------------------|-----------------------|--------|--------|
E|--------|-5------|-5-----5----5---5---|-5-------5---5---5-----|-5------|-3------|


G|--------|--------|--------|--------|--------------------|---------------------------|
D|--------|--------|--------|--------|--------------------|---------------------------|
A|--------|--------|--------|-5------|-5-----5----0-------|-5-------5---5----5----5---|
E|-3------|-6------|-6------|--------|--------------------|---------------------------|


G|--------|--------|--------------------|-----------------------|--------|--------|
D|--------|--------|--------------------|-----------------------|--------|--------|
A|-5------|--------|--------------------|-----------------------|--------|--------|
E|--------|-5------|-5-----5----5---5---|-5-------5---5---5-----|-5------|-3------|


G|--------|--------|--------|------------------------|------------------------|------------------------|
D|--------|--------|--------|------------------------|------------------------|------------------------|
A|--------|--------|--------|-5----5-------------5---|-5----5-----------------|-5----5-------------5---|
E|-3------|-6------|-6------|------------------------|------------------------|------------------------|


G|------------------------|------------------------|------------------------|------------------------|
D|------------------------|------------------------|------------------------|------------------------|
A|-5----5-----------------|------------------------|------------------------|------------------------|
E|------------------------|-5----5-------------5---|-5----5-----------------|-5----5-------------5---|


G|------------------------|------------------------|------------------------|------------------------|
D|------------------------|------------------------|------------------------|------------------------|
A|------------------------|------------------------|------------------------|------------------------|
E|-5----5-----------------|-3----3-------------3---|-3----3-----------------|-6----6-------------6---|


G|------------------------|---------------------------------|---------------------------------|
D|------------------------|---------------------------------|---------------------------------|
A|------------------------|-5---5-------5---5---5-------5---|-5---5-------5---5---5-------5---|
E|-6----6-----------------|---------------------------------|---------------------------------|


G|---------------------------------|---------------------------------|---------------------------------|
D|---------------------------------|---------------------------------|---------------------------------|
A|-5---5-------5---5---5-------5---|-5---5-------5---5---5-------5---|-5---5-------5---5---5-------5---|
E|---------------------------------|---------------------------------|---------------------------------|


G|---------------------------------|---------------------------------|---------------------------------|
D|---------------------------------|---------------------------------|---------------------------------|
A|-7---7-------7---7---7-------7---|-8---8-------8---8---8-------8---|-5---5-------5---5---5-------5---|
E|---------------------------------|---------------------------------|---------------------------------|


G|---------------------------------|---------------------------------|--------|--------|
D|---------------------------------|---------------------------------|--------|--------|
A|---------------------------------|-3---3-------3---3---3-------3---|--------|--------|
E|-3---3-------3---3---3-------3---|---------------------------------|--------|--------|


G|--------|--------|---------------------------------|---------------------------------|
D|--------|--------|---------------------------------|---------------------------------|
A|--------|--------|-5---5-----------7---7-----------|-8---8-----------5---5-----------|
E|--------|--------|---------------------------------|---------------------------------|


G|---------------------------------|---------------------------------|---------------------------------|
D|---------------------------------|---------------------------------|---------------------------------|
A|-----------------3---3-----------|-5---5-----------7---7-----------|-8---8-----------5---5-----------|
E|-3---3---------------------------|---------------------------------|---------------------------------|


G|---------------------------------|---------------------------------|---------------------------------|
D|---------------------------------|---------------------------------|---------------------------------|
A|-----------------3---3-----------|-5---5---5---5---5---5---5---5---|-5---5---5---5---5---5---5---5---|
E|-3---3---------------------------|---------------------------------|---------------------------------|


G|-------------|
D|-------------|
A|-5-----------|
E|-------------|









Track 5: guitar fill
Back to top
E|--------|--------|--------|-20----19----|-19-----|-19-----|-17-----|-17-----|-18-----|
B|--------|--------|--------|-------------|--------|--------|--------|--------|--------|
G|--------|--------|--------|-------------|--------|--------|--------|--------|--------|
D|--------|--------|--------|-------------|--------|--------|--------|--------|--------|
A|--------|--------|--------|-------------|--------|--------|--------|--------|--------|
E|--------|--------|--------|-------------|--------|--------|--------|--------|--------|


E|-18-----|-18-----|-18-----|--------|--------|--------|--------|--------|--------|
B|--------|--------|--------|-6------|-6------|--------|--------|--------|--------|
G|--------|--------|--------|-7------|-7------|--------|--------|--------|--------|
D|--------|--------|--------|-7------|-7------|--------|--------|--------|--------|
A|--------|--------|--------|--------|--------|--------|--------|--------|--------|
E|--------|--------|--------|--------|--------|--------|--------|--------|--------|


E|--------|--------|--------|--------|--------|--------|--------|--------|--------|
B|--------|--------|--------|--------|--------|--------|-6------|-6------|--------|
G|--------|--------|--------|--------|--------|--------|-7------|-7------|--------|
D|--------|--------|--------|--------|--------|--------|-7------|-7------|--------|
A|--------|--------|--------|--------|--------|--------|--------|--------|--------|
E|--------|--------|--------|--------|--------|--------|--------|--------|--------|


E|--------|--------|--------|-------5-----|-3-----1-----|--------|--------|--------|
B|--------|--------|--------|-------------|-------------|--------|--------|--------|
G|--------|--------|--------|-------------|-------------|--------|--------|--------|
D|--------|--------|--------|-------------|-------------|--------|--------|--------|
A|--------|--------|--------|-------------|-------------|--------|--------|--------|
E|--------|--------|--------|-------------|-------------|--------|--------|--------|


E|--------|--------|----------------|---------------------------------|---------------------------------|
B|--------|--------|----------------|---------------------------------|---------------------------------|
G|--------|--------|----------------|---------------------------------|---------------------------------|
D|--------|--------|----------------|---------------------------------|---------------------------------|
A|--------|--------|------------8---|-7---8---7---8---7---8---7---8---|-12--12--12--12--12--12--12--12--|
E|--------|--------|----------------|---------------------------------|---------------------------------|


E|--------|--------|--------|--------|--------|--------|--------|--------|--------|
B|--------|--------|--------|--------|--------|--------|--------|--------|--------|
G|--------|--------|--------|--------|--------|--------|--------|--------|--------|
D|--------|--------|--------|--------|--------|--------|--------|--------|--------|
A|--------|--------|--------|--------|--------|--------|--------|--------|--------|
E|--------|--------|--------|--------|--------|--------|--------|--------|--------|


E|--------|--------|--------|--------|--------|-10------10------10------10------|-13---13---12---12---|
B|--------|--------|--------|--------|--------|---------------------------------|---------------------|
G|--------|--------|--------|--------|--------|---------------------------------|---------------------|
D|--------|--------|--------|--------|--------|---------------------------------|---------------------|
A|--------|--------|--------|--------|--------|---------------------------------|---------------------|
E|--------|--------|--------|--------|--------|---------------------------------|---------------------|


E|-13------13------13------13------|-12------12------12------12------|-13------13------13------13------|
B|---------------------------------|---------------------------------|---------------------------------|
G|---------------------------------|---------------------------------|---------------------------------|
D|---------------------------------|---------------------------------|---------------------------------|
A|---------------------------------|---------------------------------|---------------------------------|
E|---------------------------------|---------------------------------|---------------------------------|


E|-13------13------13------13------|--------|--------|--------|--------|--------|--------|
B|---------------------------------|--------|--------|--------|--------|--------|--------|
G|---------------------------------|--------|--------|--------|--------|--------|--------|
D|---------------------------------|--------|--------|--------|--------|--------|--------|
A|---------------------------------|--------|--------|--------|--------|--------|--------|
E|---------------------------------|--------|--------|--------|--------|--------|--------|


E|--------|--------|--------|--------|--------|--------|--------|--------|--------|
B|--------|--------|--------|--------|--------|--------|--------|--------|--------|
G|--------|--------|--------|--------|--------|--------|--------|--------|--------|
D|--------|--------|--------|--------|--------|--------|--------|--------|--------|
A|--------|--------|--------|--------|--------|--------|--------|--------|--------|
E|--------|--------|--------|--------|--------|--------|--------|--------|--------|


E|--------|--------|--------|--------|--------|--------|--------|--------|
B|--------|--------|--------|--------|--------|--------|--------|--------|
G|--------|--------|--------|--------|--------|--------|--------|--------|
D|--------|--------|--------|--------|--------|--------|--------|--------|
A|--------|--------|--------|--------|--------|--------|--------|--------|
E|--------|--------|--------|--------|--------|--------|--------|--------|



← Back to top