Eagle's Eye

by IronFist

Guitar Pro Tab  |  v4.06  |  Posted on March 29, 2007, 10:59 a.m. ← Back

Guitar Pro Tab Summary

Album

Insanity Over Control

Song Author

IronFistCatepillan

Tabbed by

unknown

Instruments

1st → The Eye
2nd → The Wind
3rd → The screaming worm
4th → Suncusi´┐Żn
5th → Wings 4
6th → IRON FIST
7th → Clouds6

File Size

45 KB

Views

330






Tablature Sheet

Title: Eagle's Eye
Artist: IronFist
Album: Insanity Over Control
Author: IronFistCatepillan






Track 1: The Eye
Back to top
E|--------|--------|--------|--------|--------|--------|--------|--------|--------|
B|--------|--------|--------|--------|--------|--------|--------|--------|--------|
G|--------|--------|--------|--------|--------|--------|--------|--------|--------|
D|--------|--------|--------|--------|--------|--------|--------|--------|--------|
A|--------|--------|--------|--------|--------|--------|--------|--------|--------|
E|--------|--------|--------|--------|--------|--------|--------|--------|--------|


E|-----1--3--4----1--3--4--6--8--6--------|-9--8--------8--6-----8--9--------------------|
B|-2--------------------------------6--8--|-------9--8--------6--------9-6-----------6---|
G|----------------------------------------|--------------------------------8-----8-------|
D|----------------------------------------|-----------------------------------8----------|
A|----------------------------------------|----------------------------------------------|
E|----------------------------------------|----------------------------------------------|


E|--------------------------------------|-------9--6-------------|-9----11-9--8-----9--8--------------------|
B|---------------------9----8--6-----9--|-9-----------9--6-------|---------------11-------11-9--8-----------|
G|-----12------10--9--------------8-----|-------------------8----|---------------------------------10-8-----|
D|-11------11---------------------------|------------------------|---------------------------------------11-|
A|--------------------------------------|------------------------|------------------------------------------|
E|--------------------------------------|------------------------|------------------------------------------|


E|-------------------9--8--11-9--8--11-9--8--11-9--8--11-9--8--|-13-11-9--13-11-9--13-11-9--13-11-9--14-13-11-14-13-11-14-13-11-14-13-11-|
B|-------------9--11-------------------------------------------|-------------------------------------------------------------------------|
G|----6--8--10-------------------------------------------------|-------------------------------------------------------------------------|
D|-8-----------------------------------------------------------|-------------------------------------------------------------------------|
A|-------------------------------------------------------------|-------------------------------------------------------------------------|
E|-------------------------------------------------------------|-------------------------------------------------------------------------|


E|-14-13-11----13-11-9-----11-9--8-----------------|-6-----9----8----4---|-6---9---6------|
B|----------14----------13----------9--11-14-13----|---------------------|----------------|
G|----------------------------------------------13-|---------------------|----------------|
D|-------------------------------------------------|---------------------|----------------|
A|-------------------------------------------------|---------------------|----------------|
E|-------------------------------------------------|---------------------|----------------|


E|-2-----9----8----4---|-2---9---2------|-4-----9----8----4---|-6---9---6------|-6-----9----8----9---|
B|---------------------|----------------|---------------------|----------------|---------------------|
G|---------------------|----------------|---------------------|----------------|---------------------|
D|---------------------|----------------|---------------------|----------------|---------------------|
A|---------------------|----------------|---------------------|----------------|---------------------|
E|---------------------|----------------|---------------------|----------------|---------------------|


E|-11----9--8--6-----|-6----9--8--6--9--8--6--9--8--9--11-9--8--|-----------------9--8-----4--6--8--6--4--|
B|-------------------|------------------------------------------|-7---9---11--13--------11----------------|
G|-------------------|------------------------------------------|-----------------------------------------|
D|-------------------|------------------------------------------|-----------------------------------------|
A|-------------------|------------------------------------------|-----------------------------------------|
E|-------------------|------------------------------------------|-----------------------------------------|


E|-6----9--8--6--9--8--6--9--8--9--11-9--8--|-----------------9--8-----4--6--8--6--4--|
B|------------------------------------------|-7---9---11--13--------11----------------|
G|------------------------------------------|-----------------------------------------|
D|------------------------------------------|-----------------------------------------|
A|------------------------------------------|-----------------------------------------|
E|------------------------------------------|-----------------------------------------|


E|-6------|-6----9--8--6--9--8--6--9--8--9--11-9--8--|-----------------9--8-----4--6--8--6--4--|
B|--------|------------------------------------------|-7---9---11--13--------11----------------|
G|--------|------------------------------------------|-----------------------------------------|
D|--------|------------------------------------------|-----------------------------------------|
A|--------|------------------------------------------|-----------------------------------------|
E|--------|------------------------------------------|-----------------------------------------|


E|-6----9--8--6--9--8--6--9--8--9--11-9--8--|-----------------9--8-----4--6--8--6--4--|
B|------------------------------------------|-7---9---11--13--------11----------------|
G|------------------------------------------|-----------------------------------------|
D|------------------------------------------|-----------------------------------------|
A|------------------------------------------|-----------------------------------------|
E|------------------------------------------|-----------------------------------------|


E|-6----9--8--6--9--8--6--9--8--9--11-9--8--|-----------------9--8-----4--6--8--6--4--|
B|------------------------------------------|-7---9---11--13--------11----------------|
G|------------------------------------------|-----------------------------------------|
D|------------------------------------------|-----------------------------------------|
A|------------------------------------------|-----------------------------------------|
E|------------------------------------------|-----------------------------------------|


E|-6----9--8--6--9--8--6--9--8--9--11-9--8--|-18-----|-6----9--8--6--9--8--6--9--8--9--11-9--8--|
B|------------------------------------------|--------|------------------------------------------|
G|------------------------------------------|--------|------------------------------------------|
D|------------------------------------------|--------|------------------------------------------|
A|------------------------------------------|--------|------------------------------------------|
E|------------------------------------------|--------|------------------------------------------|


E|-----------------9--8-----4--6--8--6--4--|-6----9--8--6--9--8--6--9--8--9--11-9--8--|
B|-7---9---11--13--------11----------------|------------------------------------------|
G|-----------------------------------------|------------------------------------------|
D|-----------------------------------------|------------------------------------------|
A|-----------------------------------------|------------------------------------------|
E|-----------------------------------------|------------------------------------------|


E|-----------------9--8-----4--6--8--6--4--|-6----9--8--6--9--8--6--9--8--9--11-9--8--|
B|-7---9---11--13--------11----------------|------------------------------------------|
G|-----------------------------------------|------------------------------------------|
D|-----------------------------------------|------------------------------------------|
A|-----------------------------------------|------------------------------------------|
E|-----------------------------------------|------------------------------------------|


E|-----------------9--8-----4--6--8--6--4--|-6----9--8--6--9--8--6--9--8--9--11-9--8--|
B|-7---9---11--13--------11----------------|------------------------------------------|
G|-----------------------------------------|------------------------------------------|
D|-----------------------------------------|------------------------------------------|
A|-----------------------------------------|------------------------------------------|
E|-----------------------------------------|------------------------------------------|


E|-18-----|-6---9---6---8---4---8---4---6---8---9--6--4--6--9--6--|---9------9---9---|
B|--------|-------------------------------------------------------|------------------|
G|--------|-------------------------------------------------------|------------------|
D|--------|-------------------------------------------------------|------------------|
A|--------|-------------------------------------------------------|------------------|
E|--------|-------------------------------------------------------|------------------|


E|-------------------------------------------------------------------------|------------------|
B|-------------------------------------------------------------------------|---25-----25--25--|
G|-20----------20----------20----------22----------22----20----------------|------------------|
D|----20----20----20----20----20----20----22----22----22----20----20-------|------------------|
A|-------18----------18----------18----------20----------------18----20----|------------------|
E|----------------------------------------------------------------------18-|------------------|


E|-13--11--9---11--9---8---9---8---6---13-11-9--11-9--8--|---6------6---6---|-------------------------------------------------------------------------|
B|-------------------------------------------------------|------------------|-------------------------------------------------------------------------|
G|-------------------------------------------------------|------------------|-20----------20----------20----------22----------22----20----------------|
D|-------------------------------------------------------|------------------|----20----20----20----20----20----20----22----22----22----20----20-------|
A|-------------------------------------------------------|------------------|-------18----------18----------18----------20----------------18----20----|
E|-------------------------------------------------------|------------------|----------------------------------------------------------------------18-|


E|------------------|-6---9---6---8---4---8---4---6---8---9--6--4--6--9--6--|---9------9---9---|
B|---25-----25--25--|-------------------------------------------------------|------------------|
G|------------------|-------------------------------------------------------|------------------|
D|------------------|-------------------------------------------------------|------------------|
A|------------------|-------------------------------------------------------|------------------|
E|------------------|-------------------------------------------------------|------------------|


E|-13--11--9---11--9---8---9---8---6---13--11--9---|----------------------------------------------------|
B|-------------------------------------------------|----------------------------------------------------|
G|-------------------------------------------------|----------------------------------------------------|
D|-------------------------------------------------|----------------------------------------------6--8--|
A|-------------------------------------------------|-------8--6-----8--6-----8--6--8-----8--4--6--------|
E|-------------------------------------------------|-6--6--------6--------6-----------6-----------------|


E|----------------------------------------------------|-------------------------------------------------|
B|----------------------------------------------6--4--|----4--------------------------------------------|
G|----------------------------------------6--8--------|-6-----5-----------------------------------------|
D|-------8--6-----8--6-----8--6--8--6--8--------------|----------6--4--6--------------------------------|
A|-4--4--------4--------4-----------------------------|-------------------6--4-----8--6-----8--6--------|
E|----------------------------------------------------|-------------------------4--------4--------4--4--|


E|----------------------------------------------------|----------------------------------------------------|
B|----------------------------------------------------|----------------------------------------------------|
G|----------------------------------------------------|----------------------------------------------------|
D|----------------------------------------------6--8--|----------------------------------------------6--8--|
A|-------8--6-----8--6-----8--6--8-----8--4--6--------|-------8--6-----8--6-----8--6--8-----8--4--6--------|
E|-6--6--------6--------6-----------6-----------------|-6--6--------6--------6-----------6-----------------|


E|----------------------------------------------------|-------------------------------------------------|
B|----------------------------------------------6--4--|----4--------------------------------------------|
G|----------------------------------------6--8--------|-6-----5-----------------------------------------|
D|-------8--6-----8--6-----8--6--8--6--8--------------|----------6--4--6--------------------------------|
A|-4--4--------4--------4-----------------------------|-------------------6--4-----8--6-----8--6--------|
E|----------------------------------------------------|-------------------------4--------4--------4--4--|


E|----------------------------------------------------|----------------------------------------------------|
B|----------------------------------------------------|----------------------------------------------------|
G|----------------------------------------------------|----------------------------------------------------|
D|----------------------------------------------6--8--|----------------------------------------------6--8--|
A|-------8--6-----8--6-----8--6--8-----8--4--6--------|-------8--6-----8--6-----8--6--8-----8--4--6--------|
E|-6--6--------6--------6-----------6-----------------|-6--6--------6--------6-----------6-----------------|


E|----------------------------------------------------|-------------------------------------------------|
B|----------------------------------------------6--4--|----4--------------------------------------------|
G|----------------------------------------6--8--------|-6-----5-----------------------------------------|
D|-------8--6-----8--6-----8--6--8--6--8--------------|----------6--4--6--------------------------------|
A|-4--4--------4--------4-----------------------------|-------------------6--4-----8--6-----8--6--------|
E|----------------------------------------------------|-------------------------4--------4--------4--4--|


E|----------------------------------------------------|----------------------------------------------------|
B|----------------------------------------------------|----------------------------------------------------|
G|----------------------------------------------------|----------------------------------------------------|
D|----------------------------------------------------|----------------------------------------------6--8--|
A|-------8--6-----8--6-----8--6--8-----8-----8--6-----|-------8--6-----8--6-----8--6--8-----8--4--6--------|
E|-6--6--------6--------6-----------6-----6--------6--|-6--6--------6--------6-----------6-----------------|


E|----------------------------------------------------|-------------------------------------------------|
B|----------------------------------------------6--4--|----4--------------------------------------------|
G|----------------------------------------6--8--------|-6-----5-----------------------------------------|
D|-------8--6-----8--6-----8--6--8--6--8--------------|----------6--4--6--------------------------------|
A|-4--4--------4--------4-----------------------------|-------------------6--4-----8--6-----8--6--------|
E|----------------------------------------------------|-------------------------4--------4--------4--4--|


E|----------------------------------------------------|--------|--------|-18-----|
B|----------------------------------------------------|--------|--------|--------|
G|----------------------------------------------------|--------|--------|--------|
D|----------------------------------------------------|--------|--------|--------|
A|-------8--6-----8--6-----8--6--8-----8-----8--6-----|--------|--------|--------|
E|-6--6--------6--------6-----------6-----6--------6--|--------|--------|--------|


E|-18----17---19---|-18-----|-18-----|--------|--------|--------|--------|--------|
B|-----------------|--------|--------|--------|--------|--------|--------|--------|
G|-----------------|--------|--------|--------|--------|--------|--------|--------|
D|-----------------|--------|--------|--------|--------|--------|--------|--------|
A|-----------------|--------|--------|--------|--------|--------|--------|--------|
E|-----------------|--------|--------|--------|--------|--------|--------|--------|


E|--------|--------|--------|--------|--------|-18-----|-6----9--8--6--9--8--6--9--8--9--11-9--8--|
B|--------|--------|--------|--------|--------|--------|------------------------------------------|
G|--------|--------|--------|--------|--------|--------|------------------------------------------|
D|--------|--------|--------|--------|--------|--------|------------------------------------------|
A|--------|--------|--------|--------|--------|--------|------------------------------------------|
E|--------|--------|--------|--------|--------|--------|------------------------------------------|


E|-----------------9--8-----4--6--8--6--4--|-6----9--8--6--9--8--6--9--8--9--11-9--8--|
B|-7---9---11--13--------11----------------|------------------------------------------|
G|-----------------------------------------|------------------------------------------|
D|-----------------------------------------|------------------------------------------|
A|-----------------------------------------|------------------------------------------|
E|-----------------------------------------|------------------------------------------|


E|-----------------9--8-----4--6--8--6--4--|-6------|-6----9--8--6--9--8--6--9--8--9--11-9--8--|
B|-7---9---11--13--------11----------------|--------|------------------------------------------|
G|-----------------------------------------|--------|------------------------------------------|
D|-----------------------------------------|--------|------------------------------------------|
A|-----------------------------------------|--------|------------------------------------------|
E|-----------------------------------------|--------|------------------------------------------|


E|-----------------9--8-----4--6--8--6--4--|-6----9--8--6--9--8--6--9--8--9--11-9--8--|
B|-7---9---11--13--------11----------------|------------------------------------------|
G|-----------------------------------------|------------------------------------------|
D|-----------------------------------------|------------------------------------------|
A|-----------------------------------------|------------------------------------------|
E|-----------------------------------------|------------------------------------------|


E|-----------------9--8-----4--6--8--6--4--|-6----9--8--6--9--8--6--9--8--9--11-9--8--|
B|-7---9---11--13--------11----------------|------------------------------------------|
G|-----------------------------------------|------------------------------------------|
D|-----------------------------------------|------------------------------------------|
A|-----------------------------------------|------------------------------------------|
E|-----------------------------------------|------------------------------------------|


E|-----------------9--8-----4--6--8--6--4--|-6----9--8--6--9--8--6--9--8--9--11-9--8--|
B|-7---9---11--13--------11----------------|------------------------------------------|
G|-----------------------------------------|------------------------------------------|
D|-----------------------------------------|------------------------------------------|
A|-----------------------------------------|------------------------------------------|
E|-----------------------------------------|------------------------------------------|


E|-18-----|-6---9---6---8---4---8---4---6---8---9--6--4--6--9--6--|---9------9---9---|
B|--------|-------------------------------------------------------|------------------|
G|--------|-------------------------------------------------------|------------------|
D|--------|-------------------------------------------------------|------------------|
A|--------|-------------------------------------------------------|------------------|
E|--------|-------------------------------------------------------|------------------|


E|-------------------------------------------------------------------------|------------------|
B|-------------------------------------------------------------------------|---25-----25--25--|
G|-20----------20----------20----------22----------22----20----------------|------------------|
D|----20----20----20----20----20----20----22----22----22----20----20-------|------------------|
A|-------18----------18----------18----------20----------------18----20----|------------------|
E|----------------------------------------------------------------------18-|------------------|


E|-6---9---6---8---4---8---4---6---8---9--6--4--6--9--6--|---9------9---9---|-13--11--9---11--9---8---9---8---6---13-11-9--11-9--8--|
B|-------------------------------------------------------|------------------|-------------------------------------------------------|
G|-------------------------------------------------------|------------------|-------------------------------------------------------|
D|-------------------------------------------------------|------------------|-------------------------------------------------------|
A|-------------------------------------------------------|------------------|-------------------------------------------------------|
E|-------------------------------------------------------|------------------|-------------------------------------------------------|


E|---6------6---6---|-6---9---6---8---4---8---4---6---8---9--6--4--6--9--6--|---9------9---9---|
B|------------------|-------------------------------------------------------|------------------|
G|------------------|-------------------------------------------------------|------------------|
D|------------------|-------------------------------------------------------|------------------|
A|------------------|-------------------------------------------------------|------------------|
E|------------------|-------------------------------------------------------|------------------|


E|-------------------------------------------------------------------------|-18----------|
B|-------------------------------------------------------------------------|-------------|
G|-20----------20----------20----------22----------22----20----------------|-------------|
D|----20----20----20----20----20----20----22----22----22----20-22----------|-------------|
A|-------18----------18----------18----------20-------------------20-18----|-------------|
E|----------------------------------------------------------------------16-|-------------|









Track 2: The screaming worm
Back to top
E|-------------|-------------|-------------|-------------|-------------|--------|-------------|
B|-------------|-------------|-------------|-------------|-------------|--------|-------------|
G|-------------|-------------|-------------|-------------|-------------|--------|-------------|
D|-------------|-------------|-------------|-------------|-------------|--------|-------------|
A|-------------|-------------|-------------|-------------|-------------|--------|-------------|
E|-------------|-------------|-------------|-------------|-------------|-6------|-9-----13----|


E|--------|-------------|--------|-------------|--------|-------------|-------------|
B|--------|-------------|--------|-------------|--------|-------------|-------------|
G|--------|-------------|--------|-------------|--------|-------------|-------------|
D|--------|-------------|--------|-------------|--------|-------------|-------------|
A|--------|-------------|--------|-------------|--------|-------------|-------------|
E|-6------|-9-----8-----|-6------|-9-----13----|-6------|-9-----8-----|-6-----6-----|


E|---------------------|---------------------|-----------------|-------------|-------------|
B|---------------------|---------------------|-----------------|-------------|-------------|
G|---------------------|---------------------|-----------------|-------------|-------------|
D|---------------------|------6---------6----|------6----------|-------------|-------------|
A|---------------------|---------------------|-----------------|-------------|-------------|
E|-9----9----11---9----|-13--------14--------|-4---------6-----|-------------|-------------|


E|-------------|-------------|-------------|-------------|-------------|-------------|
B|-------------|-------------|-------------|-------------|-------------|-------------|
G|-------------|-------------|-------------|-------------|-------------|-------------|
D|-------------|-------------|-------------|-------------|-------------|-------------|
A|-------------|-------------|-------------|-------------|-------------|-------------|
E|-------------|-------------|-------------|-------------|-------------|-------------|


E|-------------|-------------|-------------|--------|--------|------6----6---6----6---8---|
B|-------------|-------------|-------------|--------|--------|----------------------------|
G|-------------|-------------|-------------|--------|--------|----------------------------|
D|-------------|-------------|-------------|--------|--------|----------------------------|
A|-------------|-------------|-------------|--------|--------|----------------------------|
E|-------------|-------------|-------------|--------|--------|----------------------------|


E|-9--6----8---9----6----6--4---|-6----6----11--9----6---11--|-9--6----8---9----9----9--4---|
B|------------------------------|----------------------------|------------------------------|
G|------------------------------|----------------------------|------------------------------|
D|------------------------------|----------------------------|------------------------------|
A|------------------------------|----------------------------|------------------------------|
E|------------------------------|----------------------------|------------------------------|


E|------6----6---6----6---8---|-9--6----8---9----6----6--4---|-9----6----6---6----6---4---|
B|----------------------------|------------------------------|----------------------------|
G|----------------------------|------------------------------|----------------------------|
D|----------------------------|------------------------------|----------------------------|
A|----------------------------|------------------------------|----------------------------|
E|----------------------------|------------------------------|----------------------------|


E|-2----4----6-----|------6----11--9----6---8---|-9--6----11--6----13---13-4---|-6----6---8---9---13--13--8---|
B|-----------------|----------------------------|------------------------------|------------------------------|
G|-----------------|----------------------------|------------------------------|------------------------------|
D|-----------------|----------------------------|------------------------------|------------------------------|
A|-----------------|----------------------------|------------------------------|------------------------------|
E|-----------------|----------------------------|------------------------------|------------------------------|


E|-9--13---13--13--14----|-9----14---13--11---6---8---|-14-14---14--14--18---18--16--|
B|-----------------------|----------------------------|------------------------------|
G|-----------------------|----------------------------|------------------------------|
D|-----------------------|----------------------------|------------------------------|
A|-----------------------|----------------------------|------------------------------|
E|-----------------------|----------------------------|------------------------------|


E|-18-----|-2----4----6-----|-6-----4-----|-9------|-11----13---11---6---|-8------|
B|--------|-----------------|-------------|--------|---------------------|--------|
G|--------|-----------------|-------------|--------|---------------------|--------|
D|--------|-----------------|-------------|--------|---------------------|--------|
A|--------|-----------------|-------------|--------|---------------------|--------|
E|--------|-----------------|-------------|--------|---------------------|--------|


E|-13----11---9---13--|-6------|-11----13---11---6---|-8------|-6-----4-----|-9------|
B|--------------------|--------|---------------------|--------|-------------|--------|
G|--------------------|--------|---------------------|--------|-------------|--------|
D|--------------------|--------|---------------------|--------|-------------|--------|
A|--------------------|--------|---------------------|--------|-------------|--------|
E|--------------------|--------|---------------------|--------|-------------|--------|


E|-6------------------|--------|--------|--------|--------|--------|--------|--------|
B|--------------------|--------|--------|--------|--------|--------|--------|--------|
G|--------------------|--------|--------|--------|--------|--------|--------|--------|
D|--------------------|--------|--------|--------|--------|--------|--------|--------|
A|--------------------|--------|--------|--------|--------|--------|--------|--------|
E|--------------------|--------|--------|--------|--------|--------|--------|--------|


E|--------|--------|--------|--------|--------|--------|--------|--------|--------|
B|--------|--------|--------|--------|--------|--------|--------|--------|--------|
G|--------|--------|--------|--------|--------|--------|--------|--------|--------|
D|--------|--------|--------|--------|--------|--------|--------|--------|--------|
A|--------|--------|--------|--------|--------|--------|--------|--------|--------|
E|--------|--------|--------|--------|--------|--------|--------|--------|--------|


E|--------|--------|--------|--------|--------|--------|--------|--------|--------|
B|--------|--------|--------|--------|--------|--------|--------|--------|--------|
G|--------|--------|--------|--------|--------|--------|--------|--------|--------|
D|--------|--------|--------|--------|--------|--------|--------|--------|--------|
A|--------|--------|--------|--------|--------|--------|--------|--------|--------|
E|--------|--------|--------|--------|--------|--------|--------|--------|--------|


E|--------|--------|--------|--------|--------|--------|--------|-2----4----6-----|
B|--------|--------|--------|--------|--------|--------|--------|-----------------|
G|--------|--------|--------|--------|--------|--------|--------|-----------------|
D|--------|--------|--------|--------|--------|--------|--------|-----------------|
A|--------|--------|--------|--------|--------|--------|--------|-----------------|
E|--------|--------|--------|--------|--------|--------|--------|-----------------|


E|-------------|-------------|-------------|--------|--------|------6----6---6----6---8---|
B|-------------|-------------|-------------|--------|--------|----------------------------|
G|-------------|-------------|-------------|--------|--------|----------------------------|
D|-------------|-------------|-------------|--------|--------|----------------------------|
A|-------------|-------------|-------------|--------|--------|----------------------------|
E|-------------|-------------|-------------|--------|--------|----------------------------|


E|-9--6----8---9----6----6--4---|-6----6----11--9----6---11--|-9--6----8---9----9----9--4---|
B|------------------------------|----------------------------|------------------------------|
G|------------------------------|----------------------------|------------------------------|
D|------------------------------|----------------------------|------------------------------|
A|------------------------------|----------------------------|------------------------------|
E|------------------------------|----------------------------|------------------------------|


E|------6----6---6----6---8---|-9--6----8---9----6----6--4---|-9----6----6---6----6---4---|
B|----------------------------|------------------------------|----------------------------|
G|----------------------------|------------------------------|----------------------------|
D|----------------------------|------------------------------|----------------------------|
A|----------------------------|------------------------------|----------------------------|
E|----------------------------|------------------------------|----------------------------|


E|-2----4----6-----|-6-----4-----|-9------|-11----13---11---6---|-8------|-6-----4-----|
B|-----------------|-------------|--------|---------------------|--------|-------------|
G|-----------------|-------------|--------|---------------------|--------|-------------|
D|-----------------|-------------|--------|---------------------|--------|-------------|
A|-----------------|-------------|--------|---------------------|--------|-------------|
E|-----------------|-------------|--------|---------------------|--------|-------------|


E|-9------|-13----11---9---13--|-6------|-6-----4-----|-9------|-11----13---11---4---|
B|--------|--------------------|--------|-------------|--------|---------------------|
G|--------|--------------------|--------|-------------|--------|---------------------|
D|--------|--------------------|--------|-------------|--------|---------------------|
A|--------|--------------------|--------|-------------|--------|---------------------|
E|--------|--------------------|--------|-------------|--------|---------------------|


E|-6-----------|
B|-------------|
G|-------------|
D|-------------|
A|-------------|
E|-------------|









Track 3: The Wind
Back to top
E|-------------|--------|-------------|--------|-------------|--------|-------------|
B|-------------|-6------|-------6-----|-6------|-9-----8-----|-6------|-------6-----|
G|-------------|-6------|-6-----6-----|-6------|-------------|-6------|-6-----6-----|
D|-------------|-8------|-------------|-8------|-8-----8-----|-8------|-------------|
A|-------------|--------|-------------|--------|-------------|--------|-------------|
E|-------------|--------|-------------|--------|-------------|--------|-------------|


E|--------|-------------|--------|-------------|--------|-------------|-6------|-6------|
B|-6------|-9-----8-----|-6------|-------6-----|-6------|-9-----8-----|--------|--------|
G|-6------|-------------|-6------|-6-----6-----|-6------|-------------|--------|--------|
D|-8------|-8-----8-----|-8------|-------------|-8------|-8-----8-----|-8------|-6------|
A|--------|-------------|--------|-------------|--------|-------------|--------|--------|
E|--------|-------------|--------|-------------|--------|-------------|-6------|-8------|


E|-8-----9-----|-4-----6-----|-6------|-6------|-2------|-2------|-4------|-4------|
B|-------------|-------------|--------|--------|--------|--------|--------|--------|
G|-------------|-------------|--------|--------|--------|--------|--------|--------|
D|-6-----6-----|-6-----8-----|-8------|-8------|-4------|-4------|-6------|-6------|
A|-------------|-------8-----|-8------|-8------|-4------|-4------|-6------|-6------|
E|-8-----9-----|-4-----6-----|-6------|-6------|-2------|-2------|-4------|-4------|


E|-6------|-6------|-18-----1----|-14----6----9----|-18-----1----|-14----6----9----|
B|--------|--------|-11----------|-----------------|-11----------|-----------------|
G|--------|--------|-------------|-----------------|-------------|-----------------|
D|-8------|-8------|--------11---|-4-----6----18---|--------11---|-4-----6----18---|
A|-8------|-8------|-20-----11---|-4-----6----16---|-20-----11---|-4-----6----16---|
E|-6------|-6------|-18-----9----|-14----16---16---|-18-----9----|-14----16---16---|


E|-18-----|-18-----1----|-14----6----9----|-18-----1----|-14----6----9----|-18-----1----|
B|-11-----|-11----------|-----------------|-11----------|-----------------|-11----------|
G|--------|-------------|-----------------|-------------|-----------------|-------------|
D|--------|--------11---|-4-----6----18---|--------11---|-4-----6----18---|--------11---|
A|-20-----|-20-----11---|-4-----6----16---|-20-----11---|-4-----6----16---|-20-----11---|
E|-18-----|-18-----9----|-14----16---16---|-18-----9----|-14----16---16---|-18-----9----|


E|-14----6----9----|-18-----1----|-14---16---18----|-18-----1----|-14----6----9----|
B|-----------------|-11----------|-----------------|-11----------|-----------------|
G|-----------------|-------------|-----------------|-------------|-----------------|
D|-4-----6----18---|--------11---|-4----6----20----|--------11---|-4-----6----18---|
A|-4-----6----16---|-20-----11---|-----------------|-20-----11---|-4-----6----16---|
E|-14----16---16---|-18-----9----|-2----4----6-----|-18-----9----|-14----16---16---|


E|-18-----1----|-14----6----9----|-18-----1----|-14----6----9----|-18-----1----|-14---16---18----|
B|-11----------|-----------------|-11----------|-----------------|-11----------|-----------------|
G|-------------|-----------------|-------------|-----------------|-------------|-----------------|
D|--------11---|-4-----6----18---|--------11---|-4-----6----18---|--------11---|-4----6----20----|
A|-20-----11---|-4-----6----16---|-20-----11---|-4-----6----16---|-20-----11---|-----------------|
E|-18-----9----|-14----16---16---|-18-----9----|-14----16---16---|-18-----9----|-2----4----6-----|


E|-6----1----16----|-9------|-11----13---6----|-20-----|-13----11---9----|-6------|
B|-----------------|--------|-----------------|--------|-----------------|--------|
G|-----------------|--------|-20----10--------|--------|-10----22---6----|--------|
D|-8----20---6-----|-11-----|-8----------20---|-22-----|-10----8----6----|-20-----|
A|-8----8----8-----|-4------|-6-----8----8----|-22-----|-8-----18---4----|-8------|
E|-6----18---4-----|-9------|------------6----|-8------|-20--------------|-6------|


E|-11----13---6----|-20-----|-6----1----16----|-9------|-6------------------|-18-----|
B|-----------------|--------|-----------------|--------|--------------------|--------|
G|-20----10--------|--------|-----------------|--------|--------------------|--------|
D|-8----------20---|-22-----|-8----20---6-----|-11-----|-8------------------|-8------|
A|-6-----8----8----|-22-----|-8----8----8-----|-4------|-8------------------|-8------|
E|------------6----|-8------|-6----18---4-----|-9------|-6------------------|-18-----|


E|-21----21--21-------|-16-----|-18-----|-18-----|-21----21--21-------|-16-----|-18-----|
B|-----------16--16---|--------|--------|--------|-----------16--16---|--------|--------|
G|-----------18--18---|--------|--------|--------|-----------18--18---|--------|--------|
D|-6-----6---6--------|-6------|-8------|-8------|-6-----6---6--------|-6------|-8------|
A|-4-----4---4--------|-6------|-8------|-8------|-4-----4---4--------|-6------|-8------|
E|-21----21-----------|-4------|-6------|-18-----|-21----21-----------|-4------|-6------|


E|-18-----|-21----21--21-------|-16-----|-18-----|-18-----|-21----21--21-------|-16-----|
B|--------|-----------16--16---|--------|--------|--------|-----------16--16---|--------|
G|--------|-----------18--18---|--------|--------|--------|-----------18--18---|--------|
D|-8------|-6-----6---6--------|-6------|-8------|-8------|-6-----6---6--------|-6------|
A|-8------|-4-----4---4--------|-6------|-8------|-8------|-4-----4---4--------|-6------|
E|-18-----|-21----21-----------|-4------|-6------|-18-----|-21----21-----------|-4------|


E|-18-----|-13-----|-18----17---19---|-13-----|-18----17---19---|-13-----|-13-----|
B|--------|--------|-----------------|--------|-----------------|--------|--------|
G|--------|--------|-----------------|--------|-----------------|--------|--------|
D|-8------|-8------|-4-----4----4----|-8------|-4-----4----4----|-8------|-8------|
A|-8------|-8------|-4-----4----4----|-8------|-4-----4----4----|-8------|-8------|
E|-6------|-6------|-6-----5----5----|-6------|-6-----5----5----|-6------|-6------|


E|--------|--------|--------|--------|--------|--------|--------|--------|--------|
B|--------|--------|--------|--------|--------|--------|--------|--------|--------|
G|--------|--------|--------|--------|--------|--------|--------|--------|--------|
D|--------|--------|--------|--------|--------|--------|--------|--------|--------|
A|--------|--------|--------|--------|--------|--------|--------|--------|--------|
E|--------|--------|--------|--------|--------|--------|--------|--------|--------|


E|-------18----|-14---16---18----|-18-----1----|-14----6----9----|-18-----1----|-14----6----9----|
B|-------------|-----------------|-11----------|-----------------|-11----------|-----------------|
G|-------------|-----------------|-------------|-----------------|-------------|-----------------|
D|-------------|-4----6----20----|--------11---|-4-----6----18---|--------11---|-4-----6----18---|
A|-------8-----|-----------------|-20-----11---|-4-----6----16---|-20-----11---|-4-----6----16---|
E|-------6-----|-2----4----6-----|-18-----9----|-14----16---16---|-18-----9----|-14----16---16---|


E|-18-----|-18-----1----|-14----6----9----|-18-----1----|-14----6----9----|-18-----1----|
B|-11-----|-11----------|-----------------|-11----------|-----------------|-11----------|
G|--------|-------------|-----------------|-------------|-----------------|-------------|
D|--------|--------11---|-4-----6----18---|--------11---|-4-----6----18---|--------11---|
A|-20-----|-20-----11---|-4-----6----16---|-20-----11---|-4-----6----16---|-20-----11---|
E|-18-----|-18-----9----|-14----16---16---|-18-----9----|-14----16---16---|-18-----9----|


E|-14----6----9----|-18-----1----|-14---16---18----|-6----1----16----|-9------|-11----13---6----|
B|-----------------|-11----------|-----------------|-----------------|--------|-----------------|
G|-----------------|-------------|-----------------|-----------------|--------|-20----10--------|
D|-4-----6----18---|--------11---|-4----6----20----|-8----20---6-----|-11-----|-8----------20---|
A|-4-----6----16---|-20-----11---|-----------------|-8----8----8-----|-4------|-6-----8----8----|
E|-14----16---16---|-18-----9----|-2----4----6-----|-6----18---4-----|-9------|------------6----|


E|-20-----|-6----1----16----|-9------|-13----11---9----|-6------|-6----1----16----|
B|--------|-----------------|--------|-----------------|--------|-----------------|
G|--------|-----------------|--------|-10----22---6----|--------|-----------------|
D|-22-----|-8----20---6-----|-11-----|-10----8----6----|-20-----|-8----20---6-----|
A|-22-----|-8----8----8-----|-4------|-8-----18---4----|-8------|-8----8----8-----|
E|-8------|-6----18---4-----|-9------|-20--------------|-6------|-6----18---4-----|


E|-9------|-11----13----4---|-18----------|
B|--------|-----------------|-------------|
G|--------|-20----10--------|-------------|
D|-11-----|-8-----------18--|-8-----------|
A|-4------|-6-----8-----6---|-------------|
E|-9------|-------------4---|-6-----------|









Track 4: Wings
Back to top
E|--------|------------------------------|---------------------|------------------------------|
B|--------|---------6---8---9---8---6----|-9----8----6---------|---------6---8---9---8---6----|
G|--------|-----6------------------------|-6--------------6----|-----6------------------------|
D|--------|-8----------------------------|---------------------|-8----------------------------|
A|--------|------------------------------|---------------------|------------------------------|
E|--------|------------------------------|---------------------|------------------------------|


E|---------------------------|------------------------------|---------------------|
B|-9-------9----8-------8----|---------6---8---9---8---6----|-9----8----6---------|
G|-----6------------6--------|-----6------------------------|-6--------------6----|
D|---------8------------8----|-8----------------------------|---------------------|
A|---------------------------|------------------------------|---------------------|
E|---------------------------|------------------------------|---------------------|


E|---------------------------------|---------------------------------|------------------------------|
B|---------6---8---9---8---6---8---|-9---------------------------9---|---------6---8---9---8---6----|
G|-----6---------------------------|-----6-------6---------------6---|-----6------------------------|
D|-8---------------------------8---|---------8-------8---------------|-8----------------------------|
A|---------------------------------|---------------------8-----------|------------------------------|
E|---------------------------------|-------------------------6-------|------------------------------|


E|---------------------|------------------------------|---------------------------|
B|-9----8----6---------|---------6---8---9---8---6----|-9-------9----8-------8----|
G|-6--------------6----|-----6------------------------|-----6------------6--------|
D|---------------------|-8----------------------------|---------8------------8----|
A|---------------------|------------------------------|---------------------------|
E|---------------------|------------------------------|---------------------------|


E|------6--------------------|-----------------6---1-----------|-----------------9--------9---|
B|-----------------------6---|---------------------------------|------------------------------|
G|----------8--------8-------|-------------------------3-------|------------------------------|
D|-8--------6----8-----------|-----6-------6---------------6---|---------6---6--------6---6---|
A|---------------------------|---------8-----------------------|-----6---6--------------------|
E|-6-------------------------|-8---------------------------8---|-8-----------8----------------|


E|-4---4-----6-------6-------|----------------|----------------|----------------|----------------|
B|---------------------------|----------------|----------------|----------------|----------------|
G|-----------6---------------|----------------|----------------|----------------|----------------|
D|-----6-----8---8-----------|----------------|----------------|----------------|----------------|
A|-----6---------------------|----------------|----------------|----------------|----------------|
E|-4---4-----6-----------6---|----------------|----------------|----------------|----------------|


E|----------------|----------------|----------------|----------------|----------------|
B|----------------|----------------|----------------|----------------|----------------|
G|----------------|----------------|----------------|----------------|----------------|
D|----------------|----------------|----------------|----------------|----------------|
A|----------------|----------------|----------------|----------------|----------------|
E|----------------|----------------|----------------|----------------|----------------|


E|----------------|----------------|----------------|----------------|----------------|
B|----------------|----------------|----------------|----------------|----------------|
G|----------------|----------------|----------------|----------------|----------------|
D|----------------|----------------|----------------|----------------|----------------|
A|----------------|----------------|----------------|----------------|----------------|
E|----------------|----------------|----------------|----------------|----------------|


E|----------------|----------------|----------------|----------------|----------------|
B|----------------|----------------|----------------|----------------|----------------|
G|----------------|----------------|----------------|----------------|----------------|
D|----------------|----------------|----------------|----------------|----------------|
A|----------------|----------------|----------------|----------------|----------------|
E|----------------|----------------|----------------|----------------|----------------|


E|----------------|----------------|----------------|----------------|----------------|
B|----------------|----------------|----------------|----------------|----------------|
G|----------------|----------------|----------------|----------------|----------------|
D|----------------|----------------|----------------|----------------|----------------|
A|----------------|----------------|----------------|----------------|----------------|
E|----------------|----------------|----------------|----------------|----------------|


E|----------------|----------------|----------------|----------------|----------------|
B|----------------|----------------|----------------|----------------|----------------|
G|----------------|----------------|----------------|----------------|----------------|
D|----------------|----------------|----------------|----------------|----------------|
A|----------------|----------------|----------------|----------------|----------------|
E|----------------|----------------|----------------|----------------|----------------|


E|----------------|----------------|----------------|----------------|----------------|
B|----------------|----------------|----------------|----------------|----------------|
G|----------------|----------------|----------------|----------------|----------------|
D|----------------|----------------|----------------|----------------|----------------|
A|----------------|----------------|----------------|----------------|----------------|
E|----------------|----------------|----------------|----------------|----------------|


E|----------------|----------------|----------------|----------------|----------------|
B|----------------|----------------|----------------|----------------|----------------|
G|----------------|----------------|----------------|----------------|----------------|
D|----------------|----------------|----------------|----------------|----------------|
A|----------------|----------------|----------------|----------------|----------------|
E|----------------|----------------|----------------|----------------|----------------|


E|-------18----|-18----18-16-------------------|-------------------------------------------|
B|-------------|-------------18-16-------------|-----------------------------16--16--------|
G|-------------|-------------------18-17-18-17-|----17-18-20-20--18-17-18-17--------18-----|
D|-------------|-------------------------------|-18--------------18--------------------18--|
A|-------------|-------------------------------|-------------------------------------------|
E|-------------|-------------------------------|-------------------------------------------|


E|---------------------------------------------16--|-18------4-----21-20-18-------16-18-20-21--|
B|---------------------------------16----16-18-----|-----18--6--9-----------18-18--------------|
G|---------------------------15-18----18-----------|-------------------------------------------|
D|---------------------15-18-----------------------|-------------------------------------------|
A|-------16-18-----1618----------------------------|-------------------------------------------|
E|-16-18-------1618--------------------------------|-------------------------------------------|


E|-18----------16-18-21-20-18-16-------------------|-----------------------------------------|
B|-----18--16--------------------18-16-------------|--------------------------------16--16---|
G|-------------------------------------18-17-18-17-|-20-18-17---2018-17-20-18-17-18----------|
D|-------------------------------------------------|----------18-----------------------------|
A|-------------------------------------------------|-----------------------------------------|
E|-------------------------------------------------|-----------------------------------------|


E|-------------16-18-20-21-21------16-18-------|-18-16----18-16----18-16----16-18-20-18---------18-|
B|-------16-18------------------18-------16-18-|-------18-------18-------18--------------18--16----|
G|-15-18---------------------------------------|---------------------------------------------------|
D|---------------------------------------------|---------------------------------------------------|
A|---------------------------------------------|---------------------------------------------------|
E|---------------------------------------------|---------------------------------------------------|


E|-20-18----------------------------------------------|----------------------------------------------------|
B|-------18-16----------------------------------------|----------------------------------------------18-16-|
G|-------------18-15----------------------------------|----------------------------------------18-20-------|
D|-------------------18-15----------------------------|-------20-18----20-18----20-18-20-18-20-------------|
A|-------------------------18-16-12-------------------|-16-16-------16-------16----------------------------|
E|----------------------------------18-16-13-11-9--8--|----------------------------------------------------|


E|-------------------------------------------------|----------------------------------------------------|
B|----16-------------------------------------------|----------------------------------------------------|
G|-18----17----------------------------------------|-------------------------------------------------18-|
D|----------18-16-18-------------------------------|----------------------------------------15-18-20----|
A|-------------------18-16----20-18----20-18-------|-------20-18----20-18----20-18-20----20-------------|
E|-------------------------16-------16-------16-16-|-18-18-------18-------18----------18----------------|


E|-20-18----------------------------------------------|----------------------------------------------------|
B|-------18-16----------------------------------------|----------------------------------------------18-16-|
G|-------------18-15----------------------------------|----------------------------------------18-20-------|
D|-------------------18-15----------------------------|-------20-18----20-18----20-18-20-18-20-------------|
A|-------------------------18-16-12-------------------|-16-16-------16-------16----------------------------|
E|----------------------------------18-16-13-11-9--8--|----------------------------------------------------|


E|-------------------------------------------------|----------------------------------------------------|
B|----16-------------------------------------------|----------------------------------------------------|
G|-18----17----------------------------------------|----------------------------------------------------|
D|----------18-16-18-------------------------------|----------------------------------------------------|
A|-------------------18-16----20-18----20-18-------|-------20-18----20-18----20-18-20----20----20-18----|
E|-------------------------16-------16-------16-16-|-18-18-------18-------18----------18----18-------18-|


E|-6------|-6-----5----7----|-6------|-6-----5----7----|-13-----|-------21--------21----------------21--18--|
B|--------|-----------------|--------|-----------------|--------|-------------------------------1920--------|
G|--------|-----------------|--------|-----------------|--------|----22--------22-------------18------------|
D|--------|-----------------|--------|-----------------|-20-----|-20--------20-----------20-----------------|
A|--------|-----------------|--------|-----------------|--------|---------------------16--------------------|
E|--------|-----------------|--------|-----------------|-6------|-6-----9---8-----6---9-----8-------6---9---|


E|-2-----13-14-1---13119-8---------1---13-14-21--|-21--18--13-11-21--20------------21-23-|
B|-------------------------1413------------------|-----------------------21--23-25-------|
G|----6------------------------1715----6---------|---------------------------------------|
D|---------------------8-----------19------------|-----8---------------------------------|
A|-------4-----3-----------4-------3---------4---|-------------------9-------------------|
E|-2-----------1---2-------------------2---------|-6---2---8-----9-------9---8-----9-----|


E|-28-26---------8--26-20--18--20--21--20--|-------21--------21----------------21--18--|
B|-------2826------------------------------|-------------------------------1920--------|
G|-----------2825--------------------------|----22--------22-------------18------------|
D|-----------------------------------------|-20--------20-----------20-----------------|
A|-------4-------3--3--6---6---3---4---6---|---------------------16--------------------|
E|-2-------------8--8--4---6---------------|-6-----9---8-----6---9-----8-------6---9---|


E|-2-----13-14-1---13119-8---------1---13-14-21--|-21--18--13-11-21--20------------21-23-|
B|-------------------------1413------------------|-----------------------21--23-25-------|
G|----6------------------------1715----6---------|---------------------------------------|
D|---------------------8-----------19------------|-----8---------------------------------|
A|-------4-----3-----------4-------3---------4---|-------------------9-------------------|
E|-2-----------1---2-------------------2---------|-6---2---8-----9-------9---8-----9-----|


E|-28-26---------8--26-20--18--20--21--20--|-------21--------21----------------21--18--|
B|-------2826------------------------------|-------------------------------1920--------|
G|-----------2825--------------------------|----22--------22-------------18------------|
D|-----------------------------------------|-20--------20-----------20-----------------|
A|-------4-------3--3--6---6---3---4---6---|---------------------16--------------------|
E|-2-------------8--8--4---6---------------|-6-----9---8-----6---9-----8-------6---9---|


E|-2-----13-14-1---13119-8---------1---13-14-21--|-21--18--13-11-21--20------------21-23-|
B|-------------------------1413------------------|-----------------------21--23-25-------|
G|----6------------------------1715----6---------|---------------------------------------|
D|---------------------8-----------19------------|-----8---------------------------------|
A|-------4-----3-----------4-------3---------4---|-------------------9-------------------|
E|-2-----------1---2-------------------2---------|-6---2---8-----9-------9---8-----9-----|


E|----------------|----------------|----------------|----------------|----------------|
B|----------------|----------------|----------------|----------------|----------------|
G|----------------|----------------|----------------|----------------|----------------|
D|----------------|----------------|----------------|----------------|----------------|
A|----------------|----------------|----------------|----------------|----------------|
E|----------------|----------------|----------------|----------------|----------------|


E|----------------|----------------|----------------|----------------|----------------|
B|----------------|----------------|----------------|----------------|----------------|
G|----------------|----------------|----------------|----------------|----------------|
D|----------------|----------------|----------------|----------------|----------------|
A|----------------|----------------|----------------|----------------|----------------|
E|----------------|----------------|----------------|----------------|----------------|


E|----------------|----------------|----------------|----------------|----------------|
B|----------------|----------------|----------------|----------------|----------------|
G|----------------|----------------|----------------|----------------|----------------|
D|----------------|----------------|----------------|----------------|----------------|
A|----------------|----------------|----------------|----------------|----------------|
E|----------------|----------------|----------------|----------------|----------------|


E|----------------|----------------|----------------|----------------|----------------|
B|----------------|----------------|----------------|----------------|----------------|
G|----------------|----------------|----------------|----------------|----------------|
D|----------------|----------------|----------------|----------------|----------------|
A|----------------|----------------|----------------|----------------|----------------|
E|----------------|----------------|----------------|----------------|----------------|


E|----------------|----------------|----------------|----------------|----------------|
B|----------------|----------------|----------------|----------------|----------------|
G|----------------|----------------|----------------|----------------|----------------|
D|----------------|----------------|----------------|----------------|----------------|
A|----------------|----------------|----------------|----------------|----------------|
E|----------------|----------------|----------------|----------------|----------------|


E|----------------|
B|----------------|
G|----------------|
D|----------------|
A|----------------|
E|----------------|









Track 5: Sun
Back to top
C|-------------|-------------|-------------|-------------|-------------|-------------|
C|-------------|-------------|-------------|-------------|-------------|-------------|
C|-------------|-------------|-------------|-------------|-------------|-------------|
C|-------------|-------------|-------------|-------------|-------------|-------------|
C|-------------|-------------|-------------|-------------|-------------|-------------|
C|-------------|-------------|-------------|-------------|-------------|-------------|


C|-------------|-------------|-------------|-------------|-------------|-------------|
C|-------------|-------------|-------------|-------------|-------------|-------------|
C|-------------|-------------|-------------|-------------|-------------|-------------|
C|-------------|-------------|-------------|-------------|-------------|-------------|
C|-------------|-------------|-------------|-------------|-------------|-------------|
C|-------------|-------------|-------------|-------------|-------------|-------------|


C|-------------|-------------|-------------|-------------|----------------|--------|
C|-------------|-------------|-------------|-------------|------------52--|-49-----|
C|-------------|-------------|-------------|-------------|------------45--|-57-----|
C|-------------|-------------|-------------|-------------|------------40--|-36-----|
C|-------------|-------------|-------------|-------------|----------------|--------|
C|-------------|-------------|-------------|-------------|----------------|--------|


C|-------------------------------------------------|------------------------|-------------------------------------|
C|-------------------------------------57----------|-49---------------------|-57----50-50----50-------------------|
C|-48--48--48------50------------------------------|-57----47-------49------|-------------47----48-47-------------|
C|-------------45------45--43--43--43--------------|-36---------40------40--|-------------------------45--45--45--|
C|-------------------------------------45-45-45-45-|------------------------|-------------------------------------|
C|-------------------------------------------------|------------------------|-------------------------------------|


C|--------------------49---|-57--------------------------------------|--------|-------------------------------|
C|-57--------4040----------|-50--48----------------------------------|--------|-------------------------------|
C|-49----40------45--------|---------47--47-45-45--------------------|-49-----|-------50--50--50--------------|
C|-------------------------|----------------------43-43----------40--|-57-----|-------------------47--45--45--|
C|-------------------------|----------------------------41-41-41-----|--------|-------------------------------|
C|-------------------------|-----------------------------------------|--------|-------------------------------|


C|-51--51------51-51-----51-51-51-51-----|-51--51------51-51-----51-51-51-51-----|
C|-57----------------49------------------|-57----------------49------------------|
C|---------------------------------------|---------------------------------------|
C|---------40------------------40--------|---------40------------------40--------|
C|---------------------------------------|---------------------------------------|
C|-36----------------36--------------36--|-36----------------36--------------36--|


C|-51--51------51-51-----51-51-51-51-----|-51--51------51-51-----51-51-51-51-----|
C|-57----------------49------------------|-57----------------49------------------|
C|---------------------------------------|---------------------------------------|
C|---------40------------------40--------|---------40------------------40--------|
C|---------------------------------------|---------------------------------------|
C|-36----------------36--------------36--|-36----------------36--------------36--|


C|-57---------------------------|-51--51------51-51-----51-51-51-51-----|-51--51------51-51-----51-51-51-51-----|
C|------------------------------|-57----------------49------------------|-57----------------49------------------|
C|-47---45---43-----------------|---------------------------------------|---------------------------------------|
C|-47---45---43---48-47-40--40--|---------40------------------40--------|---------40------------------40--------|
C|------------------------------|---------------------------------------|---------------------------------------|
C|------------------------------|-36----------------36--------------36--|-36----------------36--------------36--|


C|-51--51------51-51-----51-51-51-51-----|-51--51------51-51-----51-51-51-51-----|
C|-57----------------49------------------|-57----------------49------------------|
C|---------------------------------------|---------------------------------------|
C|---------40------------------40--------|---------40------------------40--------|
C|---------------------------------------|---------------------------------------|
C|-36----------------36--------------36--|-36----------------36--------------36--|


C|-51--51------51-51-----51-51-51-51-----|-51--51------51-51-----51-51-51-51-----|
C|-57----------------49------------------|-57----------------49------------------|
C|---------------------------------------|---------------------------------------|
C|---------40------------------40--------|---------40------------------40--------|
C|---------------------------------------|---------------------------------------|
C|-36----------------36--------------36--|-36----------------36--------------36--|


C|-51--51------51-51-----51-51-51-51-----|----------------------------------------|
C|-57----------------49------------------|-49------------------------57-----------|
C|---------------------------------------|-----------------------------------40---|
C|---------40------------------40--------|-40--40--40-40-40--40--40---------------|
C|---------------------------------------|-------------------------------36-------|
C|-36----------------36--------------36--|----------------------------------------|


C|-51--51------51-51-----51-51-51-51-----|-51--51------51-51-----51-51-51-51-----|
C|-57----------------49------------------|-57----------------49------------------|
C|---------------------------------------|---------------------------------------|
C|---------40------------------40--------|---------40------------------40--------|
C|---------------------------------------|---------------------------------------|
C|-36----------------36--------------36--|-36----------------36--------------36--|


C|-51--51------51-51-----51-51-51-51-----|-51--51------51-51-----51-51-51-51-----|
C|-57----------------49------------------|-57----------------49------------------|
C|---------------------------------------|---------------------------------------|
C|---------40------------------40--------|---------40------------------40--------|
C|---------------------------------------|---------------------------------------|
C|-36----------------36--------------36--|-36----------------36--------------36--|


C|-51--51------51-51-----51-51-51-51-----|-51--51------51-51-----51-51-51-51-----|
C|-57----------------49------------------|-57----------------49------------------|
C|---------------------------------------|---------------------------------------|
C|---------40------------------40--------|---------40------------------40--------|
C|---------------------------------------|---------------------------------------|
C|-36----------------36--------------36--|-36----------------36--------------36--|


C|-51--51------51-51-----51-51-51-51-----|----------------------------------------|
C|-57----------------49------------------|-49------------------------57-----------|
C|---------------------------------------|-----------------------------------40---|
C|---------40------------------40--------|-40--40--40-40-40--40--40---------------|
C|---------------------------------------|-------------------------------36-------|
C|-36----------------36--------------36--|----------------------------------------|


C|---------------------|----------------------------------|---------------------|---------------------------|
C|-57--------49--------|-57-------------------------------|-57--------49--------|-57--------49--------------|
C|---------------------|-----------5050-------------------|---------------------|---------------------------|
C|------40--------40---|------40-------48--47-------------|------40--------40---|------40-------40------40--|
C|---------------------|-----------------------45--45-----|---------------------|---------------------------|
C|-36--------36--------|-36---------------------------43--|-36--------36--------|-36--------36--------------|


C|---------------------|----------------------------------|---------------------|---------------------------|
C|-57--------49--------|-57-------------------------------|-57--------49--------|-57--------49--------------|
C|---------------------|-----------5050-------------------|---------------------|---------------------------|
C|------40--------40---|------40-------48--47-------------|------40--------40---|------40-------40------40--|
C|---------------------|-----------------------45--45-----|---------------------|---------------------------|
C|-36--------36--------|-36---------------------------43--|-36--------36--------|-36--------36--------------|


C|---------------------|----------------------------------|--------------------|-----------------------------------|
C|-57--------49--------|-57-------------------------------|-57-----------------|-49----------------57--------------|
C|---------------------|-----------5050-------------------|-49-----------------|-46----46--46--46--46--46--46--46--|
C|------40--------40---|------40-------48--47-------------|-40-----------------|-------40------40------40------40--|
C|---------------------|-----------------------45--45-----|-45-----------------|-----------------------------------|
C|-36--------36--------|-36---------------------------43--|--------------------|-36-36-------------36--------------|


C|---------------------------------------|-----------------------------------|---------------------------------------|
C|-49----------------57------------------|-49----------------57--------------|-49----------------57------------------|
C|-46----46--46--46--46--46----46----57--|-46----46--46--46--46--46--46--46--|-46----46--46--46--46--46--46----57----|
C|-------40------40------40-40-40-40-----|-------40------40------40------40--|-------40------40------40--40-40-40-40-|
C|---------------------------------------|-----------------------------------|---------------------------------------|
C|-36-36---------------------------------|-36-36-------------36--------------|-36-36---------------------------------|


C|-----------------------------------|---------------------------------------|-----------------------------------|
C|-49----------------57--------------|-49----------------57------------------|-49----------------57--------------|
C|-46----46--46--46--46--46--46--46--|-46----46--46--46--46--46----46----57--|-46----46--46--46--46--46--46--46--|
C|-------40------40------40------40--|-------40------40------40-40-40-40-----|-------40------40------40------40--|
C|-----------------------------------|---------------------------------------|-----------------------------------|
C|-36-36-------------36--------------|-36-36---------------------------------|-36-36-------------36--------------|


C|---------------------------------------|-----------------------------------|---------------------------------------|
C|-49----------------57------------------|-49----------------57--------------|-49----------------57------------------|
C|-46----46--46--46--46--46--46----57----|-46----46--46--46--46--46--46--46--|-46----46--46--46--46--46----46----57--|
C|-------40------40------40--40-40-40-40-|-------40------40------40------40--|-------40------40------40-40-40-40-----|
C|---------------------------------------|-----------------------------------|---------------------------------------|
C|-36-36---------------------------------|-36-36-------------36--------------|-36-36---------------------------------|


C|-----------------------------------|---------------------------------------|-----------------------------------|
C|-49----------------57--------------|-49----------------57------------------|-49----------------57--------------|
C|-46----46--46--46--46--46--46--46--|-46----46--46--46--46--46--46----57----|-46----46--46--46--46--46--46--46--|
C|-------40------40------40------40--|-------40------40------40--40-40-40-40-|-------40------40------40------40--|
C|-----------------------------------|---------------------------------------|-----------------------------------|
C|-36-36-------------36--------------|-36-36---------------------------------|-36-36-------------36--------------|


C|---------------------------------------|-----------------------------------|---------------------------------------|
C|-49----------------57------------------|-49----------------57--------------|-49----------------57------------------|
C|-46----46--46--46--46--46----46----57--|-46----46--46--46--46--46--46--46--|-46----46--46--46--46--46--46----57----|
C|-------40------40------40-40-40-40-----|-------40------40------40------40--|-------40------40------40--40-40-40-40-|
C|---------------------------------------|-----------------------------------|---------------------------------------|
C|-36-36---------------------------------|-36-36-------------36--------------|-36-36---------------------------------|


C|-----------------------------------------------------------------------|--------|
C|-49----5749574957495749574957495749574957495749574957495749574957495749|-57-----|
C|-----------------------------------------------------------------------|--------|
C|-48--------------------------------------------------------------------|-48-----|
C|-45--------------------------------------------------------------------|-45-----|
C|-----------------------------------------------------------------------|--------|


C|-----------------------------------------------------------------------|--------|
C|-49----5749574957495749574957495749574957495749574957495749574957495749|-57-----|
C|-----------------------------------------------------------------------|--------|
C|-48--------------------------------------------------------------------|-48-----|
C|-45--------------------------------------------------------------------|-45-----|
C|-----------------------------------------------------------------------|--------|


C|-----------------|--------|--------|--------|--------|--------|--------|--------|
C|-51----55--------|--------|--------|--------|--------|--------|--------|--------|
C|-----------------|--------|--------|--------|--------|--------|--------|--------|
C|-----------------|--------|--------|--------|--------|--------|--------|--------|
C|-----------------|--------|--------|--------|--------|--------|--------|--------|
C|-----------------|--------|--------|--------|--------|--------|--------|--------|


C|--------|-----------------------------------|-------------------------------------|
C|--------|-----40--------40------40--42--40--|-------40------40--------40------40--|
C|--------|-----------------------------------|-------------------------------------|
C|--------|-----------------------------------|-------------------------------------|
C|--------|-36------36-36-----36--------------|-36-36-----36------36-36-----36------|
C|--------|-----------------------------------|-------------------------------------|


C|-----------------------------------|----------------------------------------|-51--51------51-51-----51-51-51-51-----|
C|-----40--------40------40--42--40--|-49------------------------57-----------|-57----------------49------------------|
C|-----------------------------------|-----------------------------------40---|---------------------------------------|
C|-----------------------------------|-40--40--40-40-40--40--40---------------|---------40------------------40--------|
C|-36------36-36-----36--------------|-------------------------------36-------|---------------------------------------|
C|-----------------------------------|----------------------------------------|-36----------------36--------------36--|


C|-51--51------51-51-----51-51-51-51-----|-51--51------51-51-----51-51-51-51-----|
C|-57----------------49------------------|-57----------------49------------------|
C|---------------------------------------|---------------------------------------|
C|---------40------------------40--------|---------40------------------40--------|
C|---------------------------------------|---------------------------------------|
C|-36----------------36--------------36--|-36----------------36--------------36--|


C|-51--51------51-51-----51-51-51-51-----|-57---------------------------|-51--51------51-51-----51-51-51-51-----|
C|-57----------------49------------------|------------------------------|-57----------------49------------------|
C|---------------------------------------|-47---45---43-----------------|---------------------------------------|
C|---------40------------------40--------|-47---45---43---48-47-40--40--|---------40------------------40--------|
C|---------------------------------------|------------------------------|---------------------------------------|
C|-36----------------36--------------36--|------------------------------|-36----------------36--------------36--|


C|-51--51------51-51-----51-51-51-51-----|-51--51------51-51-----51-51-51-51-----|
C|-57----------------49------------------|-57----------------49------------------|
C|---------------------------------------|---------------------------------------|
C|---------40------------------40--------|---------40------------------40--------|
C|---------------------------------------|---------------------------------------|
C|-36----------------36--------------36--|-36----------------36--------------36--|


C|-51--51------51-51-----51-51-51-51-----|-51--51------51-51-----51-51-51-51-----|
C|-57----------------49------------------|-57----------------49------------------|
C|---------------------------------------|---------------------------------------|
C|---------40------------------40--------|---------40------------------40--------|
C|---------------------------------------|---------------------------------------|
C|-36----------------36--------------36--|-36----------------36--------------36--|


C|-51--51------51-51-----51-51-51-51-----|-51--51------51-51-----51-51-51-51-----|
C|-57----------------49------------------|-57----------------49------------------|
C|---------------------------------------|---------------------------------------|
C|---------40------------------40--------|---------40------------------40--------|
C|---------------------------------------|---------------------------------------|
C|-36----------------36--------------36--|-36----------------36--------------36--|


C|----------------------------------------|---------------------|----------------------------------|
C|-49------------------------57-----------|-57--------49--------|-57-------------------------------|
C|-----------------------------------40---|---------------------|-----------5050-------------------|
C|-40--40--40-40-40--40--40---------------|------40--------40---|------40-------48--47-------------|
C|-------------------------------36-------|---------------------|-----------------------45--45-----|
C|----------------------------------------|-36--------36--------|-36---------------------------43--|


C|---------------------|---------------------------|---------------------|----------------------------------|
C|-57--------49--------|-57--------49--------------|-57--------49--------|-57-------------------------------|
C|---------------------|---------------------------|---------------------|-----------5050-------------------|
C|------40--------40---|------40-------40------40--|------40--------40---|------40-------48--47-------------|
C|---------------------|---------------------------|---------------------|-----------------------45--45-----|
C|-36--------36--------|-36--------36--------------|-36--------36--------|-36---------------------------43--|


C|---------------------|----------------------------------|---------------------|----------------------------------|
C|-57--------49--------|-57-------------------------------|-57--------49--------|-57-------------------------------|
C|---------------------|-----------5050-------------------|---------------------|-----------5050-------------------|
C|------40--------40---|------40-------48--47-------------|------40--------40---|------40-------48--47-------------|
C|---------------------|-----------------------45--45-----|---------------------|-----------------------45--45-----|
C|-36--------36--------|-36---------------------------43--|-36--------36--------|-36---------------------------43--|


C|----------------------------------|-------------|
C|-57-------------------------------|-52----------|
C|---------40-----------------------|-49----------|
C|--------------------------40--40--|-57----------|
C|----------------------------------|-48----------|
C|-----36---------------------------|-45----------|









Track 6: Clouds
Back to top
E|--------|--------|--------|-------------|-------------|-------------|-------------|
B|--------|--------|--------|-------------|-------------|-------------|-------------|
G|-0------|-0------|-0------|-------------|-------------|-------------|-------------|
D|--------|--------|--------|-------------|-------------|-------------|-------------|
A|--------|--------|--------|-------------|-------------|-------------|-------------|
E|--------|--------|--------|-------------|-------------|-------------|-------------|


E|-------------|-------------|-------------|-------------|-------------|-------------|
B|-------------|-------------|-------------|-------------|-------------|-------------|
G|-------------|-------------|-------------|-------------|-------------|-------------|
D|-------------|-------------|-------------|-------------|-------------|-------------|
A|-------------|-------------|-------------|-------------|-------------|-------------|
E|-------------|-------------|-------------|-------------|-------------|-------------|


E|-------------|-------------|-------------|----------------|--------|-------------|
B|-------------|-------------|-------------|----------------|--------|-------------|
G|-------------|-------------|-------------|----------------|--------|-------------|
D|-------------|-------------|-------------|------------6---|-8------|-8------6----|
A|-------------|-------------|-------------|------------6---|-8------|-8------6----|
E|-------------|-------------|-------------|------------4---|-6------|-6------4----|


E|--------|-------------|--------|--------|--------|--------|---------------------------------------|
B|--------|-------------|--------|--------|--------|--------|---------------------------------------|
G|--------|-------------|--------|--------|--------|--------|---------------------------------------|
D|-4------|-4------4----|-6------|-6------|-8------|-8------|-8---8--8--8---8--8--8---8---11--11-11-|
A|-4------|-4------4----|-6------|-6------|-8------|-8------|-8---8--8--8---8--8--8---8---11--11-11-|
E|-2------|-2------2----|-4------|-4------|-6------|-6------|-6---6--6--6---6--6--6---6---9---9--9--|


E|---------------------------------------|---------------------------------------|
B|---------------------------------------|---------------------------------------|
G|-------------------------------6---5---|---------------------------------------|
D|-4---4--4--4---4--4--6---6--6--6---5---|-8---8--8--8---8--8--8---8---11--11-11-|
A|-4---4--4--4---4--4--6---6--6--4---3---|-8---8--8--8---8--8--8---8---11--11-11-|
E|-2---2--2--2---2--2--4---4--4----------|-6---6--6--6---6--6--6---6---9---9--9--|


E|---------------------------------------|--------|---------------------------------------|
B|---------------------------------------|--------|---------------------------------------|
G|-------------------------------6---5---|--------|---------------------------------------|
D|-4---4--4--4---4--4--6---6--6--6---5---|-8------|-8---8--8--8---8--8--8---8---11--11-11-|
A|-4---4--4--4---4--4--6---6--6--4---3---|-8------|-8---8--8--8---8--8--8---8---11--11-11-|
E|-2---2--2--2---2--2--4---4--4----------|-6------|-6---6--6--6---6--6--6---6---9---9--9--|


E|---------------------------------------|---------------------------------------|
B|---------------------------------------|---------------------------------------|
G|-------------------------------6---5---|---------------------------------------|
D|-4---4--4--4---4--4--6---6--6--6---5---|-8---8--8--8---8--8--8---8---11--11-11-|
A|-4---4--4--4---4--4--6---6--6--4---3---|-8---8--8--8---8--8--8---8---11--11-11-|
E|-2---2--2--2---2--2--4---4--4----------|-6---6--6--6---6--6--6---6---9---9--9--|


E|---------------------------------------|---------------------------------------|
B|---------------------------------------|---------------------------------------|
G|-------------------------------6---5---|---------------------------------------|
D|-4---4--4--4---4--4--6---6--6--6---5---|-8---8--8--8---8--8--8---8---11--11-11-|
A|-4---4--4--4---4--4--6---6--6--4---3---|-8---8--8--8---8--8--8---8---11--11-11-|
E|-2---2--2--2---2--2--4---4--4----------|-6---6--6--6---6--6--6---6---9---9--9--|


E|---------------------------------------|---------------------------------------|
B|---------------------------------------|---------------------------------------|
G|-------------------------------6---5---|---------------------------------------|
D|-4---4--4--4---4--4--6---6--6--6---5---|-8---8--8--8---8--8--8---8---11--11-11-|
A|-4---4--4--4---4--4--6---6--6--4---3---|-8---8--8--8---8--8--8---8---11--11-11-|
E|-2---2--2--2---2--2--4---4--4----------|-6---6--6--6---6--6--6---6---9---9--9--|


E|-----------------|---------------------------------------|---------------------------------------|
B|-----------------|---------------------------------------|---------------------------------------|
G|-----------------|---------------------------------------|-------------------------------6---5---|
D|-4----6----8-----|-8---8--8--8---8--8--8---8---11--11-11-|-4---4--4--4---4--4--6---6--6--6---5---|
A|-4----6----8-----|-8---8--8--8---8--8--8---8---11--11-11-|-4---4--4--4---4--4--6---6--6--4---3---|
E|-2----4----6-----|-6---6--6--6---6--6--6---6---9---9--9--|-2---2--2--2---2--2--4---4--4----------|


E|---------------------------------------|---------------------------------------|
B|---------------------------------------|---------------------------------------|
G|---------------------------------------|-------------------------------6---5---|
D|-8---8--8--8---8--8--8---8---11--11-11-|-4---4--4--4---4--4--6---6--6--6---5---|
A|-8---8--8--8---8--8--8---8---11--11-11-|-4---4--4--4---4--4--6---6--6--4---3---|
E|-6---6--6--6---6--6--6---6---9---9--9--|-2---2--2--2---2--2--4---4--4----------|


E|---------------------------------------|---------------------------------------|
B|---------------------------------------|---------------------------------------|
G|---------------------------------------|-------------------------------6---5---|
D|-8---8--8--8---8--8--8---8---11--11-11-|-4---4--4--4---4--4--6---6--6--6---5---|
A|-8---8--8--8---8--8--8---8---11--11-11-|-4---4--4--4---4--4--6---6--6--4---3---|
E|-6---6--6--6---6--6--6---6---9---9--9--|-2---2--2--2---2--2--4---4--4----------|


E|---------------------------------------|-----------------|-------------------------------------------------|
B|---------------------------------------|-----------------|-------------------------------------------------|
G|---------------------------------------|-----------------|-------------------------------------------------|
D|-8---8--8--8---8--8--8---8---11--11-11-|-4----6----8-----|-8---8---8---8---8---8---6---6---6---6---6---6---|
A|-8---8--8--8---8--8--8---8---11--11-11-|-4----6----8-----|-8---8---8---8---8---8---8---8---8---8---8---8---|
E|-6---6--6--6---6--6--6---6---9---9--9--|-2----4----6-----|-6---6---6---6---6---6---8---8---8---8---8---8---|


E|-------------------------------------------------|-------------------------------------------------|
B|-------------------------------------------------|-------------------------------------------------|
G|-6---6---6---6---6---6---8---8---8---6---6---6---|-8---8---8---8---8---8---10--10--10--8-----------|
D|-6---6---6---6---6---6---8---8---8---6---6---6---|-8---8---8---8---8---8---10--10--10--8---8---8---|
A|-4---4---4---4---4---4---6---6---6---4---4---4---|-6---6---6---6---6---6---8---8---8---6---8---8---|
E|-------------------------------------------------|-----------------------------------------6---6---|


E|-------------------------------------------------|-------------------------------------------------|
B|-------------------------------------------------|-------------------------------------------------|
G|-------------------------------------------------|-10--10--10--10--10--10--8---8---8---6---6---6---|
D|-10--10--10--10--10--10--10--10--10--13--13--13--|-10--10--10--10--10--10--8---8---8---6---6---6---|
A|-10--10--10--10--10--10--10--10--10--13--13--13--|-8---8---8---8---8---8---6---6---6---4---4---4---|
E|-8---8---8---8---8---8---8---8---8---11--11--11--|-------------------------------------------------|


E|-------------------------------------------------|-------------------------------------------------|
B|-------------------------------------------------|-------------------------------------------------|
G|-------------------------------------------------|-8---8---8---8---8---8---10--10--10--8-----------|
D|-8---8---8---8---8---8---8---8---8---8---8---8---|-8---8---8---8---8---8---10--10--10--8---8---8---|
A|-8---8---8---8---8---8---8---8---8---8---8---8---|-6---6---6---6---6---6---8---8---8---6---8---8---|
E|-6---6---6---6---6---6---6---6---6---6---6---6---|-----------------------------------------6---6---|


E|-------------------------------------------------|-------------------------------------------------|
B|-------------------------------------------------|-------------------------------------------------|
G|-------------------------------------------------|-------------------------------------------------|
D|-10--10--10--10--10--10--10--10--10--13--13--13--|-8---8---8---8---8---8---6---6---6---6---6---6---|
A|-10--10--10--10--10--10--10--10--10--13--13--13--|-8---8---8---8---8---8---8---8---8---8---8---8---|
E|-8---8---8---8---8---8---8---8---8---11--11--11--|-6---6---6---6---6---6---8---8---8---8---8---8---|


E|-------------------------------------------------|--------------------|---------------------------------------|
B|-------------------------------------------------|--------------------|---------------------------------------|
G|-6---6---6---6---6---6---8---8---8---6---6---6---|--------------------|---------------------------------------|
D|-6---6---6---6---6---6---8---8---8---6---6---6---|-8------------------|-8---8--8--8---8--8--8---8--8--6---8---|
A|-4---4---4---4---4---4---6---6---6---4---4---4---|-8------------------|-8---8--8--8---8--8--8---8--8--6---8---|
E|-------------------------------------------------|-6------------------|-6---6--6--6---6--6--6---6--6--4---6---|


E|-----------------------------------------|---------------------------------------|
B|-------------------------4--4--4---4--4--|---------------------------------------|
G|-6---6--6--6---6--6--6---6--6--6---6--6--|-------------------------------8---6---|
D|-6---6--6--6---6--6--6---6--6--6---6--6--|-6---6--6--6---6--6--6---6--6--8---6---|
A|-4---4--4--4---4--4--4---4--4--4---4--4--|-6---6--6--6---6--6--6---6--6--6---4---|
E|-----------------------------------------|-4---4--4--4---4--4--4---4--4----------|


E|---------------------------------------|---------------------------------------|
B|---------------------------------------|---------------------------------------|
G|---------------------------------------|---------------------------------------|
D|-8---8--8--8---8--8--8---8--8--8---8---|-8---8--8--8---8--8--8---8--8--6---8---|
A|-8---8--8--8---8--8--8---8--8--8---8---|-8---8--8--8---8--8--8---8--8--6---8---|
E|-6---6--6--6---6--6--6---6--6--6---6---|-6---6--6--6---6--6--6---6--6--4---6---|


E|-----------------------------------------|---------------------------------------|
B|-------------------------4--4--4---4--4--|---------------------------------------|
G|-6---6--6--6---6--6--6---6--6--6---6--6--|-------------------------------8---6---|
D|-6---6--6--6---6--6--6---6--6--6---6--6--|-6---6--6--6---6--6--6---6--6--8---6---|
A|-4---4--4--4---4--4--4---4--4--4---4--4--|-6---6--6--6---6--6--6---6--6--6---4---|
E|-----------------------------------------|-4---4--4--4---4--4--4---4--4----------|


E|---------------------------------------|---------------------------------------|
B|---------------------------------------|---------------------------------------|
G|---------------------------------------|---------------------------------------|
D|-8---8--8--8---8--8--8---8--8--8---8---|-8---8--8--8---8--8--8---8--8--6---8---|
A|-8---8--8--8---8--8--8---8--8--8---8---|-8---8--8--8---8--8--8---8--8--6---8---|
E|-6---6--6--6---6--6--6---6--6--6---6---|-6---6--6--6---6--6--6---6--6--4---6---|


E|-----------------------------------------|---------------------------------------|
B|-------------------------4--4--4---4--4--|---------------------------------------|
G|-6---6--6--6---6--6--6---6--6--6---6--6--|-------------------------------8---6---|
D|-6---6--6--6---6--6--6---6--6--6---6--6--|-6---6--6--6---6--6--6---6--6--8---6---|
A|-4---4--4--4---4--4--4---4--4--4---4--4--|-6---6--6--6---6--6--6---6--6--6---4---|
E|-----------------------------------------|-4---4--4--4---4--4--4---4--4----------|


E|---------------------------------------|---------------------------------------|
B|---------------------------------------|---------------------------------------|
G|---------------------------------------|---------------------------------------|
D|-8---8--8--8---8--8--8---8--8--8---8---|-8---8--8--8---8--8--8---8--8--6---8---|
A|-8---8--8--8---8--8--8---8--8--8---8---|-8---8--8--8---8--8--8---8--8--6---8---|
E|-6---6--6--6---6--6--6---6--6--6---6---|-6---6--6--6---6--6--6---6--6--4---6---|


E|-----------------------------------------|---------------------------------------|
B|-------------------------4--4--4---4--4--|---------------------------------------|
G|-6---6--6--6---6--6--6---6--6--6---6--6--|-------------------------------8---6---|
D|-6---6--6--6---6--6--6---6--6--6---6--6--|-6---6--6--6---6--6--6---6--6--8---6---|
A|-4---4--4--4---4--4--4---4--4--4---4--4--|-6---6--6--6---6--6--6---6--6--6---4---|
E|-----------------------------------------|-4---4--4--4---4--4--4---4--4----------|


E|---------------------------------------|-------------------------------------------------|
B|---------------------------------------|-------------------------------------------------|
G|---------------------------------------|-------------------------------------------------|
D|-8---8--8--8---8--8--8---8--8--8---8---|-------------------------------------------------|
A|-8---8--8--8---8--8--8---8--8--8---8---|-------------------------------------------------|
E|-6---6--6--6---6--6--6---6--6--6---6---|-6---6---6---6---6---6---9---8---9---8---9---8---|


E|-------------------------------------------------|-------------------------------------------------|
B|-------------------------------------------------|-------------------------------------------------|
G|-------------------------------------------------|-------------------------------------------------|
D|-------------------------------------------------|-------------------------------------------------|
A|-------------------------------------------------|-------------------------------------------------|
E|-2---2---2---2---2---2---5---4---5---7---5---4---|-6---6---6---6---6---6---9---8---9---8---9---8---|


E|-------------------------------------------------|-----------------|--------|--------|
B|-------------------------------------------------|-----------------|--------|--------|
G|-------------------------------------------------|-----------------|--------|--------|
D|-------------------------------------------------|-8---------------|--------|--------|
A|-------------------------------------------------|-------8---------|--------|--------|
E|-2---2---2---2---2---2---5---4---5---7---5---4---|------------6----|-6------|--------|


E|--------|--------|--------|--------|--------|--------|--------|--------|--------|
B|--------|--------|--------|--------|--------|--------|--------|--------|--------|
G|--------|--------|--------|--------|--------|--------|--------|--------|--------|
D|--------|--------|--------|--------|--------|--------|--------|--------|--------|
A|--------|--------|--------|--------|--------|--------|--------|--------|--------|
E|--------|--------|--------|--------|--------|--------|--------|--------|--------|


E|-----------------|---------------------------------------|---------------------------------------|
B|-----------------|---------------------------------------|---------------------------------------|
G|-----------------|---------------------------------------|-------------------------------6---5---|
D|-4----6----8-----|-8---8--8--8---8--8--8---8---11--11-11-|-4---4--4--4---4--4--6---6--6--6---5---|
A|-4----6----8-----|-8---8--8--8---8--8--8---8---11--11-11-|-4---4--4--4---4--4--6---6--6--4---3---|
E|-2----4----6-----|-6---6--6--6---6--6--6---6---9---9--9--|-2---2--2--2---2--2--4---4--4----------|


E|---------------------------------------|---------------------------------------|
B|---------------------------------------|---------------------------------------|
G|---------------------------------------|-------------------------------6---5---|
D|-8---8--8--8---8--8--8---8---11--11-11-|-4---4--4--4---4--4--6---6--6--6---5---|
A|-8---8--8--8---8--8--8---8---11--11-11-|-4---4--4--4---4--4--6---6--6--4---3---|
E|-6---6--6--6---6--6--6---6---9---9--9--|-2---2--2--2---2--2--4---4--4----------|


E|--------|---------------------------------------|---------------------------------------|
B|--------|---------------------------------------|---------------------------------------|
G|--------|---------------------------------------|-------------------------------6---5---|
D|-8------|-8---8--8--8---8--8--8---8---11--11-11-|-4---4--4--4---4--4--6---6--6--6---5---|
A|-8------|-8---8--8--8---8--8--8---8---11--11-11-|-4---4--4--4---4--4--6---6--6--4---3---|
E|-6------|-6---6--6--6---6--6--6---6---9---9--9--|-2---2--2--2---2--2--4---4--4----------|


E|---------------------------------------|---------------------------------------|
B|---------------------------------------|---------------------------------------|
G|---------------------------------------|-------------------------------6---5---|
D|-8---8--8--8---8--8--8---8---11--11-11-|-4---4--4--4---4--4--6---6--6--6---5---|
A|-8---8--8--8---8--8--8---8---11--11-11-|-4---4--4--4---4--4--6---6--6--4---3---|
E|-6---6--6--6---6--6--6---6---9---9--9--|-2---2--2--2---2--2--4---4--4----------|


E|---------------------------------------|---------------------------------------|
B|---------------------------------------|---------------------------------------|
G|---------------------------------------|-------------------------------6---5---|
D|-8---8--8--8---8--8--8---8---11--11-11-|-4---4--4--4---4--4--6---6--6--6---5---|
A|-8---8--8--8---8--8--8---8---11--11-11-|-4---4--4--4---4--4--6---6--6--4---3---|
E|-6---6--6--6---6--6--6---6---9---9--9--|-2---2--2--2---2--2--4---4--4----------|


E|---------------------------------------|-----------------|-------------------------------------------------|
B|---------------------------------------|-----------------|-------------------------------------------------|
G|---------------------------------------|-----------------|-------------------------------------------------|
D|-8---8--8--8---8--8--8---8---11--11-11-|-4----6----8-----|-8---8---8---8---8---8---6---6---6---6---6---6---|
A|-8---8--8--8---8--8--8---8---11--11-11-|-4----6----8-----|-8---8---8---8---8---8---8---8---8---8---8---8---|
E|-6---6--6--6---6--6--6---6---9---9--9--|-2----4----6-----|-6---6---6---6---6---6---8---8---8---8---8---8---|


E|-------------------------------------------------|-------------------------------------------------|
B|-------------------------------------------------|-------------------------------------------------|
G|-6---6---6---6---6---6---8---8---8---6---6---6---|-8---8---8---8---8---8---10--10--10--8-----------|
D|-6---6---6---6---6---6---8---8---8---6---6---6---|-8---8---8---8---8---8---10--10--10--8---8---8---|
A|-4---4---4---4---4---4---6---6---6---4---4---4---|-6---6---6---6---6---6---8---8---8---6---8---8---|
E|-------------------------------------------------|-----------------------------------------6---6---|


E|-------------------------------------------------|-------------------------------------------------|
B|-------------------------------------------------|-------------------------------------------------|
G|-------------------------------------------------|-------------------------------------------------|
D|-10--10--10--10--10--10--10--10--10--13--13--13--|-8---8---8---8---8---8---6---6---6---6---6---6---|
A|-10--10--10--10--10--10--10--10--10--13--13--13--|-8---8---8---8---8---8---8---8---8---8---8---8---|
E|-8---8---8---8---8---8---8---8---8---11--11--11--|-6---6---6---6---6---6---8---8---8---8---8---8---|


E|-------------------------------------------------|-------------------------------------------------|
B|-------------------------------------------------|-------------------------------------------------|
G|-6---6---6---6---6---6---8---8---8---6---6---6---|-10--10--10--10--10--10--8---8---8---6---6---6---|
D|-6---6---6---6---6---6---8---8---8---6---6---6---|-10--10--10--10--10--10--8---8---8---6---6---6---|
A|-4---4---4---4---4---4---6---6---6---4---4---4---|-8---8---8---8---8---8---6---6---6---4---4---4---|
E|-------------------------------------------------|-------------------------------------------------|


E|-------------------------------------------------|-------------------------------------------------|
B|-------------------------------------------------|-------------------------------------------------|
G|-------------------------------------------------|-------------------------------------------------|
D|-8---8---8---8---8---8---8---8---8---8---8---8---|-8---8---8---8---8---8---6---6---6---6---6---6---|
A|-8---8---8---8---8---8---8---8---8---8---8---8---|-8---8---8---8---8---8---8---8---8---8---8---8---|
E|-6---6---6---6---6---6---6---6---6---6---6---6---|-6---6---6---6---6---6---8---8---8---8---8---8---|


E|-------------------------------------------------|-------------------------------------------------|
B|-------------------------------------------------|-------------------------------------------------|
G|-6---6---6---6---6---6---8---8---8---6---6---6---|-8---8---8---8---8---8---10--10--10--8---10------|
D|-6---6---6---6---6---6---8---8---8---6---6---6---|-8---8---8---8---8---8---10--10--10--8---10--6---|
A|-4---4---4---4---4---4---6---6---6---4---4---4---|-6---6---6---6---6---6---8---8---8---6---8---6---|
E|-------------------------------------------------|---------------------------------------------4---|


E|-------------|
B|-------------|
G|-------------|
D|-8-----------|
A|-8-----------|
E|-6-----------|









Track 7: IRON FIST
Back to top
G|-------------|-------------|-------------|-------------|-------------|-------------|
D|-------------|-------------|-------------|-------------|-------------|-------------|
A|-------------|-------------|-------------|-------------|-------------|-------------|
E|-------------|-------------|-------------|-------------|-------------|-------------|


G|-------------|-------------|-------------|-------------|-------------|-------------|
D|-------------|-------------|-------------|-------------|-------------|-------------|
A|-------------|-------------|-------------|-------------|-------------|-------------|
E|-------------|-------------|-------------|-------------|-------------|-------------|


G|-------------|-------------|-------------|-------------|-------------|---------------------|
D|-------------|-------------|-------------|-------------|-------------|---------------------|
A|-------------|-------------|-------------|-------------|-------------|---------------------|
E|-------------|-------------|-------------|-------------|-------------|-6-----9----8----4---|


G|----------------|---------------------|----------------|---------------------|----------------|
D|----------------|---------------------|----------------|---------------------|----------------|
A|----------------|-------4----3--------|-----4----------|-------4----3--------|-----4----------|
E|-6---9---6------|-2---------------4---|-2-------2------|-4---------------4---|-6-------6------|


G|---------------------|---------------------------------|-----------------------------------------|
D|---------------------|---------------------------------|------------------------8--10-8----------|
A|---------------------|---------------------------------|---------------------8-----------11------|
E|-6-----9----8----8---|-11-9--11-11--11-9--8--6-----4---|-6--6--6--6--6---6-------------------9---|


G|---------------------------------6--5------|-----------------------------------------|
D|-4---4---4--4--4--4--6--6--6--6------------|------------------------8--10-8----------|
A|-------------------------------------------|---------------------8-----------11------|
E|-------------------------------------------|-6--6--6--6--6---6-------------------9---|


G|---------------------------------6--5------|---------------------------------------|
D|-4---4---4--4--4--4--6--6--6--6------------|---------------------8--8--8--8--8--8--|
A|-------------------------------------------|-------------8-------------------------|
E|-------------------------------------------|-6---6---6-------6---------------------|


G|-----------------------------------------|---------------------------------6--5------|
D|------------------------8--10-8----------|-4---4---4--4--4--4--6--6--6--6------------|
A|---------------------8-----------11------|-------------------------------------------|
E|-6--6--6--6--6---6-------------------9---|-------------------------------------------|


G|-----------------------------------------|---------------------------------6--5------|
D|------------------------8--10-8----------|-4---4---4--4--4--4--6--6--6--6------------|
A|---------------------8-----------11------|-------------------------------------------|
E|-6--6--6--6--6---6-------------------9---|-------------------------------------------|


G|-----------------------------------------|---------------------------------6--5------|
D|------------------------8--10-8----------|-4---4---4--4--4--4--6--6--6--6------------|
A|---------------------8-----------11------|-------------------------------------------|
E|-6--6--6--6--6---6-------------------9---|-------------------------------------------|


G|-----------------------------------------|-------------------------------------------------|
D|------------------------8--10-8----------|-------------------------------------8---8---8---|
A|---------------------8-----------11------|-------------------------------------------------|
E|-6--6--6--6--6---6-------------------9---|-2---2---2---4---4---4---6---6---6---------------|


G|-----------------------------------------|---------------------------------6--5------|
D|------------------------8--10-8----------|-4---4---4--4--4--4--6--6--6--6------------|
A|---------------------8-----------11------|-------------------------------------------|
E|-6--6--6--6--6---6-------------------9---|-------------------------------------------|


G|-----------------------------------------|---------------------------------6--5------|
D|------------------------8--10-8----------|-4---4---4--4--4--4--6--6--6--6------------|
A|---------------------8-----------11------|-------------------------------------------|
E|-6--6--6--6--6---6-------------------9---|-------------------------------------------|


G|-----------------------------------------|---------------------------------6--5------|
D|------------------------8--10-8----------|-4---4---4--4--4--4--6--6--6--6------------|
A|---------------------8-----------11------|-------------------------------------------|
E|-6--6--6--6--6---6-------------------9---|-------------------------------------------|


G|-----------------------------------------|-------------------------------------------------|
D|------------------------8--10-8----------|-------------------------------------8---8---8---|
A|---------------------8-----------11------|-------------------------------------------------|
E|-6--6--6--6--6---6-------------------9---|-2---2---2---4---4---4---6---6---6---------------|


G|-----------------------------------------|-------------------------------------------------|
D|-----------8-----------6---------6-------|-------------------------------------6---6---6---|
A|--------------8-----8-----8----------8---|-4---4---4---4---4---4---6---6---6---------------|
E|-6---6--6--------6-----------8-----------|-------------------------------------------------|


G|-----------8-----------10--------------------|-------------------------------------------------|
D|--------------8-----8-----8----------8-------|-------------------------------------------------|
A|-6---6--6--------6-----------8---6-----------|---------------------------------10--13--13--13--|
E|-----------------------------------------6---|-8---8---8---8---8---8---8---8-------------------|


G|-------------------------------------------------|-------------------------------------------------|
D|-------------10--10--10--8---8---8---6-----------|-------------------------------------------------|
A|-8---8---8-------------------------------4---4---|-------------8---8---8---------------------------|
E|-------------------------------------------------|-6---6---6---------------6---6---6---6---6---6---|


G|-----------8-----------10--------------------|-------------------------------------------------|
D|--------------8-----8-----8----------8-------|-------------------------------------------------|
A|-6---6--6--------6-----------8---6-----------|---------------------------------10--13--13--13--|
E|-----------------------------------------6---|-8---8---8---8---8---8---8---8-------------------|


G|-----------------------------------------|-------------------------------------------------|
D|-----------8-----------6---------6-------|-------------------------------------6---6---6---|
A|--------------8-----8-----8----------8---|-4---4---4---4---4---4---6---6---6---------------|
E|-6---6--6--------6-----------8-----------|-------------------------------------------------|


G|-3------------------|-------------------------------------|-6--------8-----------8--6---6---6---6---|
D|--------------------|-8----------------8---------6--------|----6--4-----6-----6---------------------|
A|--------------------|-----8-------------------6--------8--|----------------4------------------------|
E|--------------------|---------6---6-------6---------6-----|-----------------------------------------|


G|-------------------------------------|-----------------------------------|-------------------------------------|
D|------------6------------------------|-----------------11-8---8---8------|-8----------------8---------6--------|
A|---------------6-----6-------6---4---|-------------------------------6---|-----8-------------------6--------8--|
E|-4----7--8--------4------8-----------|-6---6---6---6---------------------|---------6---6-------6---------6-----|


G|-6--------8-----------8--6---6---6---6---|-------------------------------------|
D|----6--4-----6-----6---------------------|------------6------------------------|
A|----------------4------------------------|---------------6-----6-------6---4---|
E|-----------------------------------------|-4----7--8--------4------8-----------|


G|-----------------------------------|-------------------------------------|-6--------8-----------8--6---6---6---6---|
D|-----------------11-8---8---8------|-8----------------8---------6--------|----6--4-----6-----6---------------------|
A|-------------------------------6---|-----8-------------------6--------8--|----------------4------------------------|
E|-6---6---6---6---------------------|---------6---6-------6---------6-----|-----------------------------------------|


G|-------------------------------------|-----------------------------------|-------------------------------------|
D|------------6------------------------|-----------------11-8---8---8------|-8----------------8---------6--------|
A|---------------6-----6-------6---4---|-------------------------------6---|-----8-------------------6--------8--|
E|-4----7--8--------4------8-----------|-6---6---6---6---------------------|---------6---6-------6---------6-----|


G|-6--------8-----------8--6---6---6---6---|-------------------------------------|
D|----6--4-----6-----6---------------------|------------6------------------------|
A|----------------4------------------------|---------------6-----6-------6---4---|
E|-----------------------------------------|-4----7--8--------4------8-----------|


G|-----------------------------------|--------------------|---------------------|--------------------|
D|-----------------11-8---8---8------|--------------------|---------------------|--------------------|
A|-------------------------------6---|--------------------|------4----7---------|--------------------|
E|-6---6---6---6---------------------|-6-----6---9---9----|-2--------------7----|-6-----6---9---9----|


G|---------------------|--------|--------|--------|--------|--------|---------------------------------|
D|---------------------|--------|--------|--------|--------|--------|---------------------------------|
A|------4----7---------|--------|--------|--------|--------|--------|---------------------------------|
E|-2--------------7----|-6------|-6------|--------|--------|--------|-6---9---8---6---9---8---6---9---|


G|-----------------------------------|---------------------------------|---------------------------------------|
D|----------------8------------------|-----8---------------------------|---------------------------------------|
A|-----4---3---------4---3-------4---|-----------------9---------------|-------4--4--3--3----------3---4---6---|
E|-2-----------2-------------2-------|-6-------8---9-------9---8---9---|-2--2--------------4---6---------------|


G|---------------------------------|-----------------------------------|---------------------------------|
D|---------------------------------|----------------8------------------|-----8---------------------------|
A|---------------------------------|-----4---3---------4---3-------4---|-----------------9---------------|
E|-6---9---8---6---9---8---6---9---|-2-----------2-------------2-------|-6-------8---9-------9---8---9---|


G|-------------------------------------------------|-----------------------------------------|
D|-------------------------------------8---8---8---|------------------------8--10-8----------|
A|-------------------------------------------------|---------------------8-----------11------|
E|-2---2---2---4---4---4---6---6---6---------------|-6--6--6--6--6---6-------------------9---|


G|---------------------------------6--5------|-----------------------------------------|
D|-4---4---4--4--4--4--6--6--6--6------------|------------------------8--10-8----------|
A|-------------------------------------------|---------------------8-----------11------|
E|-------------------------------------------|-6--6--6--6--6---6-------------------9---|


G|---------------------------------6--5------|---------------------------------------|
D|-4---4---4--4--4--4--6--6--6--6------------|---------------------8--8--8--8--8--8--|
A|-------------------------------------------|-------------8-------------------------|
E|-------------------------------------------|-6---6---6-------6---------------------|


G|-----------------------------------------|---------------------------------6--5------|
D|------------------------8--10-8----------|-4---4---4--4--4--4--6--6--6--6------------|
A|---------------------8-----------11------|-------------------------------------------|
E|-6--6--6--6--6---6-------------------9---|-------------------------------------------|


G|-----------------------------------------|---------------------------------6--5------|
D|------------------------8--10-8----------|-4---4---4--4--4--4--6--6--6--6------------|
A|---------------------8-----------11------|-------------------------------------------|
E|-6--6--6--6--6---6-------------------9---|-------------------------------------------|


G|-----------------------------------------|---------------------------------6--5------|
D|------------------------8--10-8----------|-4---4---4--4--4--4--6--6--6--6------------|
A|---------------------8-----------11------|-------------------------------------------|
E|-6--6--6--6--6---6-------------------9---|-------------------------------------------|


G|-----------------------------------------|-------------------------------------------------|
D|------------------------8--10-8----------|-------------------------------------8---8---8---|
A|---------------------8-----------11------|-------------------------------------------------|
E|-6--6--6--6--6---6-------------------9---|-2---2---2---4---4---4---6---6---6---------------|


G|-----------------------------------------|-------------------------------------------------|
D|-----------8-----------6---------6-------|-------------------------------------6---6---6---|
A|--------------8-----8-----8----------8---|-4---4---4---4---4---4---6---6---6---------------|
E|-6---6--6--------6-----------8-----------|-------------------------------------------------|


G|-----------8-----------10--------------------|-------------------------------------------------|
D|--------------8-----8-----8----------8-------|-------------------------------------------------|
A|-6---6--6--------6-----------8---6-----------|---------------------------------10--13--13--13--|
E|-----------------------------------------6---|-8---8---8---8---8---8---8---8-------------------|


G|-----------------------------------------|-------------------------------------------------|
D|-----------8-----------6---------6-------|-------------------------------------6---6---6---|
A|--------------8-----8-----8----------8---|-4---4---4---4---4---4---6---6---6---------------|
E|-6---6--6--------6-----------8-----------|-------------------------------------------------|


G|-------------------------------------------------|-------------------------------------------------|
D|-------------10--10--10--8---8---8---6-----------|-------------------------------------------------|
A|-8---8---8-------------------------------4---4---|-------------8---8---8---------------------------|
E|-------------------------------------------------|-6---6---6---------------6---6---6---6---6---6---|


G|-----------------------------------------|-------------------------------------------------|
D|-----------8-----------6---------6-------|-------------------------------------6---6---6---|
A|--------------8-----8-----8----------8---|-4---4---4---4---4---4---6---6---6---------------|
E|-6---6--6--------6-----------8-----------|-------------------------------------------------|


G|-----------8-----------10--------------------|-------------|
D|--------------8-----8-----8----------10------|-------------|
A|-6---6--6--------6-----------8---6-----------|-------------|
E|-----------------------------------------4---|-6-----------|



← Back to top