Future Dreams

by IronFist

Guitar Pro Tab  |  v4.06  |  Posted on March 29, 2007, 10:56 a.m. ← Back

Guitar Pro Tab Summary

Album

Apocalypse

Song Author

IronFistCatepillan

Tabbed by

unknown

Instruments

1st → 1st Guitar / delay
2nd → Melody3
3rd → Drumssi´┐Żn
4th → 2nd Guitar / delay
5th → Keysa 4
6th → THE BASS

File Size

24 KB

Views

229






Tablature Sheet

Title: Future Dreams
Artist: IronFist
Album: Apocalypse
Author: IronFistCatepillan






Track 1: 1st Guitar / delay
Back to top
E|--------|-12----12--10-9--10--9---|-7---------------|----------------8--10--10--|
B|--------|-------------------------|-------7----5----|-8-----7--8--8-------------|
G|--------|-------------------------|-----------------|---------------------------|
D|--------|-------------------------|-----------------|---------------------------|
A|--------|-------------------------|-----------------|---------------------------|
E|--------|-------------------------|-----------------|---------------------------|


E|--------------------|-12-10-9--10-9-----9-----------|-14----12----|-10----10----10--|
B|-8----8--10---5-----|----------------12----12-12----|-------------|-----------------|
G|--------------------|-------------------------------|-------------|-----------------|
D|--------------------|-------------------------------|-------------|-----------------|
A|--------------------|-------------------------------|-------------|-----------------|
E|--------------------|-------------------------------|-------------|-----------------|


E|-12--12---12--15----|-12----12--10-9--10--9---|-7---------------|----------------8--10--10--|
B|--------------------|-------------------------|-------7----5----|-8-----7--8--8-------------|
G|--------------------|-------------------------|-----------------|---------------------------|
D|--------------------|-------------------------|-----------------|---------------------------|
A|--------------------|-------------------------|-----------------|---------------------------|
E|--------------------|-------------------------|-----------------|---------------------------|


E|--------------------|--------|--------|--------|----------------15--|-17-----|-15--15-15--15-15--15--15-14---12--|
B|-8----8--10---5-----|-5------|-5------|--------|--------15--17------|--------|-----------------------------------|
G|--------------------|--------|--------|--------|--------------------|--------|-----------------------------------|
D|--------------------|--------|--------|--------|--------------------|--------|-----------------------------------|
A|--------------------|--------|--------|--------|--------------------|--------|-----------------------------------|
E|--------------------|--------|--------|--------|--------------------|--------|-----------------------------------|


E|-17-----|-17--15------17--17--17---15--|-12-----12--10--|--------|-------------|
B|--------|---------17-------------------|----------------|--------|-10----12----|
G|--------|------------------------------|----------------|-12-----|-------------|
D|--------|------------------------------|----------------|--------|-------------|
A|--------|------------------------------|----------------|--------|-------------|
E|--------|------------------------------|----------------|--------|-------------|


E|-15-----|-0------0----|-3---2----0----0---2---3---|-5----5---7---5---3---2-----------|
B|--------|-------------|---------------------------|--------------------------5---3---|
G|--------|-------------|---------------------------|----------------------------------|
D|--------|-------------|---------------------------|----------------------------------|
A|--------|-------------|---------------------------|----------------------------------|
E|-0------|-0-----------|---------------------------|----------------------------------|


E|-7---5---3--------0-----|-0------|--------|--------|--------|---------------------------------|
B|-------------5----0-----|-0------|--------|--------|--------|---------------------------------|
G|------------------9-----|-9------|--------|--------|--------|---------------------------------|
D|------------------------|--------|--------|--------|--------|-9-------------------11------12--|
A|------------------------|--------|--------|--------|--------|-7---7---7---7---7---9-------10--|
E|------------------------|--------|--------|--------|--------|---------------------------------|


E|---------------------------------|---------------------------------|-------------------------------------|
B|---------------------------------|---------------------------------|-------------------------------------|
G|---------------------------------|---------------------------------|-------------------------------------|
D|-12------------------------------|-----------------------------14--|-14----------------------------------|
A|-10--10--10--10--10--9-----------|-10------------------10------12--|-12--10--9-------10-9--------9---10--|
E|-------------------------12--10--|-8---8---8---8---8---------------|-------------12--------12-10---------|


E|---------------------------------|---------------------------------|---------------------------------|
B|---------------------------------|---------------------------------|---------------------------------|
G|---------------------------------|---------------------------------|---------------------------------|
D|-9-------------------11------12--|-12------------------------------|-----------------------------14--|
A|-7---7---7---7---7---9-------10--|-10--10--10--10--10--9-----------|-10------------------10------12--|
E|---------------------------------|-------------------------12--10--|-8---8---8---8---8---------------|


E|-------------------------------------|-------------------------------------------|
B|-------------------------------------|-------------------------------------------|
G|-------------------------------------|-------------------------------------------|
D|-14----------------------------------|-5--5--5--5--5-----5--5--5--5--5-------5---|
A|-12--10--9-------10-9--------9---10--|-3--3--3--3--3-----3--3--3--3--3-------3---|
E|-------------12--------12-10---------|-------------------------------------------|


E|-------------------------------------------|-------------------------------------------|
B|-------------------------------------------|-------------------------------------------|
G|-------------------------------------------|-------------------------------------------|
D|-7--7--7--7--7-----7--7--7--7--7-------7---|-------------------------------------------|
A|-5--5--5--5--5-----5--5--5--5--5-------5---|-9--9--9--9--9-----9--9--9--9--9-------9---|
E|-------------------------------------------|-7--7--7--7--7-----7--7--7--7--7-------7---|


E|-------------|---12121212--12-----|-12-----|-128-8-8-8---8------|-8-7-7-7-7---7----7-5-5--5---5----|
B|-------------|--------------------|--------|--------------------|----------------------------------|
G|-------------|--------------------|--------|--------------------|----------------------------------|
D|-------------|--------------------|--------|--------------------|----------------------------------|
A|-10----12----|--------------------|--------|--------------------|----------------------------------|
E|-8-----10----|--------------------|--------|--------------------|----------------------------------|


E|-12----12--10-9--10--9---|-7---------------|----------------8--10--10--|--------------------|
B|-------------------------|-------7----5----|-8-----7--8--8-------------|-8----8--10---5-----|
G|-------------------------|-----------------|---------------------------|--------------------|
D|-------------------------|-----------------|---------------------------|--------------------|
A|-------------------------|-----------------|---------------------------|--------------------|
E|-------------------------|-----------------|---------------------------|--------------------|


E|--------------12----|---------8---10--10----|---------10--12--12----|-13----13---13------|
B|-8----8--10---------|-----8-----------------|-----10----------------|--------------------|
G|--------------------|-----------------------|-----------------------|--------------------|
D|--------------------|-10--------------------|-12--------------------|--------------------|
A|--------------------|-----------------------|-----------------------|--------------------|
E|--------------------|-----------------------|-----------------------|--------------------|


E|-14-----|---------8---10------10----|---------10--12--12----|-15-----|-15-----|-15-----|
B|--------|-----8---------------------|-----10----------------|--------|--------|--------|
G|--------|---------------------------|-----------------------|--------|--------|--------|
D|--------|-10------------------------|-12--------------------|--------|--------|--------|
A|--------|---------------------------|-----------------------|--------|--------|--------|
E|--------|---------------------------|-----------------------|--------|--------|--------|


E|--------|--------|--------|---------8---10--10----|---------10--12--12----|-13----13---13------|
B|--------|--------|--------|-----8-----------------|-----10----------------|--------------------|
G|--------|--------|--------|-----------------------|-----------------------|--------------------|
D|--------|--------|--------|-10--------------------|-12--------------------|--------------------|
A|--------|--------|--------|-----------------------|-----------------------|--------------------|
E|--------|--------|--------|-----------------------|-----------------------|--------------------|


E|-14-----|---------8---10------10----|---------10--12--12----|-15-----13---|-15-------------|
B|--------|-----8---------------------|-----10----------------|-------------|----------------|
G|--------|---------------------------|-----------------------|-------------|----------------|
D|--------|-10------------------------|-12--------------------|-------------|----------------|
A|--------|---------------------------|-----------------------|-------------|----------------|
E|--------|---------------------------|-----------------------|-------------|----------------|









Track 2: Drums
Back to top
C|---------------------|----------------------------------------------|-----------------------------------------|
C|---------------------|----------------------------------------------|-52--------------------------------------|
C|-42---42---42---42---|-46-44-44-44-44-44----44-46--42--46-444444-44-|-444444-44-44-44-44----44-44--------57---|
C|---------------------|-------------------40--------40---------------|--------------------40----------40-------|
C|---------------------|---------------------------------36-----------|------------------------------------36---|
C|---------------------|-36----------36----------36-------------------|-----------------------------------------|


C|----------------------------------------------|-------------------------------------------|
C|----------------------------------------------|-57----------------49----------------52----|
C|-46-44-44-44-44-44----44-46--42--46-444444-44-|-------------------------------------------|
C|-------------------40--------40---------------|-40-40-40-40-40-40-40-40-40-40-40-40-40----|
C|---------------------------------36-----------|-------------------------------------------|
C|-36----------36----------36-------------------|-------------------------------------------|


C|-------------------------------------|-----------------------------------|-----------------------------------|
C|-------------------------------------|-----------------------------------|-----------------------------------|
C|-51--51-51-51-51---------51--51--51--|-51--51-51-51--51--51--51------52--|-51--51--51-51-----57--51--51------|
C|---------------------46--42----------|---------------40----------40------|---------------40--------------40--|
C|-----------------40------40----------|-----------------------------------|-----------------------------------|
C|-36--------36----------------36------|-36--------36----------36----------|---------36------------------------|


C|--------------------------------|----------------------------------------------|
C|--------------------------------|----------------------------------------------|
C|-51--51-51-51--51--51--51-------|-46-44-44-44-44-44----44-46--42--46-444444-44-|
C|---------------40----------40---|-------------------40--------40---------------|
C|--------------------------------|---------------------------------36-----------|
C|-36--------36----------36-------|-36----------36----------36-------------------|


C|-----------------------------------------|----------------------------------------------|
C|-52--------------------------------------|----------------------------------------------|
C|-444444-44-44-44-44----44-44--------57---|-46-44-44-44-44-44----44-46--42--46-444444-44-|
C|--------------------40----------40-------|-------------------40--------40---------------|
C|------------------------------------36---|---------------------------------36-----------|
C|-----------------------------------------|-36----------36----------36-------------------|


C|-------------------------------------------|-------------------------------------------------|
C|-57----------------49----------------52----|-------------------------------------------------|
C|-------------------------------------------|-42-42-42-42-42-42-42-42-42-42-42-42-42-42-42-42-|
C|-40-40-40-40-40-40-40-40-40-40-40-40-40----|-------------40----------------------40----------|
C|-------------------------------------------|-------------------------------------------------|
C|-------------------------------------------|-36----------------------------36----------------|


C|-------------------------------------------------|-------------------------------------------------|
C|-------------------------------------------------|-------------------------------------------------|
C|-46-42-42-42-42-42-42-42-42-42-42-42-42-42-57-57-|-49-49-42-42-42-42-42-42-42-42-42-42-42-42-42-42-|
C|-------------------40----------------40----------|-------------40----------------------40----------|
C|-------------------------------------------------|-------------------------------------------------|
C|-36----------------------------36----------------|-36----------------------------36----------------|


C|-------------------------------------------------|-----------------------------------|
C|-------------------------------------------------|-----------------------------------|
C|-46-42-42-42-42-42-42-42-42-42-42-42-42-42-42-42-|-51--51--51--51----51--51--51--51--|
C|-------------------40----------------40----------|---------40----------------40------|
C|-------------------------------------------------|-----------------------------------|
C|-36----------------------------36----------------|-36-------------36-36--36----------|


C|---------------------------------|-----------------------------------|---------------------------------|
C|---------------------------------|-----------------------------------|---------------------------------|
C|-52--51--51--51--51--51--51--51--|-51--51--51--51----51--51--51--51--|-57--51--51--51--51--51--51--49--|
C|---------------------------------|---------40----------------40------|---------------------------------|
C|---------40--------------40------|-----------------------------------|---------40--------------40------|
C|-----36--------------36----------|-36-------------36-36--36----------|-----36--------------36----------|


C|-----------------------------------|---------------------------------|-----------------------------------|
C|-----------------------------------|---------------------------------|-----------------------------------|
C|-51--51--51--51----51--51--51--51--|-52--51--51--51--51--51--51--51--|-51--51--51--51----51--51--51--51--|
C|---------40----------------40------|---------------------------------|---------40----------------40------|
C|-----------------------------------|---------40--------------40------|-----------------------------------|
C|-36-------------36-36--36----------|-----36--------------36----------|-36-------------36-36--36----------|


C|---------------------------------|-------------------------------------------------|
C|---------------------------------|-------------------------------------------------|
C|-57--51--51--51--51--51--51--49--|-42-42-42-42-42-42-42-42-42-42-42-42-42-42-42-42-|
C|---------------------------------|-------------40----------------------40----------|
C|---------40--------------40------|-------------------------------------------------|
C|-----36--------------36----------|-36----------------------------36----------------|


C|-------------------------------------------------|-------------------------------------------------|
C|-------------------------------------------------|-------------------------------------------------|
C|-46-42-42-42-42-42-42-42-42-42-42-42-42-42-57-57-|-49-49-42-42-42-42-42-42-42-42-42-42-42-42-42-42-|
C|-------------------40----------------40----------|-------------40----------------------40----------|
C|-------------------------------------------------|-------------------------------------------------|
C|-36----------------------------36----------------|-36----------------------------36----------------|


C|-------------------------------------------------|-------------------------------------------|
C|-------------------------------------------------|-------------------------------------------|
C|-46-42-42-42-42-42-42-42-42-42-42-42-42-42-42-42-|-44-44-44-44-44-44-55----------46-44-44-44-|
C|-------------------40----------------40----------|-------------------------------40----------|
C|-------------------------------------------------|-------------------------------------------|
C|-36----------------------------36----------------|-------------------36--36--36--------------|


C|------------------------------------|-------------------------------------------|
C|------------------------------------|-------------------------------------------|
C|-44-44-44-44-44-44-55----------46---|-44-44-44-44-44-44-55----------46-44-44-44-|
C|-------------------------------40---|-------------------------------40----------|
C|------------------------------------|-------------------------------------------|
C|-------------------36--36--36-------|-------------------36--36--36--------------|


C|---------------------------|---------------------------------|---------------------------------|
C|---------------------------|---------------------------------|---------------------------------|
C|---------------------------|-57------------------------------|---------------------------------|
C|-----------40--40-40-40-40-|-----46--46--46--46--46--46--49--|-49--46--46--46--46--46--46--46--|
C|---------------------------|---------40--------------40------|---------40--------------40------|
C|---------------------------|-36------------------36----------|-----------------36--------------|


C|---------------------------------|-----------------------------------|---------------------------------|
C|---------------------------------|-----------------------------------|---------------------------------|
C|-52------------------------------|-----------------------------------|-57------------------------------|
C|-----46--46--46--46--46--46--49--|-49--46--46--46--46--46----46--57--|-----46--46--46--46--46--46--49--|
C|---------40--------------40------|-------------40------40-40-40------|---------40--------------40------|
C|-36------------------36----------|-----36----------36----------------|-36------------------36----------|


C|---------------------------------|---------------------------------|-----------------------------------|
C|---------------------------------|---------------------------------|-----------------------------------|
C|---------------------------------|-52------------------------------|-----------------------------------|
C|-49--46--46--46--46--46--46--46--|-----46--46--46--46--46--46--49--|-49--46--46--46--46--46----46--57--|
C|---------40--------------40------|---------40--------------40------|-------------40------40-40-40------|
C|-----------------36--------------|-36------------------36----------|-----36----------36----------------|


C|------------------------------------------|------------------------------------------|
C|------------------------------------------|------------------------------------------|
C|------------------------------------------|------------------------------------------|
C|-404040-40-40-40--40-40-40-40-40------40--|-404040-40-40-40--40-40-40-40-40------55--|
C|------------------------------------------|------------------------------------------|
C|------------------------------------------|------------------------------------------|


C|----------------------------------------------|----------------------------------------|
C|----------------------------------------------|----------------------------------------|
C|-505050-50-47-47------------------------------|-505050-----------------55--55--55--55--|
C|-----------------45-45-43-40--40--40--40--40--|--------45-45-47--43-43-45--45--45--45--|
C|----------------------------------------------|------------------------47--47--47--47--|
C|----------------------------------------------|-36-----------36--------36--36--36--36--|


C|-------------------------------------|-----------------------------------|-----------------------------------|
C|-------------------------------------|-----------------------------------|-----------------------------------|
C|-51--51-51-51-51---------51--51--51--|-51--51-51-51--51--51--51------52--|-51--51--51-51-----57--51--51------|
C|---------------------46--42----------|---------------40----------40------|---------------40--------------40--|
C|-----------------40------40----------|-----------------------------------|-----------------------------------|
C|-36--------36----------------36------|-36--------36----------36----------|---------36------------------------|


C|--------------------------------|----------------------------------------------|
C|--------------------------------|----------------------------------------------|
C|-51--51-51-51--51--51--51-------|-46-44-44-44-44-44----44-46--42--46-444444-44-|
C|---------------40----------40---|-------------------40--------40---------------|
C|--------------------------------|---------------------------------36-----------|
C|-36--------36----------36-------|-36----------36----------36-------------------|


C|-----------------------------------------|----------------------------------------------|
C|-52--------------------------------------|----------------------------------------------|
C|-444444-44-44-44-44----44-44--------57---|-46-44-44-44-44-44----44-46--42--46-444444-44-|
C|--------------------40----------40-------|-------------------40--------40---------------|
C|------------------------------------36---|---------------------------------36-----------|
C|-----------------------------------------|-36----------36----------36-------------------|


C|-------------------------------------------|-------------------------------------------------|
C|-57----------------49----------------52----|-57----------49----------50--50--50--------------|
C|-------------------------------------------|-------------------------------------47--47--45--|
C|-40-40-40-40-40-40-40-40-40-40-40-40-40----|-40--40--40--40--40--40--------------------------|
C|-------------------------------------------|-------------------------------------------------|
C|-------------------------------------------|-------------------------------------------------|


C|---------------------------------|---------------------------------|---------------------------------|
C|-51--51--51--51--51--51--51--51--|-51--51--51--51--51--51--51--51--|-51--51--51--51--51--51--51--51--|
C|---------------------------------|---------------------------------|---------------------------------|
C|-----40------40------40------40--|-----40------40------40------40--|-------------40----------40--40--|
C|---------------------------------|---------------------------------|---------------------------------|
C|-----36------36------36------36--|-----36------36------36------36--|-36------------------36----------|


C|---------------------------------|-------------------------------------------------|
C|-52--51--51--51--51--51--51--51--|-51----51----51----51----51----51----51----51----|
C|---------------------------------|-------------------------------------------------|
C|-----40------40------40------40--|-------40----------40----------40----------40----|
C|---------------------------------|-------------------------------------------------|
C|-----36------36------36------36--|-36-36-36-36-36-36-36-36-36-36-36-36-36-36-36-36-|


C|-------------------------------------------------|---------------------------------|
C|-51----51----51----51----51----51----51----51----|-51--51--51--51--51--51--51--51--|
C|-------------------------------------------------|---------------------------------|
C|-------40----------40----------40----------40----|-------------40----------40--40--|
C|-------------------------------------------------|---------------------------------|
C|-36-36-36-36-36-36-36-36-36-36-36-36-36-36-36-36-|-36------------------36----------|


C|---------------------------------|---------------------------------|--------|--------|
C|-51--51--51--51--51--51--51--51--|-51--51--51--51--51--51--51--51--|--------|--------|
C|---------------------------------|---------------------------------|--------|--------|
C|-------------40----------40--40--|-------------40----------40--40--|--------|--------|
C|---------------------------------|---------------------------------|--------|--------|
C|-36------------------36----------|-36------------------36----------|--------|--------|


C|--------|---------------------------------|---------------------------------|---------------------------------|
C|--------|-51--51--51--51--51--51--51--51--|-51--51--51--51--51--51--51--51--|-51--51--51--51--51--51--51--51--|
C|--------|---------------------------------|---------------------------------|---------------------------------|
C|--------|-----40------40------40------40--|-----40------40------40------40--|-------------40----------40--40--|
C|--------|---------------------------------|---------------------------------|---------------------------------|
C|--------|-----36------36------36------36--|-----36------36------36------36--|-36------------------36----------|


C|---------------------------------|-------------------------------------------------|
C|-52--51--51--51--51--51--51--51--|-51----51----51----51----51----51----51----51----|
C|---------------------------------|-------------------------------------------------|
C|-----40------40------40------40--|-------40----------40----------40----------40----|
C|---------------------------------|-------------------------------------------------|
C|-----36------36------36------36--|-36-36-36-36-36-36-36-36-36-36-36-36-36-36-36-36-|


C|-------------------------------------------------|--------------------|----------------|
C|-51----51----51----51----51----51----51----51----|-57-----------------|-57-------------|
C|-------------------------------------------------|-49-----------------|-49-------------|
C|-------40----------40----------40----------40----|--------40--40--40--|-40-------------|
C|-------------------------------------------------|--------------------|-36-------------|
C|-36-36-36-36-36-36-36-36-36-36-36-36-36-36-36-36-|--------------------|----------------|









Track 3: Melody
Back to top
E|--------|---------------------------------|--------------------------------|---------------------------------|
B|--------|---------------------------------|--------------------------------|---------------------------------|
G|--------|---------------------------------|--------------------------------|---------------------------------|
D|--------|---------------------5-------4---|---------------------5-----4----|---------------------5-------4---|
A|--------|-----2-------5---3---3---2---2---|-----2-------5---3---3-----2----|-----2-------5---3---3---2---2---|
E|--------|-0---0---3---3-------------------|-0---0---3---3------------------|-0---0---3---3-------------------|


E|-----------------------|-----------------------|-----------------------|-----------------------|
B|-----------------------|-----------------------|-----------------------|-----------------------|
G|-----------------------|---------9---9---9-----|-----------------------|-----------------------|
D|-----5-------7---------|-----9-------9---9-----|---------7---7---7-----|---------10------10----|
A|-3---3---5---5---2-----|-7-----------7---7-----|-----7-------7---7-----|-----10----------10----|
E|-----------------0-----|-----------------------|-5-----------5---5-----|-8-----------8---8-----|


E|---------------------------|---------------------------------|--------------------------------|
B|---------------------------|---------------------------------|--------------------------------|
G|---------------------------|---------------------------------|--------------------------------|
D|---------9------------7----|---------------------5-------4---|---------------------5-----4----|
A|-----9---9--------7---7----|-----2-------5---3---3---2---2---|-----2-------5---3---3-----2----|
E|-7-------7----5-------5----|-0---0---3---3-------------------|-0---0---3---3------------------|


E|---------------------------------|-----------------------|---------------------------------|
B|---------------------------------|-----------------------|---------------------------------|
G|---------------------------------|-----------------------|---------------------------------|
D|---------------------5-------4---|-----5-------7---------|-----5---5---5---5---7---7---7---|
A|-----2-------5---3---3---2---2---|-3---3---5---5---2-----|-3---3---3---3---5---5---5---5---|
E|-0---0---3---3-------------------|-----------------0-----|---------------------------------|


E|-----------------------------------|---------------------------------|--------------------------------|
B|-----------------------------------|---------------------------------|--------------------------------|
G|-----------------------------------|---------------------------------|--------------------------------|
D|-----5---5---5---7--5--5---5---5---|-----5---5---5---5---7---7---7---|-----5---5---5---7--5--5---5----|
A|-7---7---7---7---------7---7---7---|-3---3---3---3---5---5---5---5---|-7---7---7---7---------7---7----|
E|-----------------------------------|---------------------------------|--------------------------------|


E|---------------------------------|---------------------------------|---------------------------------|
B|---------------------------------|---------------------------------|---------------------------------|
G|---------------------------------|---------------------------------|---------------------------------|
D|-----5---5---5---5---4---4---4---|-4---5---5---5---5---5---5---5---|-----5---5---5---5---4---4---4---|
A|-3---3---3---3---2---2---2---2---|-7---7---7---7---7---7---7---7---|-3---3---3---3---2---2---2---2---|
E|---------------------------------|---------------------------------|---------------------------------|


E|---------------------------------|---------------------------------|---------------------------------|
B|---------------------------------|---------------------------------|---------------------------------|
G|---------------------------------|---------------------------------|---------------------------------|
D|-4---5---5---5---5---9---9---9---|-----5---5---5---5---4---4---4---|-4---5---5---5---5---5---5---5---|
A|-7---7---7---7---7---7---7---7---|-3---3---3---3---2---2---2---2---|-7---7---7---7---7---7---7---7---|
E|---------------------------------|---------------------------------|---------------------------------|


E|---------------------------------|---------------------------------|---------------------------------|
B|---------------------------------|---------------------------------|---------------------------------|
G|---------------------------------|---------------------------------|---------------------------------|
D|-----5---5---5---5---4---4---4---|-4---5---5---5---5---------------|-----5---5---5---5---7---7---7---|
A|-3---3---3---3---2---2---2---2---|-7---7---7---7-------2---2---2---|-3---3---3---3---5---5---5---5---|
E|---------------------------------|-----------------0---0---0---0---|---------------------------------|


E|-----------------------------------|---------------------------------|--------------------------------|
B|-----------------------------------|---------------------------------|--------------------------------|
G|-----------------------------------|---------------------------------|--------------------------------|
D|-----5---5---5---7--5--5---5---5---|-----5---5---5---5---7---7---7---|-----5---5---5---7--5--5---5----|
A|-7---7---7---7---------7---7---7---|-3---3---3---3---5---5---5---5---|-7---7---7---7---------7---7----|
E|-----------------------------------|---------------------------------|--------------------------------|


E|------------------------------|------------------------------|------------------------------|
B|------------------------------|------------------------------|------------------------------|
G|------------------------------|------------------------------|------------------------------|
D|------------------------------|------------------------------|------------------------------|
A|------2-----------------------|------2-----------------------|------2-----------------------|
E|-0-------0---3---2---1---2----|-0-------0---3---2---1---1----|-0-------0---3---2---1---2----|


E|-------------------------------|-----------------------|--------|-----------------------|
B|-------------------------------|-----------------------|--------|-----------------------|
G|-------------------------------|-----------------------|--------|-----------------------|
D|-------------------------------|-9-----9---11------12--|-12-----|-------------------14--|
A|-----2-----------2-------------|-7-----7---9-------10--|-10-----|-10----10--10------12--|
E|-0-------0---3-------3---0-----|-----------------------|--------|-8-----8---8-----------|


E|-------------------------------------|-----------------------|--------|-----------------------|
B|-------------------------------------|-----------------------|--------|-----------------------|
G|-------------------------------------|-----------------------|--------|-----------------------|
D|-14----------------------------------|-9-----9---11------12--|-12-----|-------------------14--|
A|-12--10--9-------10-9--------9---10--|-7-----7---9-------10--|-10-----|-10----10--10------12--|
E|-------------12--------12-10---------|-----------------------|--------|-8-----8---------------|


E|-------------------------------------|-------------------------------------------------|
B|-------------------------------------|-------------------------------------------------|
G|-------------------------------------|-------------------------------------------------|
D|-14----------------------------------|-------------------------------------------------|
A|-12--10--9-------10-9--------9---10--|-3--3--3--3--3--3--3--3--3--3--3--3--3--3--3--3--|
E|-------------12--------12-10---------|-------------------------------------------------|


E|-------------------------------------------------|-------------------------------------------------|
B|-------------------------------------------------|-------------------------------------------------|
G|-------------------------------------------------|-------------------------------------------------|
D|-------------------------------------------------|-------------------------------------------------|
A|-5--5--5--5--5--5--5--5--5--5--5--5--5--5--5--5--|-------------------------------------------------|
E|-------------------------------------------------|-7--7--7--7--7--7--7--7--7--7--7--7--7--7--7--7--|


E|-------------------------------------------------|-----------------------|-----------------------|
B|-------------------------------------------------|-----------------------|-----------------------|
G|-------------------------------------------------|---------9---9---9-----|-----------------------|
D|-------------------------------------------------|-----9-------9---9-----|---------7---7---7-----|
A|-------------------------------------------------|-7-----------7---7-----|-----7-------7---7-----|
E|-8--8--8--8--8--8--8--8--10-10-10-10-10-10-10-10-|-----------------------|-5-----------5---5-----|


E|-----------------------|---------------------------|---------------------------------|
B|-----------------------|---------------------------|---------------------------------|
G|-----------------------|---------------------------|---------------------------------|
D|---------10------10----|---------9------------7----|---------------------5-------4---|
A|-----10----------10----|-----9---9--------7---7----|-----2-------5---3---3---2---2---|
E|-8-----------8---8-----|-7-------7----5-------5----|-0---0---3---3-------------------|


E|--------------------------------|---------------------------------|-----------------------|
B|--------------------------------|---------------------------------|-----------------------|
G|--------------------------------|---------------------------------|-----------------------|
D|---------------------5-----4----|---------------------5-------4---|-----5-------7---------|
A|-----2-------5---3---3-----2----|-----2-------5---3---3---2---2---|-3---3---5---5---2-----|
E|-0---0---3---3------------------|-0---0---3---3-------------------|-----------------0-----|


E|-----------------------|--------|--------|--------|--------|--------|--------|---------------------------------|
B|-----------------------|--------|--------|--------|--------|--------|--------|---------------------------------|
G|-----------------------|--------|--------|--------|--------|--------|--------|---------------------------------|
D|-----5-------7---------|--------|--------|--------|--------|--------|--------|---------5---5---5---7---5---5---|
A|-3---3---5---5---2-----|--------|--------|--------|--------|--------|--------|-----5---5---3---3-----------3---|
E|-----------------0-----|--------|--------|--------|--------|--------|--------|-3---3---------------------------|


E|-----------------------|---------------------------------|---------------------------------|
B|-----------------------|---------------------------------|---------------------------------|
G|-----------------------|---------5---5---5---7---5---5---|---------8---8---7---7---7---7---|
D|---------5---5---5-----|-----5---5---3---3-----------7---|-7---8---8---8---7---7---7---7---|
A|-----3---3---3---3-----|-3---3---------------------------|-6---6-----------5---5-------5---|
E|-5---5-------5---5-----|---------------------------------|---------------------------------|


E|------------------------------|------------------------------|--------|--------|
B|------------------------------|------------------------------|--------|--------|
G|---------5---5----------------|---------5---5----------------|--------|--------|
D|-7---5---5-----------3---3----|-----5---5-----------3---5----|--------|--------|
A|-3---3-----------3---3---3----|-3---3-----------3---3---5----|--------|--------|
E|-------------1---1-------1----|-------------1---1------------|--------|--------|


E|--------|--------|--------|--------|--------|--------|
B|--------|--------|--------|--------|--------|--------|
G|--------|--------|--------|--------|--------|--------|
D|--------|--------|--------|--------|-5------|-5------|
A|--------|--------|--------|--------|-5------|-5------|
E|--------|--------|--------|--------|-3------|-3------|









Track 4: Keys
Back to top
E|--------|-12----12--10-9--10--9---|-7---------------|----------------8--10--10--|
B|--------|-------------------------|-------7----5----|-8-----7--8--8-------------|
G|--------|-------------------------|-----------------|---------------------------|
D|--------|-------------------------|-----------------|---------------------------|
A|--------|-------------------------|-----------------|---------------------------|
E|--------|-------------------------|-----------------|---------------------------|


E|--------------------|--------|--------|--------|-------------|-12----12--10-9--10--9---|
B|-8----8--10---5-----|--------|--------|--------|-------------|-------------------------|
G|--------------------|-21-----|--------|--------|-------------|-------------------------|
D|--------------------|-21-----|-19-----|-22-----|-21----19----|-------------------------|
A|--------------------|-19-----|-19-----|-22-----|-21----19----|-------------------------|
E|--------------------|--------|-17-----|-20-----|-19----17----|-------------------------|


E|-7---------------|----------------8--10--10--|--------------------|-20----22----|
B|-------7----5----|-8-----7--8--8-------------|-8----8--10---5-----|-------------|
G|-----------------|---------------------------|--------------------|-------------|
D|-----------------|---------------------------|--------------------|-17----19----|
A|-----------------|---------------------------|--------------------|-15----17----|
E|-----------------|---------------------------|--------------------|-------------|


E|-19-----|-20----22----|-19----24----|-20----19----|-15-----|-20----19----|-15----17----|
B|--------|-------------|-------------|-------------|--------|-------------|-------------|
G|--------|-------------|-------------|-------------|-0------|-------------|-0-----2-----|
D|--------|-17----19----|-------21----|-17----16----|-17-----|-17----16----|-17----19----|
A|-19-----|-15----17----|-19----19----|-15----14----|--------|-15----14----|-------------|
E|-19-----|-------------|-19----------|-------------|--------|-------------|-------------|


E|-20----19----|-15-----|-20----19----|-15----12----|-20----22----|-19-----|-20----22----|
B|-------------|--------|-------------|-------------|-------------|--------|-------------|
G|-------------|-0------|-------------|-0-----------|-------------|--------|-------------|
D|-17----16----|-17-----|-17----16----|-17----14----|-17----19----|--------|-17----19----|
A|-15----14----|--------|-15----14----|-------14----|-15----17----|-19-----|-15----17----|
E|-------------|--------|-------------|-------------|-------------|-19-----|-------------|


E|-19----24----|-24-----|--------|--------|--------|-24----24--26--26--27--|-27-----|
B|-------------|--------|--------|--------|--------|-----------------------|--------|
G|-------------|--------|--------|--------|--------|-----------------------|--------|
D|-------21----|-21-----|--------|--------|--------|-21----21--23--23--24--|-24-----|
A|-19----19----|-19-----|--------|--------|--------|-19----19--21--21--22--|-22-----|
E|-19----------|--------|--------|--------|--------|-----------------------|--------|


E|-20----20--27--27--17--|-17-----|-24----24--26--26--27--|-27-----|-20----20--27--27--17--|
B|-----------------------|--------|-----------------------|--------|-----------------------|
G|-----------------------|--------|-----------------------|--------|-----------------------|
D|-------------------26--|-26-----|-21----21--23--23--24--|-24-----|-------------------26--|
A|-22----22--22--22--24--|-24-----|-19----19--21--21--22--|-22-----|-22----22--22--22--24--|
E|-20----20--------------|--------|-----------------------|--------|-20----20--------------|


E|-17-----|--------|--------|--------|--------|--------|--------|--------|-------------|
B|--------|--------|--------|--------|--------|--------|--------|--------|-------------|
G|--------|--------|--------|--------|--------|-21-----|--------|--------|-------------|
D|-26-----|--------|--------|--------|--------|-21-----|-19-----|-22-----|-21----19----|
A|-24-----|--------|--------|--------|--------|-19-----|-19-----|-22-----|-21----19----|
E|--------|--------|--------|--------|--------|--------|-17-----|-20-----|-19----17----|


E|-12----12--10-9--10--9---|-7---------------|----------------8--10--10--|--------------------|
B|-------------------------|-------7----5----|-8-----7--8--8-------------|-8----8--10---5-----|
G|-------------------------|-----------------|---------------------------|--------------------|
D|-------------------------|-----------------|---------------------------|--------------------|
A|-------------------------|-----------------|---------------------------|--------------------|
E|-------------------------|-----------------|---------------------------|--------------------|


E|--------------------|-20-----|-22-----|-15-----|-14-----|-20-----|-22-----|-15-----|
B|-8----8--10---5-----|--------|--------|--------|--------|--------|--------|--------|
G|--------------------|--------|--------|--------|--------|--------|--------|--------|
D|--------------------|-17-----|-19-----|--------|--------|-17-----|-19-----|--------|
A|--------------------|-15-----|-17-----|-17-----|-16-----|-15-----|-17-----|-17-----|
E|--------------------|--------|--------|-15-----|-14-----|--------|--------|-15-----|


E|-17-----|-20-----|-23----22----|-20----13----13--|-20----20----22---|-20-----|-22-----|
B|--------|--------|-------------|-----------------|------------------|--------|--------|
G|--------|--------|-------------|-----------------|------------------|--------|--------|
D|--------|-17-----|-20----19----|-17--------------|-17----------17---|-17-----|-19-----|
A|-15-----|-15-----|-18----17----|-15----15----15--|-15----15----17---|-15-----|-17-----|
E|-17-----|--------|-------------|-------13----13--|------------------|--------|--------|


E|-15-----|-14-----|-20-----|-22-----|-15-----|-15-------------|
B|--------|--------|--------|--------|--------|----------------|
G|--------|--------|--------|--------|--------|----------------|
D|--------|--------|-17-----|-19-----|--------|----------------|
A|-17-----|-16-----|-15-----|-17-----|-17-----|-17-------------|
E|-15-----|-14-----|--------|--------|-15-----|-15-------------|









Track 5: 2nd Guitar / delay
Back to top
E|--------|--------|--------|--------|--------|---12-10-9--10-9-----9-----------------|
B|--------|--------|--------|--------|--------|------------------12----12-12---12---12|
G|--------|--------|--------|--------|--------|---------------------------------------|
D|--------|--------|--------|--------|--------|---------------------------------------|
A|--------|--------|--------|--------|--------|---------------------------------------|
E|--------|--------|--------|--------|--------|---------------------------------------|


E|---1414-14--14---141212-12----|-121010-10---101010-10----|-1012--12---12--1215---15---|
B|-12---------------------------|--------------------------|----------------------------|
G|------------------------------|--------------------------|----------------------------|
D|------------------------------|--------------------------|----------------------------|
A|------------------------------|--------------------------|----------------------------|
E|------------------------------|--------------------------|----------------------------|


E|-15--15--------------------------|--------------------------------|---------------------------------|
B|---------------------------------|--------------------------------|---------------------------------|
G|---------------------------------|--------------------------------|---------------------------------|
D|---------------------------------|--------------------------------|---------------------------------|
A|-----------------15--0---14--0---|-----------------15--15----14---|-----------------15--0---14--0---|
E|-12--0---15--0-------------------|-12--0---15--0------------------|-12--0---15--0-------------------|


E|-----------------|--------|--------|--------|------------------15-15|-1517-----17---17|
B|-----------------|--------|--------|--------|----------15--17-------|-----------------|
G|-----------------|--------|--------|--------|-----------------------|-----------------|
D|-5----7----2-----|-2------|-2------|--------|-----------------------|-----------------|
A|-3----5----2-----|-2------|-2------|--------|-----------------------|-----------------|
E|-----------0-----|-0------|-0------|--------|-----------------------|-----------------|


E|-1715--15-15--15-15--15--15-14---12--|-1217-----17---17|-1717--15------17--17--17---15--|
B|-------------------------------------|-----------------|-----------17-------------------|
G|-------------------------------------|-----------------|--------------------------------|
D|-------------------------------------|-----------------|--------------------------------|
A|-------------------------------------|-----------------|--------------------------------|
E|-------------------------------------|-----------------|--------------------------------|


E|-1512-----12--10--|-10--------------|-------------------|---15-----15---15|-15-----|
B|------------------|-----------------|---10----12----12--|-12--------------|--------|
G|------------------|---12-----12---12|-12----------------|-----------------|--------|
D|------------------|-----------------|-------------------|-----------------|-2------|
A|------------------|-----------------|-------------------|-----------------|-2------|
E|------------------|-----------------|-------------------|---0------0----0-|-0------|


E|-15-----|--------|-------12----|-12-----|-12-----12--12-14-|-15-----|--------|-12---12---12-10-------10----------|
B|--------|--------|-------------|--------|------------------|--------|--------|-----------------12-10----12-10----|
G|--------|--------|-------------|--------|------------------|--------|--------|--------------------------------12-|
D|--------|--------|-------------|--------|------------------|--------|--------|-----------------------------------|
A|--------|--------|-------------|--------|------------------|--------|--------|-----------------------------------|
E|-0------|--------|-------------|--------|------------------|--------|--------|-----------------------------------|


E|------------------------|-------------------------12-10-------12-15-17--|-17-----|
B|-12----15---15--13--12--|----------10-12-13-12-10-------12-10-----------|--------|
G|------------------------|-9--11-12--------------------------------------|--------|
D|------------------------|-----------------------------------------------|--------|
A|------------------------|-----------------------------------------------|--------|
E|------------------------|-----------------------------------------------|--------|


E|-12-10-------12---------12-10-12---12-|-15-12-------15-12-------15-12----------15---|
B|-------12-10------10-12---------------|-------15-12-------15-12-------15-12-12------|
G|--------------------------------------|---------------------------------------------|
D|--------------------------------------|---------------------------------------------|
A|--------------------------------------|---------------------------------------------|
E|--------------------------------------|---------------------------------------------|


E|-17----17--17--17--19--|-19-----|----------------|----------------|-------------------------------------------------|
B|-----------------------|--------|----------------|-15-----15--15--|-12-10----12-10----12-10----12-10----12-10----12-|
G|-----------------------|--------|-17-----17--17--|----------------|-------11-------11-------11-------11-------11----|
D|-----------------------|--------|----------------|----------------|-------------------------------------------------|
A|-----------------------|--------|----------------|----------------|-------------------------------------------------|
E|-----------------------|--------|----------------|----------------|-------------------------------------------------|


E|----------------------------------10-12---|-12-----|-12-----|-8------|-7-----5-----|
B|----------------------------10-12---------|--------|--------|--------|-------------|
G|----------------------9--12---------------|--------|--------|--------|-------------|
D|----------------10-12---------------------|--------|--------|--------|-------------|
A|-------8--10-12---------------------------|--------|--------|--------|-------------|
E|-8--10------------------------------------|--------|--------|--------|-------------|


E|---------------------------------|--------------------------------|---------------------------------|
B|---------------------------------|--------------------------------|---------------------------------|
G|---------------------------------|--------------------------------|---------------------------------|
D|---------------------------------|--------------------------------|---------------------------------|
A|-----------------15--0---14--0---|-----------------15--15----14---|-----------------15--0---14--0---|
E|-12--0---15--0-------------------|-12--0---15--0------------------|-12--0---15--0-------------------|


E|-----------------|-----------------|---------------------------------|---------------------------------|
B|-----------------|-----------------|---------------------------------|---------------------------------|
G|-----------------|-----------------|---------------------------------|---------------------------------|
D|-5----7----2-----|-5----7----2-----|-5-------------------------------|-7-------------------------------|
A|-3----5----2-----|-3----5----2-----|-3---3---3---3---3---3---3---3---|-5---5---5---5---5---5---5---5---|
E|-----------0-----|-----------0-----|---------------------------------|---------------------------------|


E|---------------------------------|---------------------------------|---------------------------------|
B|---------------------------------|---------------------------------|---------------------------------|
G|---------------------------------|---------------------------------|---------------------------------|
D|---------------------------------|-----------------------------5---|-5-------------------------------|
A|-5-----------5---5---------------|-4---------------------------3---|-3---3---3---3---3---3---3---3---|
E|-3---3---3---3---3---3---3---3---|-2---2---2---2-------3-----------|---------------------------------|


E|---------------------------------|---------------------------------|---------------------------------|
B|---------------------------------|---------------------------------|---------------------------------|
G|---------------------------------|---------------------------------|---------------------------------|
D|-7-------------------------------|---------------------------------|---------------------------------|
A|-5---5---5---5---5---5---5---5---|-5-------------------------------|-5-------------------------------|
E|---------------------------------|-3---3---3---3---3---3---3---3---|-3---3---3---3---3---3---3---3---|


E|---------------------------------|--------|--------|--------|---------------------------------|
B|---------------------------------|--------|--------|--------|---------------------------------|
G|---------------------------------|--------|--------|--------|---------------------------------|
D|---------------------------------|--------|--------|--------|-5-------------------------------|
A|-5-------------------------------|--------|--------|--------|-3---3---3---3---3---3---3---3---|
E|-3---3---3---3---3---3---3---3---|--------|--------|--------|---------------------------------|


E|---------------------------------|---------------------------------|---------------------------------|
B|---------------------------------|---------------------------------|---------------------------------|
G|---------------------------------|---------------------------------|---------------------------------|
D|-7-------------------------------|---------------------------------|-----------------------------5---|
A|-5---5---5---5---5---5---5---5---|-5-----------5---5---------------|-4---------------------------3---|
E|---------------------------------|-3---3---3---3---3---3---3---3---|-2---2---2---2-------3-----------|


E|---------------------------------|---------------------------------|-------------|
B|---------------------------------|---------------------------------|-------------|
G|---------------------------------|---------------------------------|-------------|
D|-5-------------------------------|-7-------------------------------|-------------|
A|-3---3---3---3---3---3---3---3---|-5---5---5---5---5---5---5---5---|-5------3----|
E|---------------------------------|---------------------------------|-3------1----|


E|----------------|
B|----------------|
G|----------------|
D|----------------|
A|-5--------------|
E|-3--------------|









Track 6: THE BASS
Back to top
G|--------|--------|--------|--------|--------|-----------------------|------------------------------|
D|--------|--------|--------|--------|--------|-----------------------|------------------------------|
A|--------|--------|--------|--------|--------|-----------------7-----|-------------7----------------|
E|--------|--------|--------|--------|--------|-0---0---0---0---------|-5---5---5--------0---5---5---|


G|---------------------------------|---------------------------------|---------------------|
D|---------------------------------|---------------------------------|---------------------|
A|---------------------7---8---10--|-9---9---7---7-------------------|-----------3----2----|
E|-8---8---8---8---8---------------|-----------------5---5---5---0---|-0----3--------------|


G|--------------------------|---------------------|------------------------|---------------------------|
D|--------------------------|---------------------|------------------------|---------------------------|
A|-----------3---3-----2----|-----------3----2----|-3----5--------2---2----|-3---3---3----5---5---5----|
E|-0----3-------------------|-0----3--------------|-----------0------------|---------------------------|


G|------------------------------|---------------------------|---------------------------------|
D|------------------------------|---------------------------|---------------------------------|
A|-------------------------7----|-3---3---3----5---5---5----|-----------------7---7---7---7---|
E|-0---0---0---0---0---0--------|---------------------------|-0---0---0---0-------------------|


G|---------------------------------|---------------------------------|---------------------------------|
D|---------------------------------|---------------------------------|---------------------------------|
A|-3---3---3---3---2---2---2---2---|---------------------------------|-3---3---3---3---2---2---2---2---|
E|---------------------------------|-0---0---0---0---0---0---0---0---|---------------------------------|


G|---------------------------------|---------------------------------|---------------------------------|
D|---------------------------------|---------------------------------|---------------------------------|
A|-----------------7---7---7---7---|-3---3---3---3---2---2---2---2---|---------------------------------|
E|-0---0---0---0-------------------|---------------------------------|-0---0---0---0---0---0---0---0---|


G|---------------------------------|---------------------------------|---------------------------|
D|---------------------------------|---------------------------------|---------------------------|
A|-3---3---3---3---2---2---2---2---|---------------------------------|-3---3---3----5---5---5----|
E|---------------------------------|-0---0---0---0---0---0---0---0---|---------------------------|


G|------------------------------|---------------------------|---------------------------------|
D|------------------------------|---------------------------|---------------------------------|
A|-------------------------7----|-3---3---3----5---5---5----|-----------------7---7---7---7---|
E|-0---0---0---0---0---0--------|---------------------------|-0---0---0---0-------------------|


G|------------------------------|------------------------------|------------------------------|
D|------------------------------|------------------------------|------------------------------|
A|------2-----------------------|------2-----------------------|------2-----------------------|
E|-0-------0---3---2---1---2----|-0-------0---3---2---1---1----|-0-------0---3---2---1---2----|


G|-----------------------------------|-----------------------------------|-----------------------------------|
D|-----------------------------------|-----------------------------------|-----------------------------------|
A|-----2-----------2-----------------|-7---7--7--7---7---7---9-------10--|-10--10-10-10--10--10--9-----------|
E|-0-------0---3-------3---0----12---|-----------------------------------|---------------------------12--10--|


G|---------------------------------|---------------------------------|-----------------------------------|
D|---------------------------------|---------12--14--14--14--14--14--|-----------------------------------|
A|---------------------10------12--|-12--12--------------------------|-7---7--7--7---7---7---9-------10--|
E|-8---8---8---8---8---------------|---------------------------------|-----------------------------------|


G|-----------------------------------|---------------------------------|---------------------------------|
D|-----------------------------------|---------------------------------|---------12--14--14--12----------|
A|-10--10-10-10--10--10--9-----------|---------------------10------12--|-12--12------------------14--12--|
E|---------------------------12--10--|-8---8---8---8---8---------------|---------------------------------|


G|-----------------------------------------|-----------------------------------------|
D|-----------------------------------------|-----------------------------------------|
A|-3--3--3--3--3--3--3--3---3--3---3---3---|-5--5--5--5--5--5--5--5---5--5---5---5---|
E|-----------------------------------------|-----------------------------------------|


G|---------------------------------|-----------------------------------------------|
D|---------------------------------|-------------------------------------------12--|
A|---------------------------------|-------------------------------------12-14-----|
E|-7---7---7---7---7---7---7---7---|-8--8--8--8--8--8--8--8--10-10-10-12-----------|


G|-----------------------|------------------------------|---------------------------------|
D|-----------------------|------------------------------|---------------------------------|
A|-----------------7-----|-------------7----------------|---------------------7---8---10--|
E|-0---0---0---0---------|-5---5---5--------0---5---5---|-8---8---8---8---8---------------|


G|---------------------------------|---------------------|--------------------------|
D|---------------------------------|---------------------|--------------------------|
A|-9---9---7---7-------------------|-----------3----2----|-----------3---3-----2----|
E|-----------------5---5---5---0---|-0----3--------------|-0----3-------------------|


G|---------------------|------------------------|---------------------------|-------------------------------------------------|
D|---------------------|------------------------|-------------------2---2---|-------------------------------------------------|
A|-----------3----2----|-3----5--------2---2----|-3----5--------2-----------|-3--3--3--3--3--3--3--3--3--3--3--3--3--3--3--3--|
E|-0----3--------------|-----------0------------|-----------0---------------|-------------------------------------------------|


G|-------------------------------------------------|-------------------------------------------------|
D|-------------------------------------------------|-------------------------------------------------|
A|-5--5--5--5--5--5--5--5--5--5--5--5--5--5--5--5--|-------------------------------------------------|
E|-------------------------------------------------|-3--3--3--3--3--3--3--3--3--3--3--3--3--3--3--3--|


G|-------------------------------------------|-------------------------------------------------|
D|-------------------------------------------|-------------------------------------------------|
A|-------------------------------------------|-3--3--3--3--3--3--3--3--3--3--3--3--3--3--3--3--|
E|-2--2--2--2--2--2--2--2--3--2---3--2---3---|-------------------------------------------------|


G|-------------------------------------------------|--------------------------------|
D|-------------------------------------------------|-------------------5---0--------|
A|-5--5--5--5--5--5--5--5--5--5--5--5--5--5--5--5--|---------------5----------------|
E|-------------------------------------------------|-3---0---3--0--------------0----|


G|--------------------------------|-----------5----0---------------|----8--------------------0---7----|
D|-----5-----------------5---7----|----5---0-----------7---5-------|-------------8--------------------|
A|--------3---5-------0-----------|-3--------------------------7---|-6-----0--6------0---5------------|
E|-5--------------5---------------|--------------------------------|----------------------------------|


G|----5------------------------|-5--0-------------------------------|-------------------------------------------------|
D|----------------3----3-------|-------5--0--------------------5----|-------------------------------------------------|
A|-3-------0-------------------|-------------3--0------3--3---------|-3--3--3--3--3--3--3--3--3--3--3--3--3--3--3--3--|
E|-------------1----------1----|-------------------1----------------|-------------------------------------------------|


G|-------------------------------------------------|-------------------------------------------------|
D|-------------------------------------------------|-------------------------------------------------|
A|-5--5--5--5--5--5--5--5--5--5--5--5--5--5--5--5--|-------------------------------------------------|
E|-------------------------------------------------|-3--3--3--3--3--3--3--3--3--3--3--3--3--3--3--3--|


G|-------------------------------------------|-------------------------------------------------|
D|-------------------------------------------|-------------------------------------------------|
A|-------------------------------------------|-3--3--3--3--3--3--3--3--3--3--3--3--3--3--3--3--|
E|-2--2--2--2--2--2--2--2--3--2---3--2---3---|-------------------------------------------------|


G|-------------------------------------------------|-----------------------|-------------|
D|-------------------------------------------------|-----------------------|-------------|
A|-5--5--5--5--5--5--5--5--5--5--5--5--5--5--5--5--|-----------------------|-------------|
E|-------------------------------------------------|-3----3----3--3--3-----|-3-----------|



← Back to top