There's No Hope.....The Angel & Human Lok

by IronFist

Guitar Pro Tab  |  v4.06  |  Posted on March 29, 2007, 10:58 a.m. ← Back

Guitar Pro Tab Summary

Album

Insanity Over Control

Song Author

IronFistCatepillan

Tabbed by

unknown

Instruments

1st → Angel 1
2nd → Anger 3
3rd → Black Palace
4th → IronFist- Lok
5th → Pissusi´┐Żn
6th → Blood 7
7th → Dusta 6

File Size

6 KB

Views

299

Notice

read fuckers






Tablature Sheet

Title: There's No Hope.....The Angel & Human Lok
Artist: IronFist
Album: Insanity Over Control
Author: IronFistCatepillan






Track 1: Angel
Back to top
E|--------|--------|--------|--------|--------|--------|--------|--------|---------------------------------|
B|--------|--------|--------|--------|--------|--------|--------|--------|---------------------------------|
G|--------|--------|--------|--------|--------|--------|--------|--------|---------------------------------|
D|--------|--------|--------|--------|--------|--------|--------|--------|---------------------------------|
A|--------|--------|--------|--------|--------|--------|--------|--------|---------------------------------|
E|--------|--------|--------|--------|-0------|-0------|-0------|-0------|-0---0---0---0---0---0---0---0---|


E|---------------------------------|---------------------------------|---------------------------------|
B|---------------------------------|---------------------------------|---------------------------------|
G|---------------------------------|---------------------------------|---------------------------------|
D|---------------------------------|---------------------------------|---------------------------------|
A|---------------------------------|---------------------------------|---------------------------------|
E|-0---0---0---0---0---0---0---0---|-0---0---0---0---0---0---0---0---|-0---0---0---0---0---0---0---0---|


E|---------------------------------|---------------------------------|---------------------------------|
B|---------------------------------|---------------------------------|---------------------------------|
G|---------------------------------|---------------------------------|---------------------------------|
D|-2-------------------------------|---------------------------------|---------------------------------|
A|-2-------------------------------|---------2---------------2---5---|---------2---------------2---5---|
E|-0-------------------------------|-0---0---0---0---0---0---2---3---|-0---0---0---0---0---0---2---3---|


E|---------------------------------|-----------------------------------------|---------------------------------|
B|---------------------------------|-----------------------------------------|---------------------------------|
G|---------------------------------|-----------------2--0--------0-----------|---------------------------------|
D|---------------------------------|-----------------------4--2-----4--2-----|---------------------------------|
A|---------3-----------5---5-------|---------3----------------------------3--|---------2---------------2---5---|
E|-1---1---1---1---1---3---3---0---|-1---1---1---1---1--1--1--1--------------|-0---0---0---0---0---0---2---3---|


E|---------------------------------|--------|--------|--------|--------|--------|--------|
B|---------------------------------|--------|--------|--------|--------|--------|--------|
G|---------------------------------|--------|--------|--------|--------|--------|--------|
D|---------------------------------|--------|--------|--------|--------|--------|--------|
A|---------2---------------2---5---|--------|--------|--------|--------|--------|--------|
E|-0---0---0---0---0---0---2---3---|--------|--------|--------|--------|--------|--------|


E|--------|--------|--------|--------|--------|--------|--------|--------|--------|
B|--------|--------|--------|--------|--------|--------|--------|--------|--------|
G|--------|--------|--------|--------|--------|--------|--------|--------|--------|
D|--------|--------|--------|--------|--------|--------|--------|--------|--------|
A|--------|--------|--------|--------|--------|--------|--------|--------|--------|
E|--------|--------|--------|--------|--------|--------|--------|--------|--------|


E|--------|--------|--------|--------|--------|--------|--------|--------|--------|
B|--------|--------|--------|--------|--------|--------|--------|--------|--------|
G|--------|--------|--------|--------|--------|--------|--------|--------|--------|
D|--------|--------|--------|--------|--------|--------|--------|--------|--------|
A|--------|--------|--------|--------|--------|--------|--------|--------|--------|
E|--------|--------|--------|--------|--------|--------|--------|--------|--------|


E|--------|--------|--------|--------|--------|--------|--------|--------|--------|
B|--------|--------|--------|--------|--------|--------|--------|--------|--------|
G|--------|--------|--------|--------|--------|--------|--------|--------|--------|
D|--------|--------|--------|--------|--------|--------|--------|--------|--------|
A|--------|--------|--------|--------|--------|--------|--------|--------|--------|
E|--------|--------|--------|--------|--------|--------|--------|--------|--------|


E|--------|--------|--------|--------|--------|--------|--------|--------|--------|
B|--------|--------|--------|--------|--------|--------|--------|--------|--------|
G|--------|--------|--------|--------|--------|--------|--------|--------|--------|
D|--------|--------|--------|--------|--------|--------|--------|--------|--------|
A|--------|--------|--------|--------|--------|--------|--------|--------|--------|
E|--------|--------|--------|--------|--------|--------|--------|--------|--------|


E|--------|--------|--------|--------|--------|--------|--------|--------|--------|
B|--------|--------|--------|--------|--------|--------|--------|--------|--------|
G|--------|--------|--------|--------|--------|--------|--------|--------|--------|
D|--------|--------|--------|--------|--------|--------|--------|--------|--------|
A|--------|--------|--------|--------|--------|--------|--------|--------|--------|
E|--------|--------|--------|--------|--------|--------|--------|--------|--------|


E|--------|--------|--------|
B|--------|--------|--------|
G|--------|--------|--------|
D|--------|--------|--------|
A|--------|--------|--------|
E|--------|--------|--------|









Track 2: Black Palace
Back to top
E|--------|----------------------------------------|--------|--------|--------|--------|
B|--------|----------------------------------------|--------|--------|--------|--------|
G|--------|----------------------------------------|--------|--------|--------|--------|
D|--------|--------2-2-2-2-2-2-2-2-2-2-2-2-2-2-2-2-|-2------|-2------|-2------|-2------|
A|-2------|-2--------2-2-2-2-2-2-2-2-2-2-2-2-2-2-2-|-2------|-2------|-2------|-2------|
E|-0------|-0--------0-0-0-0-0-0-0-0-0-0-0-0-0-0-0-|-0------|-0------|-0------|-0------|


E|--------|--------|--------|--------|--------|--------|----------------|-12-----|
B|--------|--------|-0------|-0------|-0------|--------|-0--------------|--------|
G|--------|--------|-1------|-1------|-1------|-1------|-1--------------|--------|
D|-2------|-2------|-2------|-2------|-2------|-3------|-2--------------|-14-----|
A|-2------|-2------|-2------|-2------|-2------|-3------|-2--------------|-14-----|
E|-0------|-0------|-0------|-0------|-0------|-1------|-0--------------|-12-----|


E|-12-----|-13-----|-13-----|-12-----|-12-----|--------|--------|--------|--------|
B|--------|--------|--------|--------|--------|--------|--------|--------|--------|
G|--------|--------|--------|--------|--------|--------|--------|--------|--------|
D|-14-----|-15-----|-15-----|-14-----|-14-----|--------|--------|--------|--------|
A|-14-----|-15-----|-15-----|-14-----|-14-----|--------|--------|--------|--------|
E|-12-----|-13-----|-13-----|-12-----|-12-----|--------|--------|--------|--------|


E|--------|--------|--------|--------|--------|--------|--------|--------|--------|
B|--------|--------|--------|--------|--------|--------|--------|--------|--------|
G|--------|--------|--------|--------|--------|--------|--------|--------|--------|
D|--------|--------|--------|--------|--------|--------|--------|--------|--------|
A|--------|--------|--------|--------|--------|--------|--------|--------|--------|
E|--------|--------|--------|--------|--------|--------|--------|--------|--------|


E|--------|--------|--------|--------|--------|--------|--------|--------|--------|
B|--------|--------|--------|--------|--------|--------|--------|--------|--------|
G|--------|--------|--------|--------|--------|--------|--------|--------|--------|
D|--------|--------|--------|--------|--------|--------|--------|--------|--------|
A|--------|--------|--------|--------|--------|--------|--------|--------|--------|
E|--------|--------|--------|--------|--------|--------|--------|--------|--------|


E|--------|--------|--------|--------|--------|--------|--------|--------|--------|
B|--------|--------|--------|--------|--------|--------|--------|--------|--------|
G|--------|--------|--------|--------|--------|--------|--------|--------|--------|
D|--------|--------|--------|--------|--------|--------|--------|--------|--------|
A|--------|--------|--------|--------|--------|--------|--------|--------|--------|
E|--------|--------|--------|--------|--------|--------|--------|--------|--------|


E|--------|--------|--------|--------|--------|--------|--------|--------|--------|
B|--------|--------|--------|--------|--------|--------|--------|--------|--------|
G|--------|--------|--------|--------|--------|--------|--------|--------|--------|
D|--------|--------|--------|--------|--------|--------|--------|--------|--------|
A|--------|--------|--------|--------|--------|--------|--------|--------|--------|
E|--------|--------|--------|--------|--------|--------|--------|--------|--------|


E|--------|--------|--------|--------|--------|--------|--------|--------|--------|
B|--------|--------|--------|--------|--------|--------|--------|--------|--------|
G|--------|--------|--------|--------|--------|--------|--------|--------|--------|
D|--------|--------|--------|--------|--------|--------|--------|--------|--------|
A|--------|--------|--------|--------|--------|--------|--------|--------|--------|
E|--------|--------|--------|--------|--------|--------|--------|--------|--------|


E|--------|--------|--------|--------|--------|
B|--------|--------|--------|--------|--------|
G|--------|--------|--------|--------|--------|
D|--------|--------|--------|--------|--------|
A|--------|--------|--------|--------|--------|
E|--------|--------|--------|--------|--------|









Track 3: Anger
Back to top
G|--------|--------|--------|--------|--------|--------|--------|-0------|-0------|
D|--------|--------|--------|--------|--------|--------|-0------|-0------|-0------|
A|--------|--------|--------|--------|-0------|-0------|-0------|-0------|-0------|
E|-0------|-0------|-0------|-0------|-0------|-0------|-0------|-0------|-0------|


G|-0------|-0------|-0------|-0-------------0----|-0-----0-----|-0-----0-----|-0-----0-----|
D|-0------|-0------|-0------|-0-------------0----|-0-----0-----|-0-----0-----|-3-----3-----|
A|-0------|-0------|-0------|-0-------------0----|-0-----0-----|-0-----0-----|-3-----3-----|
E|-0------|-0------|-0------|-0-------------0----|-0-----0-----|-0-----0-----|-1-----1-----|


G|-0-----0----0----|-0-----0-----|-0-----0-----|--------|--------|--------|--------|
D|-3-----3----3----|-0-----0-----|-0-----0-----|--------|--------|--------|--------|
A|-3-----3----3----|-0-----0-----|-0-----0-----|--------|--------|--------|--------|
E|-1-----1----1----|-0-----0-----|-0-----0-----|--------|--------|--------|--------|


G|--------|--------|--------|--------|--------|--------|--------|--------|--------|
D|--------|--------|--------|--------|--------|--------|--------|--------|--------|
A|--------|--------|--------|--------|--------|--------|--------|--------|--------|
E|--------|--------|--------|--------|--------|--------|--------|--------|--------|


G|--------|--------|--------|--------|--------|--------|--------|--------|--------|
D|--------|--------|--------|--------|--------|--------|--------|--------|--------|
A|--------|--------|--------|--------|--------|--------|--------|--------|--------|
E|--------|--------|--------|--------|--------|--------|--------|--------|--------|


G|--------|--------|--------|--------|--------|--------|--------|--------|--------|
D|--------|--------|--------|--------|--------|--------|--------|--------|--------|
A|--------|--------|--------|--------|--------|--------|--------|--------|--------|
E|--------|--------|--------|--------|--------|--------|--------|--------|--------|


G|--------|--------|--------|--------|--------|--------|--------|--------|--------|
D|--------|--------|--------|--------|--------|--------|--------|--------|--------|
A|--------|--------|--------|--------|--------|--------|--------|--------|--------|
E|--------|--------|--------|--------|--------|--------|--------|--------|--------|


G|--------|--------|--------|--------|--------|--------|--------|--------|--------|
D|--------|--------|--------|--------|--------|--------|--------|--------|--------|
A|--------|--------|--------|--------|--------|--------|--------|--------|--------|
E|--------|--------|--------|--------|--------|--------|--------|--------|--------|


G|--------|--------|--------|--------|--------|
D|--------|--------|--------|--------|--------|
A|--------|--------|--------|--------|--------|
E|--------|--------|--------|--------|--------|









Track 4: Piss
Back to top
C|-------------|-------------|-------------|-------------|-------------|-------------|
C|-------------|-------------|-------------|-------------|-------------|-------------|
C|-------------|-------------|-------------|-------------|-------------|-------------|
C|-------------|-------------|-------------|-------------|-------------|-------------|
C|-------------|-------------|-------------|-------------|-------------|-------------|
C|-------------|-------------|-------------|-------------|-------------|-------------|


C|-------------|----------------------------------------|---------------------------------|
C|-------------|----------------------------------------|---------------------------------|
C|-------------|--------57495749574957495749574957495749|-57--------------49--------------|
C|-------------|----------------------------------------|-49--------------57--------------|
C|-------------|----------------------------------------|-40--40--40--40--40--40--40--40--|
C|-------------|----------------------------------------|-52------------------------------|


C|---------------------------------|---------------------------------|-------------------------------------|
C|---------------------------------|---------------------------------|-------------------------------------|
C|-57--------------49--------------|-57--------------49--------------|-57--------------49------------------|
C|-49--------------57--------------|-49--------------57--------------|-49--------------57------------------|
C|-40--40--40--40--40--40--40--40--|-40--40--40--40--40--40--40--40--|-40--40--40--40--40--40--40--40--40--|
C|-52------------------------------|-52------------------------------|-52----------------------------------|


C|--------|-----------------------------------|-------------------------------------------|
C|--------|-----------------------------------|-------------------------------------------|
C|-57-----|-----------------------------------|-------------------------------------------|
C|-49-----|-46--46--46--46--46----46--46--46--|-46----46----46----46-46-46----46--46--46--|
C|--------|---------40----------------40------|-------------40--------------------40------|
C|--------|-36-----------------36-36----------|-36-36-36-36----36-36-------36-36----------|


C|-----------------------------------|-----------------------------------|-----------------------------------|
C|-----------------------------------|-----------------------------------|-----------------------------------|
C|-----------------------------------|------------------------------57---|-----------------------------------|
C|-46--46--46--46--46----46--46--46--|-46--46--46--46--46----46--46-46---|-46--46--46--46--46----46--46--46--|
C|---------40----------------40------|---------40----------------40-40---|---------40----------------40------|
C|-36-----------------36-36----------|-36-----------------36-36--36------|-36-----------------36-36----------|


C|-------------------------------------------|--------|--------|--------|--------|
C|-------------------------------------------|--------|--------|--------|--------|
C|-------------------------------------------|--------|--------|--------|--------|
C|-46----46----46----46-46-46----46--46--46--|--------|--------|--------|--------|
C|-------------40--------------------40------|--------|--------|--------|--------|
C|-36-36-36-36----36-36-------36-36----------|--------|--------|--------|--------|


C|--------|--------|--------|--------|--------|--------|--------|--------|--------|
C|--------|--------|--------|--------|--------|--------|--------|--------|--------|
C|--------|--------|--------|--------|--------|--------|--------|--------|--------|
C|--------|--------|--------|--------|--------|--------|--------|--------|--------|
C|--------|--------|--------|--------|--------|--------|--------|--------|--------|
C|--------|--------|--------|--------|--------|--------|--------|--------|--------|


C|--------|--------|--------|--------|--------|--------|--------|--------|--------|
C|--------|--------|--------|--------|--------|--------|--------|--------|--------|
C|--------|--------|--------|--------|--------|--------|--------|--------|--------|
C|--------|--------|--------|--------|--------|--------|--------|--------|--------|
C|--------|--------|--------|--------|--------|--------|--------|--------|--------|
C|--------|--------|--------|--------|--------|--------|--------|--------|--------|


C|--------|--------|--------|--------|--------|--------|--------|--------|--------|
C|--------|--------|--------|--------|--------|--------|--------|--------|--------|
C|--------|--------|--------|--------|--------|--------|--------|--------|--------|
C|--------|--------|--------|--------|--------|--------|--------|--------|--------|
C|--------|--------|--------|--------|--------|--------|--------|--------|--------|
C|--------|--------|--------|--------|--------|--------|--------|--------|--------|


C|--------|--------|--------|--------|--------|--------|--------|--------|--------|
C|--------|--------|--------|--------|--------|--------|--------|--------|--------|
C|--------|--------|--------|--------|--------|--------|--------|--------|--------|
C|--------|--------|--------|--------|--------|--------|--------|--------|--------|
C|--------|--------|--------|--------|--------|--------|--------|--------|--------|
C|--------|--------|--------|--------|--------|--------|--------|--------|--------|


C|--------|--------|--------|--------|--------|--------|--------|--------|--------|
C|--------|--------|--------|--------|--------|--------|--------|--------|--------|
C|--------|--------|--------|--------|--------|--------|--------|--------|--------|
C|--------|--------|--------|--------|--------|--------|--------|--------|--------|
C|--------|--------|--------|--------|--------|--------|--------|--------|--------|
C|--------|--------|--------|--------|--------|--------|--------|--------|--------|


C|--------|--------|--------|--------|--------|
C|--------|--------|--------|--------|--------|
C|--------|--------|--------|--------|--------|
C|--------|--------|--------|--------|--------|
C|--------|--------|--------|--------|--------|
C|--------|--------|--------|--------|--------|









Track 5: IronFist- Lok
Back to top
G|-------------|-------------|-------------|-------------|-------------|-------------|
D|-------------|-------------|-------------|-------------|-------------|-------------|
A|-------------|-------------|-------------|-------------|-------------|-------------|
E|-------------|-------------|-------------|-------------|-------------|-------------|


G|-------------|-------------|---------------------------------|---------------------------------|
D|-------------|-------------|-------------------------2-------|-------------------------2-------|
A|-------------|-------------|-----------------2---3-----------|-----------------2---3-----------|
E|-------------|-------------|-0---0---0---0---------------0---|-0---0---0---0---------------0---|


G|---------------------------------|---------------------------------|----------------|
D|-------------------------2---3---|-------------3---2---------------|----------------|
A|-----------------2---3-----------|-3---3---3-----------3---2-------|----------------|
E|-0---0---0---0-------------------|-----------------------------0---|-0--------------|


G|---------------------------------|---------------------------------|--------------------------------|
D|---------------------------------|---------------------------------|-------------3------------------|
A|---------------------------------|---------------------------------|---------3--------5--3----------|
E|-0---0---0---0---0---0---2---3---|-0---0---0---0---0---0---2---3---|-1---1------------------1---1---|


G|---------------------------------|---------------------------------|---------------------------------|
D|---------------------------------|---------------------------------|---------------------------------|
A|---------------------------------|---------------------------------|---------------------------------|
E|-1---1---1---1---1---1---1---1---|-0---0---0---0---0---0---2---3---|-0---0---0---0---0---0---2---3---|


G|--------|--------|--------|--------|--------|--------|--------|--------|--------|
D|--------|--------|--------|--------|--------|--------|--------|--------|--------|
A|--------|--------|--------|--------|--------|--------|--------|--------|--------|
E|--------|--------|--------|--------|--------|--------|--------|--------|--------|


G|--------|--------|--------|--------|--------|--------|--------|--------|--------|
D|--------|--------|--------|--------|--------|--------|--------|--------|--------|
A|--------|--------|--------|--------|--------|--------|--------|--------|--------|
E|--------|--------|--------|--------|--------|--------|--------|--------|--------|


G|--------|--------|--------|--------|--------|--------|--------|--------|--------|
D|--------|--------|--------|--------|--------|--------|--------|--------|--------|
A|--------|--------|--------|--------|--------|--------|--------|--------|--------|
E|--------|--------|--------|--------|--------|--------|--------|--------|--------|


G|--------|--------|--------|--------|--------|--------|--------|--------|--------|
D|--------|--------|--------|--------|--------|--------|--------|--------|--------|
A|--------|--------|--------|--------|--------|--------|--------|--------|--------|
E|--------|--------|--------|--------|--------|--------|--------|--------|--------|


G|--------|--------|--------|--------|--------|--------|--------|--------|--------|
D|--------|--------|--------|--------|--------|--------|--------|--------|--------|
A|--------|--------|--------|--------|--------|--------|--------|--------|--------|
E|--------|--------|--------|--------|--------|--------|--------|--------|--------|


G|--------|--------|--------|--------|--------|--------|--------|--------|--------|
D|--------|--------|--------|--------|--------|--------|--------|--------|--------|
A|--------|--------|--------|--------|--------|--------|--------|--------|--------|
E|--------|--------|--------|--------|--------|--------|--------|--------|--------|









Track 6: Dust
Back to top
E|-------------|-------------|-------------|-------------|-------------|-------------|
B|-------------|-------------|-------------|-------------|-------------|-------------|
G|-------------|-------------|-------------|-------------|-------------|-------------|
D|-------------|-------------|-------------|-------------|-------------|-------------|
A|-------------|-------------|-------------|-------------|-------------|-------------|
E|-------------|-------------|-------------|-------------|-------------|-------------|


E|-------------|-------------|-------------|-------------|-------------|-------------|
B|-------------|-------------|-------------|-------------|-------------|-------------|
G|-------------|-------------|-------------|-------------|-------------|-------------|
D|-------------|-------------|-------------|-------------|-------------|-------------|
A|-------------|-------------|-------------|-------------|-------------|-------------|
E|-------------|-------------|-------------|-------------|-------------|-------------|


E|-------------|-------------------------------------|-------------------------------------|
B|-------------|-------------------------------------|-------------------------------------|
G|-------------|-------------------------------------|-------------------------------------|
D|-------------|-------------------------------------|-------------------------------------|
A|-------------|-----------2-------2-----------------|-----------2-------2-----------------|
E|-------------|-0---0--0--0---0------0--0---2---3---|-0---0--0--0---0------0--0---2---3---|


E|---------------------------------|---------------------------------|-------------------------------------|
B|---------------------------------|---------------------------------|-------------------------------------|
G|---------------------------------|---------------------------------|-------------------------------------|
D|---------------------------------|---------------------------------|-------------------------------------|
A|---------3-----------5---5-------|---------3-----------5---5---3---|-----------2-------2-----------------|
E|-1---1---1---1---1---3---3---0---|-1---1---1---1---1---3---3---1---|-0---0--0--0---0------0--0---2---3---|


E|-------------------------------------|--------|--------|--------|--------|--------|
B|-------------------------------------|--------|--------|--------|--------|--------|
G|-------------------------------------|--------|--------|--------|--------|--------|
D|-------------------------------------|--------|--------|--------|--------|--------|
A|-----------2-------2-----------------|--------|--------|--------|--------|--------|
E|-0---0--0--0---0------0--0---2---3---|--------|--------|--------|--------|--------|


E|--------|--------|--------|--------|--------|--------|--------|--------|--------|
B|--------|--------|--------|--------|--------|--------|--------|--------|--------|
G|--------|--------|--------|--------|--------|--------|--------|--------|--------|
D|--------|--------|--------|--------|--------|--------|--------|--------|--------|
A|--------|--------|--------|--------|--------|--------|--------|--------|--------|
E|--------|--------|--------|--------|--------|--------|--------|--------|--------|


E|--------|--------|--------|--------|--------|--------|--------|--------|--------|
B|--------|--------|--------|--------|--------|--------|--------|--------|--------|
G|--------|--------|--------|--------|--------|--------|--------|--------|--------|
D|--------|--------|--------|--------|--------|--------|--------|--------|--------|
A|--------|--------|--------|--------|--------|--------|--------|--------|--------|
E|--------|--------|--------|--------|--------|--------|--------|--------|--------|


E|--------|--------|--------|--------|--------|--------|--------|--------|--------|
B|--------|--------|--------|--------|--------|--------|--------|--------|--------|
G|--------|--------|--------|--------|--------|--------|--------|--------|--------|
D|--------|--------|--------|--------|--------|--------|--------|--------|--------|
A|--------|--------|--------|--------|--------|--------|--------|--------|--------|
E|--------|--------|--------|--------|--------|--------|--------|--------|--------|


E|--------|--------|--------|--------|--------|--------|--------|--------|--------|
B|--------|--------|--------|--------|--------|--------|--------|--------|--------|
G|--------|--------|--------|--------|--------|--------|--------|--------|--------|
D|--------|--------|--------|--------|--------|--------|--------|--------|--------|
A|--------|--------|--------|--------|--------|--------|--------|--------|--------|
E|--------|--------|--------|--------|--------|--------|--------|--------|--------|


E|--------|--------|--------|--------|--------|--------|--------|--------|--------|
B|--------|--------|--------|--------|--------|--------|--------|--------|--------|
G|--------|--------|--------|--------|--------|--------|--------|--------|--------|
D|--------|--------|--------|--------|--------|--------|--------|--------|--------|
A|--------|--------|--------|--------|--------|--------|--------|--------|--------|
E|--------|--------|--------|--------|--------|--------|--------|--------|--------|


E|--------|--------|--------|--------|
B|--------|--------|--------|--------|
G|--------|--------|--------|--------|
D|--------|--------|--------|--------|
A|--------|--------|--------|--------|
E|--------|--------|--------|--------|









Track 7: Blood
Back to top
E|-------------|-------------|-------------|-------------|-------------|-------------|
B|-------------|-------------|-------------|-------------|-------------|-------------|
G|-------------|-------------|-------------|-------------|-------------|-------------|
D|-------------|-------------|-------------|-------------|-------------|-------------|
A|-------------|-------------|-------------|-------------|-------------|-------------|
E|-------------|-------------|-------------|-------------|-------------|-------------|


E|-------------|-------------|-------------|-------------|-------------|-------------|
B|-------------|-------------|-------------|-------------|-------------|-------------|
G|-------------|-------------|-------------|-------------|-------------|-------------|
D|-------------|-------------|-------------|-------------|-------------|-------------|
A|-------------|-------------|-------------|-------------|-------------|-------------|
E|-------------|-------------|-------------|-------------|-------------|-------------|


E|-------------|-------------|-------------|-------------|-------------|-------------|
B|-------------|-------------|-------------|-------------|-------------|-------------|
G|-------------|-------------|-------------|-------------|-------------|-------------|
D|-------------|-------------|-------------|-------------|-------------|-------------|
A|-------------|-------------|-------------|-------------|-------------|-------------|
E|-------------|-------------|-------------|-------------|-------------|-------------|


E|-0-----------|--------|--------|--------|--------|--------|--------|--------|--------|
B|-0-----------|--------|--------|--------|--------|--------|--------|--------|--------|
G|-0-----------|--------|--------|--------|--------|--------|--------|--------|--------|
D|-0-----------|--------|--------|--------|--------|--------|--------|--------|--------|
A|-0-----------|--------|--------|--------|--------|--------|--------|--------|--------|
E|-0-----------|--------|--------|--------|--------|--------|--------|--------|--------|


E|--------|--------|--------|--------|--------|--------|--------|--------|--------|
B|--------|--------|--------|--------|--------|--------|--------|--------|--------|
G|--------|--------|--------|--------|--------|--------|--------|--------|--------|
D|--------|--------|--------|--------|--------|--------|--------|--------|--------|
A|--------|--------|--------|--------|--------|--------|--------|--------|--------|
E|--------|--------|--------|--------|--------|--------|--------|--------|--------|


E|--------|--------|--------|--------|--------|--------|--------|--------|--------|
B|--------|--------|--------|--------|--------|--------|--------|--------|--------|
G|--------|--------|--------|--------|--------|--------|--------|--------|--------|
D|--------|--------|--------|--------|--------|--------|--------|--------|--------|
A|--------|--------|--------|--------|--------|--------|--------|--------|--------|
E|--------|--------|--------|--------|--------|--------|--------|--------|--------|


E|--------|--------|--------|--------|--------|--------|--------|--------|--------|
B|--------|--------|--------|--------|--------|--------|--------|--------|--------|
G|--------|--------|--------|--------|--------|--------|--------|--------|--------|
D|--------|--------|--------|--------|--------|--------|--------|--------|--------|
A|--------|--------|--------|--------|--------|--------|--------|--------|--------|
E|--------|--------|--------|--------|--------|--------|--------|--------|--------|


E|--------|--------|--------|--------|--------|--------|--------|--------|--------|
B|--------|--------|--------|--------|--------|--------|--------|--------|--------|
G|--------|--------|--------|--------|--------|--------|--------|--------|--------|
D|--------|--------|--------|--------|--------|--------|--------|--------|--------|
A|--------|--------|--------|--------|--------|--------|--------|--------|--------|
E|--------|--------|--------|--------|--------|--------|--------|--------|--------|


E|--------|--------|--------|--------|--------|--------|--------|--------|--------|
B|--------|--------|--------|--------|--------|--------|--------|--------|--------|
G|--------|--------|--------|--------|--------|--------|--------|--------|--------|
D|--------|--------|--------|--------|--------|--------|--------|--------|--------|
A|--------|--------|--------|--------|--------|--------|--------|--------|--------|
E|--------|--------|--------|--------|--------|--------|--------|--------|--------|


E|--------|
B|--------|
G|--------|
D|--------|
A|--------|
E|--------|



← Back to top