There's No Hope.....The Angel & Human Lok

by IronFist

Guitar Pro Tab  |  v4.06  |  Posted on March 29, 2007, 10:57 a.m. ← Back

Guitar Pro Tab Summary

Album

Insanity Over Control

Song Author

IronFistCatepillan

Tabbed by

unknown

Instruments

1st → Angel 1
2nd → Anger 3
3rd → Black Palace
4th → IronFist- Lok
5th → Pissusi´┐Żn
6th → Blood 7
7th → Dusta 6

File Size

30 KB

Views

658

Notice

read fuckers






Tablature Sheet

Title: There's No Hope.....The Angel & Human Lok
Artist: IronFist
Album: Insanity Over Control
Author: IronFistCatepillan






Track 1: Angel
Back to top
E|--------|--------|--------|--------|--------|--------|--------|--------|---------------------------------|
B|--------|--------|--------|--------|--------|--------|--------|--------|---------------------------------|
G|--------|--------|--------|--------|--------|--------|--------|--------|---------------------------------|
D|--------|--------|--------|--------|--------|--------|--------|--------|---------------------------------|
A|--------|--------|--------|--------|--------|--------|--------|--------|---------------------------------|
E|--------|--------|--------|--------|-0------|-0------|-0------|-0------|-0---0---0---0---0---0---0---0---|


E|---------------------------------|---------------------------------|---------------------------------|
B|---------------------------------|---------------------------------|---------------------------------|
G|---------------------------------|---------------------------------|---------------------------------|
D|---------------------------------|---------------------------------|---------------------------------|
A|---------------------------------|---------------------------------|---------------------------------|
E|-0---0---0---0---0---0---0---0---|-0---0---0---0---0---0---0---0---|-0---0---0---0---0---0---0---0---|


E|---------------------------------|---------------------------------|---------------------------------|
B|---------------------------------|---------------------------------|---------------------------------|
G|---------------------------------|---------------------------------|---------------------------------|
D|-2-------------------------------|---------------------------------|---------------------------------|
A|-2-------------------------------|---------2---------------2---5---|---------2---------------2---5---|
E|-0-------------------------------|-0---0---0---0---0---0---2---3---|-0---0---0---0---0---0---2---3---|


E|---------------------------------|-----------------------------------------|---------------------------------|
B|---------------------------------|-----------------------------------------|---------------------------------|
G|---------------------------------|-----------------2--0--------0-----------|---------------------------------|
D|---------------------------------|-----------------------4--2-----4--2-----|---------------------------------|
A|---------3-----------5---5-------|---------3----------------------------3--|---------2---------------2---5---|
E|-1---1---1---1---1---3---3---0---|-1---1---1---1---1--1--1--1--------------|-0---0---0---0---0---0---2---3---|


E|---------------------------------|---------------------------------|-----------------------------------------|
B|---------------------------------|---------------------------------|-----------------------------------------|
G|---------------------------------|---------------------------------|-----------------2--0--------0-----------|
D|---------------------------------|---------------------------------|-----------------------4--2-----4--2-----|
A|---------2---------------2---5---|---------3-----------5---5-------|---------3----------------------------3--|
E|-0---0---0---0---0---0---2---3---|-1---1---1---1---1---3---3---0---|-1---1---1---1---1--1--1--1--------------|


E|---------------------------------|---------------------------------|---------------------------------|
B|---------------------------------|---------------------------------|---------------------------------|
G|---------------------------------|---------------------------------|---------------------------------|
D|---------------------------------|---------------------------------|---------------------------------|
A|---------2---------------2---5---|---------2---------------2---5---|---------3-----------5---5-------|
E|-0---0---0---0---0---0---2---3---|-0---0---0---0---0---0---2---3---|-1---1---1---1---1---3---3---0---|


E|-----------------------------------------|----------------------------------------------|
B|-----------------------------------------|----------------------------------------------|
G|-----------------2--0--------0-----------|----------------------------------------------|
D|-----------------------4--2-----4--2-----|----------------------------------------------|
A|---------3----------------------------3--|----------------------------------------------|
E|-1---1---1---1---1--1--1--1--------------|-0--0--0-0-0--0--0-0-0--0--0-0-0--0--0-0-1----|


E|-------------------------------------------------|----------------------------------------------|
B|-------------------------------------------------|----------------------------------------------|
G|-------------------------------------------------|----------------------------------------------|
D|-------------------------------------------------|----------------------------------------------|
A|-------------------------------------------------|----------------------------------------------|
E|-0--0--0-0-0--0--0-0-0--0--0-0-0--0--0-0-3---3---|-0--0--0-0-0--0--0-0-0--0--0-0-0--0--0-0-1----|


E|------------------------------------------------|----------------------------------------------|
B|------------------------------------------------|----------------------------------------------|
G|------------------------------------------------|----------------------------------------------|
D|----------------------------------------5---5---|----------------------------------------------|
A|----------------------------------------5---5---|----------------------------------------------|
E|-0--0--0-0-0--0--0-0-0--0--0--0--0-0-0--3---3---|-0--0--0-0-0--0--0-0-0--0--0-0-0--0--0-0-1----|


E|-------------------------------------------------|----------------------------------------------|
B|-------------------------------------------------|----------------------------------------------|
G|-------------------------------------------------|----------------------------------------------|
D|-------------------------------------------------|----------------------------------------------|
A|-------------------------------------------------|----------------------------------------------|
E|-0--0--0-0-0--0--0-0-0--0--0-0-0--0--0-0-3---3---|-0--0--0-0-0--0--0-0-0--0--0-0-0--0--0-0-1----|


E|------------------------------------------------|----------------------------------------------|
B|------------------------------------------------|----------------------------------------------|
G|------------------------------------------------|----------------------------------------------|
D|----------------------------------------5---5---|----------------------------------------------|
A|----------------------------------------5---5---|----------------------------------------------|
E|-0--0--0-0-0--0--0-0-0--0--0--0--0-0-0--3---3---|-0--0--0-0-0--0--0-0-0--0--0-0-0--0--0-0-1----|


E|-------------------------------------------------|----------------------------------------------|
B|-------------------------------------------------|----------------------------------------------|
G|-------------------------------------------------|----------------------------------------------|
D|-------------------------------------------------|----------------------------------------------|
A|-------------------------------------------------|----------------------------------------------|
E|-0--0--0-0-0--0--0-0-0--0--0-0-0--0--0-0-3---3---|-0--0--0-0-0--0--0-0-0--0--0-0-0--0--0-0-1----|


E|------------------------------------------------|-4------4---3---|-0---0---0-----0---3---|
B|------------------------------------------------|----------------|-----------------------|
G|------------------------------------------------|----------------|-----------------------|
D|----------------------------------------5---5---|----------------|-----------------------|
A|----------------------------------------5---5---|----------------|-----------------------|
E|-0--0--0-0-0--0--0-0-0--0--0--0--0-0-0--3---3---|----------------|-----------------------|


E|-4----4-----4---3---|-0------|-4------4---3---|-0---0---0-----0---3---|-4----4-----4---3---|
B|--------------------|--------|----------------|-----------------------|--------------------|
G|--------------------|--------|----------------|-----------------------|--------------------|
D|--------------------|--------|----------------|-----------------------|--------------------|
A|--------------------|--------|----------------|-----------------------|--------------------|
E|--------------------|--------|----------------|-----------------------|--------------------|


E|-0------|-------------------------------------|-----------------------------|-------------------------------------|
B|--------|-------------------------------------|-----------------------------|-------------------------------------|
G|--------|-------------------------------------|-----------------------------|-------------------------------------|
D|--------|-------------------------------------|-----------------------------|-------------------------------------|
A|--------|-6---------6---6---------6-----------|-2---------2---2---2---------|-6---------6---6---------6-----------|
E|--------|-4---4--4--4---4---4--4--4---4---3---|-0---0--0--0---0---0----3----|-4---4--4--4---4---4--4--4---4---3---|


E|-----------------------------|-------------------------------------------|-------------------------------------------------|
B|-----------------------------|-------------------------------------------|-------------------------------------------------|
G|-----------------------------|-------------------------------------------|-------------------------------------------------|
D|-----------------------------|-------------------------4------3------4---|-------------------------------------------------|
A|-2---------2---2---2---------|-6-----------6-----6-----2------1------2---|-4-----------4--------------2--4--2--4--4--4--4--|
E|-0---0--0--0---0---0----3----|-4--4--4--4--4--4--4--4--------------------|-2--2--2--2--2--2--2--2--4-----------------------|


E|-------------------------------------------|-------------------------------------------------|
B|-------------------------------------------|-------------------------------------------------|
G|-------------------------------------------|-------------------------------------------------|
D|-------------------------4------3------4---|-4-----------6-----8-----------------------------|
A|-6-----------6-----------2------1------2---|-2--2--2--2--4--4--6--4--6-----------6-----------|
E|-4--4--4--4--4--4--4--4--------------------|-------------------------4--4--4--4--4--4--4--4--|


E|-------------------------------------------|-------------------------------------------------|
B|-------------------------------------------|-------------------------------------------------|
G|-------------------------------------------|-------------------------------------------------|
D|-------------------------4------3------4---|-------------------------------------------------|
A|-6-----------6-----6-----2------1------2---|-4-----------4--------------2--4--2--4--4--4--4--|
E|-4--4--4--4--4--4--4--4--------------------|-2--2--2--2--2--2--2--2--4-----------------------|


E|-------------------------------------------|-------------------------------------------------|
B|-------------------------------------------|-------------------------------------------------|
G|-------------------------------------------|-------------------------------------------------|
D|-------------------------4------3------4---|-4-----------6-----8-----------------------------|
A|-6-----------6-----------2------1------2---|-2--2--2--2--4--4--6--4--6-----------6-----4-----|
E|-4--4--4--4--4--4--4--4--------------------|-------------------------4--4--4--4--4--4--2--2--|


E|---------------------------|-------------|---------------------------|-------------|
B|---------------------------|-------------|---------------------------|-------------|
G|---------------------------|-------------|---------------------------|-------------|
D|-6------------6------------|-2------4----|-6------------6------------|-2------2----|
A|-6------------6------------|-2------4----|-6------------6------------|-2------2----|
E|-4------------4------------|-0------2----|-4------------4------------|-0------0----|


E|---------------------------------|---------------------------------|---------------------------------|
B|---------------------------------|---------------------------------|---------------------------------|
G|---------------------------------|---------------------------------|---------------------------------|
D|---------------------------------|---------------------------------|---------------------------------|
A|---------2---------------2---5---|---------2---------------2---5---|---------3-----------5---5-------|
E|-0---0---0---0---0---0---2---3---|-0---0---0---0---0---0---2---3---|-1---1---1---1---1---3---3---0---|


E|-----------------------------------------|---------------------------------|---------------------------------|
B|-----------------------------------------|---------------------------------|---------------------------------|
G|-----------------2--0--------0-----------|---------------------------------|---------------------------------|
D|-----------------------4--2-----4--2-----|---------------------------------|---------------------------------|
A|---------3----------------------------3--|---------2---------------2---5---|---------2---------------2---5---|
E|-1---1---1---1---1--1--1--1--------------|-0---0---0---0---0---0---2---3---|-0---0---0---0---0---0---2---3---|


E|---------------------------------|-----------------------------------------|---------------------------------|
B|---------------------------------|-----------------------------------------|---------------------------------|
G|---------------------------------|-----------------2--0--------0-----------|---------------------------------|
D|---------------------------------|-----------------------4--2-----4--2-----|---------------------------------|
A|---------3-----------5---5-------|---------3----------------------------3--|---------2---------------2---5---|
E|-1---1---1---1---1---3---3---0---|-1---1---1---1---1--1--1--1--------------|-0---0---0---0---0---0---2---3---|


E|---------------------------------|---------------------------------|-----------------------------------------|
B|---------------------------------|---------------------------------|-----------------------------------------|
G|---------------------------------|---------------------------------|-----------------2--0--------0-----------|
D|---------------------------------|---------------------------------|-----------------------4--2-----4--2-----|
A|---------2---------------2---5---|---------3-----------5---5-------|---------3----------------------------3--|
E|-0---0---0---0---0---0---2---3---|-1---1---1---1---1---3---3---0---|-1---1---1---1---1--1--1--1--------------|









Track 2: Black Palace
Back to top
E|--------|----------------------------------------|--------|--------|--------|--------|
B|--------|----------------------------------------|--------|--------|--------|--------|
G|--------|----------------------------------------|--------|--------|--------|--------|
D|--------|--------2-2-2-2-2-2-2-2-2-2-2-2-2-2-2-2-|-2------|-2------|-2------|-2------|
A|-2------|-2--------2-2-2-2-2-2-2-2-2-2-2-2-2-2-2-|-2------|-2------|-2------|-2------|
E|-0------|-0--------0-0-0-0-0-0-0-0-0-0-0-0-0-0-0-|-0------|-0------|-0------|-0------|


E|--------|--------|--------|--------|--------|--------|----------------|-12-----|
B|--------|--------|-0------|-0------|-0------|--------|-0--------------|--------|
G|--------|--------|-1------|-1------|-1------|-1------|-1--------------|--------|
D|-2------|-2------|-2------|-2------|-2------|-3------|-2--------------|-14-----|
A|-2------|-2------|-2------|-2------|-2------|-3------|-2--------------|-14-----|
E|-0------|-0------|-0------|-0------|-0------|-1------|-0--------------|-12-----|


E|-12-----|-13-----|-13-----|-12-----|-12-----|-13-----|-13-----|-12-----|-12-----|
B|--------|--------|--------|--------|--------|--------|--------|--------|--------|
G|--------|--------|--------|--------|--------|--------|--------|--------|--------|
D|-14-----|-15-----|-15-----|-14-----|-14-----|-15-----|-15-----|-14-----|-14-----|
A|-14-----|-15-----|-15-----|-14-----|-14-----|-15-----|-15-----|-14-----|-14-----|
E|-12-----|-13-----|-13-----|-12-----|-12-----|-13-----|-13-----|-12-----|-12-----|


E|-13-----|-13-----|-12-------------|-12-------------|-12-------------|-12-------------|
B|--------|--------|----------------|----------------|----------------|----------------|
G|--------|--------|----------------|----------------|----------------|----------------|
D|-15-----|-15-----|-14-------------|-14-------------|-14-------------|-14-------------|
A|-15-----|-15-----|-14-------------|-14-------------|-14-------------|-14-------------|
E|-13-----|-13-----|-12-------------|-12-------------|-12-------------|-12-------------|


E|-12-------------|-12-------------|-12-------------|-12-------------|-16-------------|
B|----------------|----------------|----------------|----------------|-16-------------|
G|----------------|----------------|----------------|----------------|----------------|
D|-14-------------|-14-------------|-14-------------|-14-------------|-14-------------|
A|-14-------------|-14-------------|-14-------------|-14-------------|-14-------------|
E|-12-------------|-12-------------|-12-------------|-12-------------|-16-------------|


E|-12-------------|-16-------------|-12-------------|-4------|-0------|-4------|-0------|
B|----------------|-16-------------|----------------|--------|--------|--------|--------|
G|----------------|----------------|----------------|--------|--------|--------|--------|
D|-14-------------|-14-------------|-14-------------|--------|--------|--------|--------|
A|-14-------------|-14-------------|-14-------------|-6------|-2------|-6------|-2------|
E|-12-------------|-16-------------|-12-------------|-4------|-0------|-4------|-0------|


E|-4------|-0------|-4------|-0------|-4------|-0------|-4------|-0------|-16----19---18---19--|
B|--------|--------|--------|--------|--------|--------|--------|--------|---------------------|
G|--------|--------|--------|--------|--------|--------|--------|--------|-13------------------|
D|--------|--------|--------|--------|--------|--------|--------|--------|-6-----4----3----4---|
A|-6------|-2------|-6------|-2------|-6------|-2------|-6------|-2------|-6-----2----1----2---|
E|-4------|-0------|-4------|-0------|-4------|-0------|-4------|-0------|-4-------------------|


E|-14-----|-16----19---18---19--|-19---21---16----|-16----19---18---19--|-14-----|
B|--------|---------------------|-----------------|---------------------|--------|
G|--------|-13------------------|-----------------|-13------------------|--------|
D|-4------|-6-----4----3----4---|-4----6----6-----|-6-----4----3----4---|-4------|
A|-4------|-6-----2----1----2---|-2----4----6-----|-6-----2----1----2---|-4------|
E|-2------|-4-------------------|-----------4-----|-4-------------------|-2------|


E|-16----19---18---19--|-19---21---16----|-4---------4---------|-------------|-4---------4---------|
B|---------------------|-----------------|---------------------|-0-----------|---------------------|
G|-13------------------|-----------------|---------------------|-1-----------|---------------------|
D|-6-----4----3----4---|-4----6----6-----|-6---------6---------|-2------4----|-6---------6---------|
A|-6-----2----1----2---|-2----4----6-----|-6---------6---------|-2------4----|-6---------6---------|
E|-4-------------------|-----------4-----|-4---------4---------|-0------2----|-4---------4---------|


E|-------------|-12-----|-12-----|-13-----|-13-----|-12-----|-12-----|-13-----|-13-----|
B|-0------0----|--------|--------|--------|--------|--------|--------|--------|--------|
G|-1------1----|--------|--------|--------|--------|--------|--------|--------|--------|
D|-2------2----|-14-----|-14-----|-15-----|-15-----|-14-----|-14-----|-15-----|-15-----|
A|-2------2----|-14-----|-14-----|-15-----|-15-----|-14-----|-14-----|-15-----|-15-----|
E|-0------0----|-12-----|-12-----|-13-----|-13-----|-12-----|-12-----|-13-----|-13-----|


E|-12-----|-12-----|-13-----|-13-----|
B|--------|--------|--------|--------|
G|--------|--------|--------|--------|
D|-14-----|-14-----|-15-----|-15-----|
A|-14-----|-14-----|-15-----|-15-----|
E|-12-----|-12-----|-13-----|-13-----|









Track 3: Anger
Back to top
G|--------|--------|--------|--------|--------|--------|--------|-0------|-0------|
D|--------|--------|--------|--------|--------|--------|-0------|-0------|-0------|
A|--------|--------|--------|--------|-0------|-0------|-0------|-0------|-0------|
E|-0------|-0------|-0------|-0------|-0------|-0------|-0------|-0------|-0------|


G|-0------|-0------|-0------|-0-------------0----|-0-----0-----|-0-----0-----|-0-----0-----|
D|-0------|-0------|-0------|-0-------------0----|-0-----0-----|-0-----0-----|-3-----3-----|
A|-0------|-0------|-0------|-0-------------0----|-0-----0-----|-0-----0-----|-3-----3-----|
E|-0------|-0------|-0------|-0-------------0----|-0-----0-----|-0-----0-----|-1-----1-----|


G|-0-----0----0----|-0-----0-----|-0-----0-----|-0-----0-----|-0-----0----0----|-0-----0-----|
D|-3-----3----3----|-0-----0-----|-0-----0-----|-3-----3-----|-3-----3----3----|-0-----0-----|
A|-3-----3----3----|-0-----0-----|-0-----0-----|-3-----3-----|-3-----3----3----|-0-----0-----|
E|-1-----1----1----|-0-----0-----|-0-----0-----|-1-----1-----|-1-----1----1----|-0-----0-----|


G|-0-----0-----|-0-----0-----|-0-----0----0----|-0------|-0------|-0------|-0------|
D|-0-----0-----|-3-----3-----|-3-----3----3----|-0------|-0------|-0------|-0------|
A|-0-----0-----|-3-----3-----|-3-----3----3----|-0------|-0------|-0------|-0------|
E|-0-----0-----|-1-----1-----|-1-----1----1----|-0------|-0------|-0------|-0------|


G|-0-------0-------0-------0-------|-0-------0-------0-------0-------|-0-------0-------0-------0-------|
D|-0-------0-------0-------3-------|-0-------0-------0-------5-------|-0-------0-------0-------3-------|
A|-0---0---0---0---0---0---3---3---|-0---0---0---0---0---0---5---5---|-0---0---0---0---0---0---3---3---|
E|-0---0---0---0---0---0---1---1---|-0---0---0---0---0---0---3---3---|-0---0---0---0---0---0---1---1---|


G|-0-------0-------0-------0-------|-0-------0-------0-------0-------|-0-------0-------0-------0-------|
D|-0-------0-------0-------5-------|-0-------0-------0-------3-------|-0-------0-------0-------5-------|
A|-0---0---0---0---0---0---5---5---|-0---0---0---0---0---0---3---3---|-0---0---0---0---0---0---5---5---|
E|-0---0---0---0---0---0---3---3---|-0---0---0---0---0---0---1---1---|-0---0---0---0---0---0---3---3---|


G|-0-------0-------0-------0-------|-0-------0-------0-------0-------|-0---------0---------|
D|-0-------0-------0-------3-------|-0-------0-------0-------5-------|-0---------0---------|
A|-0---0---0---0---0---0---3---3---|-0---0---0---0---0---0---5---5---|-0----0----0----0----|
E|-0---0---0---0---0---0---1---1---|-0---0---0---0---0---0---3---3---|-0----0----0----0----|


G|-0---------0---------|-0---------0---------|-0---------0---------------0---0---|
D|-0---------0---------|-0---------0---------|-0---------0-----------0---0---0---|
A|-0----0----0----0----|-0----0----0----0----|-0----0----0-------0---0---0---0---|
E|-0----0----0----0----|-0----0----0----0----|-0----0----0---0---0---0---0---0---|


G|-0---------0---------|-0---------0---------|-0---------0---------|-0---------0---------------0---0---|
D|-0---------0---------|-0---------0---------|-0---------0---------|-0---------0-----------0---0---0---|
A|-0----0----0----0----|-0----0----0----0----|-0----0----0----0----|-0----0----0-------0---0---0---0---|
E|-0----0----0----0----|-0----0----0----0----|-0----0----0----0----|-0----0----0---0---0---0---0---0---|


G|-0---------0---------|-0---------0---------|-0---------0---------|-0---------0---------|
D|-0---------0---------|-0---------0---------|-0---------0---------|-0---------0---------|
A|-0----0----0----0----|-0----0----0----0----|-0----0----0----0----|-0----0----0----0----|
E|-0----0----0----0----|-0----0----0----0----|-0----0----0----0----|-0----0----0----0----|


G|---------------------|---------------------|---------------------|---------------------|
D|-0---------0---------|-0---------0---------|-0---------0---------|-0---------0---------|
A|-0---------0---------|-0---------0---------|-0---------0---------|-0---------0---------|
E|-0----0----0----0----|-0----0----0----0----|-0----0----0----0----|-0----0----0----0----|


G|---------------------|---------------------|---------------------|---------------------|
D|-0---------0---------|-0---------0---------|-0---------0---------|-0---------0---------|
A|-0---------0---------|-0---------0---------|-0---------0---------|-0---------0---------|
E|-0----0----0----0----|-0----0----0----0----|-0----0----0----0----|-0----0----0----0----|


G|--------|-0------|--------|-0-------------0----|-0-----0-----|-0-----0-----|-0-----0-----|
D|-6------|-0------|-6------|-0-------------0----|-0-----0-----|-0-----0-----|-3-----3-----|
A|-6------|-0------|-6------|-0-------------0----|-0-----0-----|-0-----0-----|-3-----3-----|
E|-4------|-0------|-4------|-0-------------0----|-0-----0-----|-0-----0-----|-1-----1-----|


G|-0-----0----0----|-0----0----0----0----|-0----0----0----0----|-0----0----0----0----|
D|-3-----3----3----|-0----0----0----0----|-0----0----0----0----|-3----3----3----3----|
A|-3-----3----3----|-0----0----0----0----|-0----0----0----0----|-3----3----3----3----|
E|-1-----1----1----|-0----0----0----0----|-0----0----0----0----|-1----1----1----1----|


G|-0----0----0----0----|-0----0----0----0----|-0----0----0----0----|-0----0----0----0----|
D|-3----3----3----3----|-0----0----0----0----|-0----0----0----0----|-3----3----3----3----|
A|-3----3----3----3----|-0----0----0----0----|-0----0----0----0----|-3----3----3----3----|
E|-1----1----1----1----|-0----0----0----0----|-0----0----0----0----|-1----1----1----1----|


G|-0----0----0----0----|
D|-3----3----3----3----|
A|-3----3----3----3----|
E|-1----1----1----1----|









Track 4: Piss
Back to top
C|-------------|-------------|-------------|-------------|-------------|-------------|
C|-------------|-------------|-------------|-------------|-------------|-------------|
C|-------------|-------------|-------------|-------------|-------------|-------------|
C|-------------|-------------|-------------|-------------|-------------|-------------|
C|-------------|-------------|-------------|-------------|-------------|-------------|
C|-------------|-------------|-------------|-------------|-------------|-------------|


C|-------------|----------------------------------------|---------------------------------|
C|-------------|----------------------------------------|---------------------------------|
C|-------------|--------57495749574957495749574957495749|-57--------------49--------------|
C|-------------|----------------------------------------|-49--------------57--------------|
C|-------------|----------------------------------------|-40--40--40--40--40--40--40--40--|
C|-------------|----------------------------------------|-52------------------------------|


C|---------------------------------|---------------------------------|-------------------------------------|
C|---------------------------------|---------------------------------|-------------------------------------|
C|-57--------------49--------------|-57--------------49--------------|-57--------------49------------------|
C|-49--------------57--------------|-49--------------57--------------|-49--------------57------------------|
C|-40--40--40--40--40--40--40--40--|-40--40--40--40--40--40--40--40--|-40--40--40--40--40--40--40--40--40--|
C|-52------------------------------|-52------------------------------|-52----------------------------------|


C|--------|-----------------------------------|-------------------------------------------|
C|--------|-----------------------------------|-------------------------------------------|
C|-57-----|-----------------------------------|-------------------------------------------|
C|-49-----|-46--46--46--46--46----46--46--46--|-46----46----46----46-46-46----46--46--46--|
C|--------|---------40----------------40------|-------------40--------------------40------|
C|--------|-36-----------------36-36----------|-36-36-36-36----36-36-------36-36----------|


C|-----------------------------------|-----------------------------------|-----------------------------------|
C|-----------------------------------|-----------------------------------|-----------------------------------|
C|-----------------------------------|------------------------------57---|-----------------------------------|
C|-46--46--46--46--46----46--46--46--|-46--46--46--46--46----46--46-46---|-46--46--46--46--46----46--46--46--|
C|---------40----------------40------|---------40----------------40-40---|---------40----------------40------|
C|-36-----------------36-36----------|-36-----------------36-36--36------|-36-----------------36-36----------|


C|-------------------------------------------|-----------------------------------|
C|-------------------------------------------|-----------------------------------|
C|-------------------------------------------|-----------------------------------|
C|-46----46----46----46-46-46----46--46--46--|-46--46--46--46--46----46--46--46--|
C|-------------40--------------------40------|---------40----------------40------|
C|-36-36-36-36----36-36-------36-36----------|-36-----------------36-36----------|


C|-----------------------------------|-----------------------------------|-------------------------------------------|
C|-----------------------------------|-----------------------------------|-------------------------------------------|
C|------------------------------57---|-----------------------------------|-------------------------------------------|
C|-46--46--46--46--46----46--46-46---|-46--46--46--46--46----46--46--46--|-46----46----46----46-46-46----46--46--46--|
C|---------40----------------40-40---|---------40----------------40------|-------------40--------------------40------|
C|-36-----------------36-36--36------|-36-----------------36-36----------|-36-36-36-36----36-36-------36-36----------|


C|-----------------------------------|-----------------------------------|--------|
C|-----------------------------------|-----------------------------------|-40-----|
C|-----------------------------------|------------------------------57---|-49-----|
C|-46--46--46--46--46----46--46--46--|-46--46--46--46--46----46--46-46---|-57-----|
C|---------40----------------40------|---------40----------------40-40---|-45-----|
C|-36-----------------36-36----------|-36-----------------36-36--36------|-36-----|


C|--------|--------|------------------------|-55------55------55------55------55------55------55------55------|
C|-40-----|-40-----|-40-----5050------------|-57--------------------------------------------------------------|
C|-49-----|-49-----|-49---------4848--------|-----------------------------------------------------------------|
C|-57-----|-57-----|-57-------------4747----|---------40--------------40--------------40--------------40------|
C|-45-----|-45-----|-45-----------------4545|-----------------------------------------------------------------|
C|-36-----|-36-----|-36---------------------|-3636363636363636363636363636363636363636363636363636363636363636|


C|-55------55------55------55------55------55------55------55------|-55------55------55------55------55------55------55------55------|
C|-49------52------------------------------------------------------|-57--------------------------------------------------------------|
C|-----------------------------------------------------------------|-----------------------------------------------------------------|
C|---------40------40------40--------------40--------------40------|---------40--------------40--------------40------40--40--40--40--|
C|-----------------------------------------------------------------|-----------------------------------------------------------------|
C|-3636363636363636363636363636363636363636363636363636363636363636|-3636363636363636363636363636363636363636363636363636363636363636|


C|-55------55------55------55------55------55------55------55------|-55------55------55------55------55------55------55------55------|
C|-57----------------------------------------------5050------------|-57--------------------------------------------------------------|
C|-----------------------------------------------------4848--------|-----------------------------------------------------------------|
C|---------40--------------40--------------40--------------4747----|---------40--------------40--------------40--------------40------|
C|---------------------------------------------------------40--4545|-----------------------------------------------------------------|
C|-3636363636363636363636363636363636363636363636363636363636363636|-3636363636363636363636363636363636363636363636363636363636363636|


C|-55------55------55------55------55------55------55------55------|-55------55------55------55------55------55------55------55------|
C|-49------52------------------------------------------------------|-57--------------------------------------------------------------|
C|-----------------------------------------------------------------|-----------------------------------------------------------------|
C|---------40------40------40--------------40--------------40------|---------40--------------40--------------40------40--40--40--40--|
C|-----------------------------------------------------------------|-----------------------------------------------------------------|
C|-3636363636363636363636363636363636363636363636363636363636363636|-3636363636363636363636363636363636363636363636363636363636363636|


C|-55------55------55------55------55------55------55------55------|--------|-------------|
C|-57----------------------------------------------5050------------|--------|-------------|
C|-----------------------------------------------------4848--------|-57-----|--------40---|
C|---------40--------------40--------------40--------------4747----|-49-----|-------------|
C|---------------------------------------------------------40--4545|--------|-------------|
C|-3636363636363636363636363636363636363636363636363636363636363636|--------|-------------|


C|-------------------------------------------------------|---------------------------------------------------------|
C|-------------------------------------------------------|---------------------------------------------------------|
C|-57----------------------------------------------------|---------------------------------------------------------|
C|-49----------------------------------------------------|---------------------------------------------------------|
C|-40--40--40--40--40--40--40--40--40-40-40--40-40-40-40-|-4040404040404040404040404040404040--40--40--40--40--40--|
C|-------------------------------------------------------|---------------------------------------------------------|


C|-------------------------------------------------------|---------------------------------------------------------|
C|-------------------------------------------------------|---------------------------------------------------------|
C|-57----------------------------------------------------|---------------------------------------------------------|
C|-49----------------------------------------------------|---------------------------------------------------------|
C|-40--40--40--40--40--40--40--40--40-40-40--40-40-40-40-|-4040404040404040404040404040404040--40--40--40--40--40--|
C|-------------------------------------------------------|---------------------------------------------------------|


C|-------------------------------------------------------|---------------------------------------------------55----------|
C|-------------------------------------------------------|---------------------------------------------------------------|
C|-57----------------------------------------------------|---------------------------------------------------------------|
C|-49----------------------------------------------------|---------------------------------------------------------------|
C|-40--40--40--40--40--40--40--40--40-40-40--40-40-40-40-|-40-40-40-40-40-40-4040404040404040404040404040404040--40--40--|
C|-------------------------------------------------------|---------------------------------------------------------------|


C|-44---44---------------49--|-44---44-------------------57--|-44----------44------------------------49----|
C|---------------------------|-------------------------------|---------------------------------------------|
C|------40-----------40------|------40-----------------------|-------------40------------------40----------|
C|---------------------------|---------------40--40--40--40--|---------------------------------------------|
C|---------------------------|-------------------------------|---------------------------------------------|
C|-36------------36----------|-36----------------------------|-36-36-36-36-36-36-36-36-----36--36-36-36-36-|


C|-44----------44----------44----------44----------|-----------------------------------|
C|-------------------------------------------------|-51--51--51--51----51--51--51--51--|
C|-------------40----------------------40----------|-------------40------------40------|
C|-------------------------------------------------|-----------------------------------|
C|-------------------------------------------------|-----------------------------------|
C|-36-36-36-36-36-36-36-36-36-36-36-36-36-36-36-36-|-36-------------36-----36----------|


C|-----------------------------------|-----------------------------------|---------------------------------------|
C|-57--------------------------------|-51--51--51--51----51--51--51--51--|---------------------------------------|
C|-51--51--51--51--51----51--51--51--|-------------40------------40------|-49--------------57--------------------|
C|---------40------40-40-40----------|-----------------------------------|-51--51--51--51--51----51--51----51----|
C|-----------------------------------|-----------------------------------|-------------40------------50-48-------|
C|-36--36------36----------------36--|-36-------------36-----36----------|-36------36---------36-36--------47-45-|


C|-----------------------------------|-----------------------------------|-----------------------------------|
C|-51--51--51--51----51--51--51--51--|-57--------------------------------|-51--51--51--51----51--51--51--51--|
C|-------------40------------40------|-51--51--51--51--51----51--51--51--|-------------40------------40------|
C|-----------------------------------|---------40------40-40-40----------|-----------------------------------|
C|-----------------------------------|-----------------------------------|-----------------------------------|
C|-36-------------36-----36----------|-36--36------36----------------36--|-36-------------36-----36----------|


C|-----------------------------------|-----------------------------------------------------------------------|
C|-----------------------------------|-----------------------------------------------------------------------|
C|-49--------------57----------------|-574957495749574957495749574957495749574957495749574957495749574949----|
C|-51--51--51--51--51----51--51--51--|-----------------------------------------------------------------------|
C|-------------40------------40--40--|-----------------------------------------------------------------------|
C|-36------36---------36-36----------|-----------------------------------------------------------------------|


C|--------------------|--------|--------|-----------------------------------|-------------------------------------------|
C|--------------------|--------|--------|-----------------------------------|-------------------------------------------|
C|-57-----------------|--------|-57-----|-----------------------------------|-------------------------------------------|
C|-49-----40--40--40--|--------|-49-----|-46--46--46--46--46----46--46--46--|-46----46----46----46-46-46----46--46--46--|
C|--------------------|--------|--------|---------40----------------40------|-------------40--------------------40------|
C|--------------------|--------|--------|-36-----------------36-36----------|-36-36-36-36----36-36-------36-36----------|


C|-----------------------------------|-----------------------------------|-----------------------------------|
C|-----------------------------------|-----------------------------------|-----------------------------------|
C|-----------------------------------|------------------------------57---|-----------------------------------|
C|-46--46--46--46--46----46--46--46--|-46--46--46--46--46----46--46-46---|-46--46--46--46--46----46--46--46--|
C|---------40----------------40------|---------40----------------40-40---|---------40----------------40------|
C|-36-----------------36-36----------|-36-----------------36-36--36------|-36-----------------36-36----------|


C|-------------------------------------------|-----------------------------------|
C|-------------------------------------------|-----------------------------------|
C|-------------------------------------------|-----------------------------------|
C|-46----46----46----46-46-46----46--46--46--|-46--46--46--46--46----46--46--46--|
C|-------------40--------------------40------|---------40----------------40------|
C|-36-36-36-36----36-36-------36-36----------|-36-----------------36-36----------|


C|-----------------------------------|-----------------------------------|-------------------------------------------|
C|-----------------------------------|-----------------------------------|-------------------------------------------|
C|------------------------------57---|-----------------------------------|-------------------------------------------|
C|-46--46--46--46--46----46--46-46---|-46--46--46--46--46----46--46--46--|-46----46----46----46-46-46----46--46--46--|
C|---------40----------------40-40---|---------40----------------40------|-------------40--------------------40------|
C|-36-----------------36-36--36------|-36-----------------36-36----------|-36-36-36-36----36-36-------36-36----------|


C|-----------------------------------|-----------------------------------|
C|-----------------------------------|-----------------------------------|
C|-----------------------------------|------------------------------57---|
C|-46--46--46--46--46----46--46--46--|-46--46--46--46--46----46--46-46---|
C|---------40----------------40------|---------40----------------40-40---|
C|-36-----------------36-36----------|-36-----------------36-36--36------|









Track 5: IronFist- Lok
Back to top
G|-------------|-------------|-------------|-------------|-------------|-------------|
D|-------------|-------------|-------------|-------------|-------------|-------------|
A|-------------|-------------|-------------|-------------|-------------|-------------|
E|-------------|-------------|-------------|-------------|-------------|-------------|


G|-------------|-------------|---------------------------------|---------------------------------|
D|-------------|-------------|-------------------------2-------|-------------------------2-------|
A|-------------|-------------|-----------------2---3-----------|-----------------2---3-----------|
E|-------------|-------------|-0---0---0---0---------------0---|-0---0---0---0---------------0---|


G|---------------------------------|---------------------------------|----------------|
D|-------------------------2---3---|-------------3---2---------------|----------------|
A|-----------------2---3-----------|-3---3---3-----------3---2-------|----------------|
E|-0---0---0---0-------------------|-----------------------------0---|-0--------------|


G|---------------------------------|---------------------------------|--------------------------------|
D|---------------------------------|---------------------------------|-------------3------------------|
A|---------------------------------|---------------------------------|---------3--------5--3----------|
E|-0---0---0---0---0---0---2---3---|-0---0---0---0---0---0---2---3---|-1---1------------------1---1---|


G|---------------------------------|---------------------------------|---------------------------------|
D|---------------------------------|---------------------------------|---------------------------------|
A|---------------------------------|---------------------------------|---------------------------------|
E|-1---1---1---1---1---1---1---1---|-0---0---0---0---0---0---2---3---|-0---0---0---0---0---0---2---3---|


G|--------------------------------|---------------------------------|---------------------------------|
D|-------------3------------------|---------------------------------|---------------------------------|
A|---------3--------5--3----------|---------------------------------|---------------------------------|
E|-1---1------------------1---1---|-1---1---1---1---1---1---1---1---|-0---0---0---0---0---0---2---3---|


G|---------------------------------|--------------------------------|---------------------------------|
D|---------------------------------|-------------3------------------|---------------------------------|
A|---------------------------------|---------3--------5--3----------|---------------------------------|
E|-0---0---0---0---0---0---2---3---|-1---1------------------1---1---|-1---1---1---1---1---1---1---1---|


G|----------------|----------------|----------------|----------------|-------------------------------------------------|
D|----------------|----------------|----------------|----------------|-------------2--------2--2--2--2-----------------|
A|----------------|----------------|----------------|----------------|----------------2--------------------------------|
E|-0--------------|-0--------------|-0--------------|-0--------------|-0--0--0--0--------0--------------0--0--0--0--0--|


G|---------------------------------------------------------|-------------------------------------------------|
D|---------------------------------------------------------|-------------2--------2--2--2--2-----------------|
A|---------------------------------------------------------|----------------2--------------------------------|
E|-0--0-0-0--0-0-0--0-0-0--0-0-0--0-0-0--0-0-0--0-0-0--0-0-|-0--0--0--0--------0--------------0--0--0--0--0--|


G|---------------------------------------------------------|-------------------------------------------------|
D|---------------------------------------------------------|-------------2--------2--2--2--2-----------------|
A|---------------------------------------------------------|----------------2--------------------------------|
E|-0--0-0-0--0-0-0--0-0-0--0-0-0--0-0-0--0-0-0--0-0-0--0-0-|-0--0--0--0--------0--------------0--0--0--0--0--|


G|---------------------------------------------------------|-------------------------------------------------|
D|---------------------------------------------------------|-------------2--------2--2--2--2-----------------|
A|---------------------------------------------------------|----------------2--------------------------------|
E|-0--0-0-0--0-0-0--0-0-0--0-0-0--0-0-0--0-0-0--0-0-0--0-0-|-0--0--0--0--------0--------------0--0--0--0--0--|


G|---------------------------------------------------------|--------|--------|--------|
D|---------------------------------------------------------|--------|--------|--------|
A|---------------------------------------------------------|--------|--------|--------|
E|-0--0-0-0--0-0-0--0-0-0--0-0-0--0-0-0--0-0-0--0-0-0--0-0-|-0------|-0------|-0------|


G|--------|--------|--------|--------|--------|-------------------------------------------------|
D|--------|--------|--------|--------|--------|-------------------------------------------------|
A|--------|--------|--------|--------|--------|-------------------------------------------------|
E|-0------|-0------|-0------|-0------|-0------|-4--4--4--4--4--4--4--4--4--4--4--4--4--4--3--3--|


G|-------------------------------------------------|-------------------------------------------------|
D|-------------------------------------------------|-------------------------------------------------|
A|-------------------------------------------------|-------------------------------------------------|
E|-0--0--0--0--0--0--0--0--0--0--0--0--3--3--3--3--|-4--4--4--4--4--4--4--4--4--4--4--4--4--4--3--3--|


G|-------------------------------------------------|-------------------------------------------|
D|-------------------------------------------------|------------------------------------3------|
A|-------------------------------------------------|-------------6--6--4--2--2------1------2---|
E|-0--0--0--0--0--0--0--0--0--0--0--0--3--3--3--3--|-4--4--4--4--------------------------------|


G|-----------------------------------------|-------------------------------------------|
D|-4--4---4----------4--6--8--11--------6--|------------------------------------3------|
A|-----------4---4------------------6------|-------------6--6--4--2--2------1------2---|
E|-------------------------------4---------|-4--4--4--4--------------------------------|


G|-------------------------------------------|-------------------------------------------|
D|-----4---------6---8--6--4-----------------|------------------------------------3------|
A|-2------2--4----------------6--------------|-------------6--6--4--2--2------1------2---|
E|-------------------------------4--4--4--4--|-4--4--4--4--------------------------------|


G|-----------------------------------------|-------------------------------------------|
D|-4--4---4----------4--6--8--11--------6--|------------------------------------3------|
A|-----------4---4------------------6------|-------------6--6--4--2--2------1------2---|
E|-------------------------------4---------|-4--4--4--4--------------------------------|


G|-------------------------------------------|---------------------|-------------|
D|-----4---------6---8--6--4-----------------|---------------------|-------------|
A|-2------2--4----------------6--------------|---------------------|-------------|
E|-------------------------------4--4--4--4--|-4---------4---------|-0------2----|


G|---------------------|----------------|---------------------------------|---------------------------------|
D|---------------------|--------2---2---|---------------------------------|---------------------------------|
A|---------------------|----------------|---------------------------------|---------------------------------|
E|-4---------4---------|-0--------------|-0---0---0---0---0---0---2---3---|-0---0---0---0---0---0---2---3---|


G|--------------------------------|---------------------------------|---------------------------------|
D|-------------3------------------|---------------------------------|---------------------------------|
A|---------3--------5--3----------|---------------------------------|---------------------------------|
E|-1---1------------------1---1---|-1---1---1---1---1---1---1---1---|-0---0---0---0---0---0---2---3---|


G|---------------------------------|--------------------------------|---------------------------------|
D|---------------------------------|-------------3------------------|---------------------------------|
A|---------------------------------|---------3--------5--3----------|---------------------------------|
E|-0---0---0---0---0---0---2---3---|-1---1------------------1---1---|-1---1---1---1---1---1---1---1---|


G|---------------------------------|---------------------------------|--------------------------------|
D|---------------------------------|---------------------------------|-------------3------------------|
A|---------------------------------|---------------------------------|---------3--------5--3----------|
E|-0---0---0---0---0---0---2---3---|-0---0---0---0---0---0---2---3---|-1---1------------------1---1---|


G|---------------------------------|
D|---------------------------------|
A|---------------------------------|
E|-1---1---1---1---1---1---1---1---|









Track 6: Dust
Back to top
E|-------------|-------------|-------------|-------------|-------------|-------------|
B|-------------|-------------|-------------|-------------|-------------|-------------|
G|-------------|-------------|-------------|-------------|-------------|-------------|
D|-------------|-------------|-------------|-------------|-------------|-------------|
A|-------------|-------------|-------------|-------------|-------------|-------------|
E|-------------|-------------|-------------|-------------|-------------|-------------|


E|-------------|-------------|-------------|-------------|-------------|-------------|
B|-------------|-------------|-------------|-------------|-------------|-------------|
G|-------------|-------------|-------------|-------------|-------------|-------------|
D|-------------|-------------|-------------|-------------|-------------|-------------|
A|-------------|-------------|-------------|-------------|-------------|-------------|
E|-------------|-------------|-------------|-------------|-------------|-------------|


E|-------------|-------------------------------------|-------------------------------------|
B|-------------|-------------------------------------|-------------------------------------|
G|-------------|-------------------------------------|-------------------------------------|
D|-------------|-------------------------------------|-------------------------------------|
A|-------------|-----------2-------2-----------------|-----------2-------2-----------------|
E|-------------|-0---0--0--0---0------0--0---2---3---|-0---0--0--0---0------0--0---2---3---|


E|---------------------------------|---------------------------------|-------------------------------------|
B|---------------------------------|---------------------------------|-------------------------------------|
G|---------------------------------|---------------------------------|-------------------------------------|
D|---------------------------------|---------------------------------|-------------------------------------|
A|---------3-----------5---5-------|---------3-----------5---5---3---|-----------2-------2-----------------|
E|-1---1---1---1---1---3---3---0---|-1---1---1---1---1---3---3---1---|-0---0--0--0---0------0--0---2---3---|


E|-------------------------------------|---------------------------------|---------------------------------|
B|-------------------------------------|---------------------------------|---------------------------------|
G|-------------------------------------|---------------------------------|---------------------------------|
D|-------------------------------------|---------------------------------|---------------------------------|
A|-----------2-------2-----------------|---------3-----------5---5-------|---------3-----------5---5---3---|
E|-0---0--0--0---0------0--0---2---3---|-1---1---1---1---1---3---3---0---|-1---1---1---1---1---3---3---1---|


E|-------------------------------------|-------------------------------------|---------------------------------|
B|-------------------------------------|-------------------------------------|---------------------------------|
G|-------------------------------------|-------------------------------------|---------------------------------|
D|-------------------------------------|-------------------------------------|---------------------------------|
A|-----------2-------2-----------------|-----------2-------2-----------------|---------3-----------5---5-------|
E|-0---0--0--0---0------0--0---2---3---|-0---0--0--0---0------0--0---2---3---|-1---1---1---1---1---3---3---0---|


E|---------------------------------|----------------------------------|-------------------------------------|
B|---------------------------------|----------------------------------|-------------------------------------|
G|---------------------------------|----------------------------------|-------------------------------------|
D|---------------------------------|-2------2------2------2------3----|-2------2------2------2------5---5---|
A|---------3-----------5---5---3---|-2------2------2------2------3----|-2------2------2------2------5---5---|
E|-1---1---1---1---1---3---3---1---|-0------0------0------0------1----|-0------0------0------0------3---3---|


E|----------------------------------|-------------------------------------------------|
B|----------------------------------|-------------------------------------------------|
G|----------------------------------|---------------------------0-2-5-2-0-------------|
D|-2------2------2------2------3----|-2------2------2-------3-6-----------6-3---------|
A|-2------2------2------2------3----|-2------2------2-----5-------------------5-------|
E|-0------0------0------0------1----|-0------0------0---3-----------------------3--1--|


E|-------------------------------------------------|-------------------------------------------------|
B|-------------------------------------------------|-------------------------------------------------|
G|-------------------------------------------------|-------------------------------------------------|
D|-2--------2--------2--------2--------3--3--3--3--|-2--------2--------2--------2--------5--3--5--3--|
A|-2--------2--------2--------2--------3--3--3--3--|-2--------2--------2--------2--------5--3--5--3--|
E|-0--0--0--0--0--0--0--0--0--0--0--0--1--1--1--1--|-0--0--0--0--0--0--0--0--0--0--0--0--3--1--3--1--|


E|-------------------------------------------------|---------------------------------------------|
B|-------------------------------------------------|---------------------------------------------|
G|-------------------------------------------------|---------------------------------------------|
D|-2--------2--------2--------2--------3--3--3--3--|-2--------2--------2--------2--------5---5---|
A|-2--------2--------2--------2--------3--3--3--3--|-2--------2--------2--------2--------5---5---|
E|-0--0--0--0--0--0--0--0--0--0--0--0--1--1--1--1--|-0--0--0--0--0--0--0--0--0--0--0--0--3---3---|


E|-------------------------------------------------|-------------------------------------------------|
B|-------------------------------------------------|-------------------------------------------------|
G|-------------------------------------------------|-------------------------------------------------|
D|-2--------2--------2--------2--------3--3--3--3--|-2--------2--------2--------2--------5--3--5--3--|
A|-2--------2--------2--------2--------3--3--3--3--|-2--------2--------2--------2--------5--3--5--3--|
E|-0--0--0--0--0--0--0--0--0--0--0--0--1--1--1--1--|-0--0--0--0--0--0--0--0--0--0--0--0--3--1--3--1--|


E|-------------------------------------------------|---------------------------------------------|
B|-------------------------------------------------|---------------------------------------------|
G|-------------------------------------------------|---------------------------------------------|
D|-2--------2--------2--------2--------3--3--3--3--|-2--------2--------2--------2--------5---5---|
A|-2--------2--------2--------2--------3--3--3--3--|-2--------2--------2--------2--------5---5---|
E|-0--0--0--0--0--0--0--0--0--0--0--0--1--1--1--1--|-0--0--0--0--0--0--0--0--0--0--0--0--3---3---|


E|--------|--------|----------------|----------------|-4------4---3---|-0---0---0-----0---3---|
B|--------|--------|----------------|----------------|----------------|-----------------------|
G|--------|--------|----------------|----------------|----------------|-----------------------|
D|-5------|-5------|----------------|----------------|----------------|-----------------------|
A|-5------|-5------|----------------|----------------|----------------|-----------------------|
E|-3------|-3------|----------------|----------------|----------------|-----------------------|


E|-4----4-----4---3---|-0------|-4----4-----4---3---|-0-----12----|-4----4-----4---3---|
B|--------------------|--------|--------------------|-------------|--------------------|
G|--------------------|--------|--------------------|-------------|--------------------|
D|--------------------|--------|--------------------|-------------|--------------------|
A|--------------------|--------|--------------------|-------------|--------------------|
E|--------------------|--------|--------------------|-------------|--------------------|


E|-0-----12--10--9---------------|-------16-------16-14--------14--14--14--|-18---19--18--16--14----|
B|-------------------12--10--8---|----16-------16--------14-16-------------|------------------------|
G|-------------------------------|-13-------13-----------------------------|------------------------|
D|-------------------------------|-----------------------------------------|------------------------|
A|-------------------------------|-----------------------------------------|------------------------|
E|-------------------------------|-----------------------------------------|------------------------|


E|-----19--18--19-21-19---18---|-9---14-12-11----------12-11-9-----------------|-16---14--18--19--21-19-------------------14--|
B|-21--------------------------|--------------14-12-11----------12-11-9-----9--|------------------------21-18----16-14-16-----|
G|-----------------------------|-----------------------------------------11----|------------------------------21--------------|
D|-----------------------------|-----------------------------------------------|----------------------------------------------|
A|-----------------------------|-----------------------------------------------|----------------------------------------------|
E|-----------------------------|-----------------------------------------------|----------------------------------------------|


E|-18--------18--21--18--19-18-16-15-|-----19--19-18-16--------------19--19--|-14-12-11----14-12-11----9-----------7----|
B|-------21--------------------------|-21---------------19-18-16-14------19--|----------14----------14----12-11-9--7----|
G|-----------------------------------|---------------------------------------|------------------------------------------|
D|-----------------------------------|---------------------------------------|------------------------------------------|
A|-----------------------------------|---------------------------------------|------------------------------------------|
E|-----------------------------------|---------------------------------------|------------------------------------------|


E|---------------------|-------------|---------------------|-------------|-------------------------------------|
B|---------------------|-------------|---------------------|-------------|-------------------------------------|
G|---------------------|-------------|---------------------|-------------|-------------------------------------|
D|-6---------6---------|-2------4----|-6---------6---------|-2------2----|-------------------------------------|
A|-6---------6---------|-2------4----|-6---------6---------|-2------2----|-----------2-------2-----------------|
E|-4---------4---------|-0------2----|-4---------4---------|-0------0----|-0---0--0--0---0------0--0---2---3---|


E|-------------------------------------|---------------------------------|---------------------------------|
B|-------------------------------------|---------------------------------|---------------------------------|
G|-------------------------------------|---------------------------------|---------------------------------|
D|-------------------------------------|---------------------------------|---------------------------------|
A|-----------2-------2-----------------|---------3-----------5---5-------|---------3-----------5---5---3---|
E|-0---0--0--0---0------0--0---2---3---|-1---1---1---1---1---3---3---0---|-1---1---1---1---1---3---3---1---|


E|-------------------------------------|-------------------------------------|---------------------------------|
B|-------------------------------------|-------------------------------------|---------------------------------|
G|-------------------------------------|-------------------------------------|---------------------------------|
D|-------------------------------------|-------------------------------------|---------------------------------|
A|-----------2-------2-----------------|-----------2-------2-----------------|---------3-----------5---5-------|
E|-0---0--0--0---0------0--0---2---3---|-0---0--0--0---0------0--0---2---3---|-1---1---1---1---1---3---3---0---|


E|---------------------------------|-------------------------------------|-------------------------------------|
B|---------------------------------|-------------------------------------|-------------------------------------|
G|---------------------------------|-------------------------------------|-------------------------------------|
D|---------------------------------|-------------------------------------|-------------------------------------|
A|---------3-----------5---5---3---|-----------2-------2-----------------|-----------2-------2-----------------|
E|-1---1---1---1---1---3---3---1---|-0---0--0--0---0------0--0---2---3---|-0---0--0--0---0------0--0---2---3---|


E|---------------------------------|---------------------------------|
B|---------------------------------|---------------------------------|
G|---------------------------------|---------------------------------|
D|---------------------------------|---------------------------------|
A|---------3-----------5---5-------|---------3-----------5---5---3---|
E|-1---1---1---1---1---3---3---0---|-1---1---1---1---1---3---3---1---|









Track 7: Blood
Back to top
E|-------------|-------------|-------------|-------------|-------------|-------------|
B|-------------|-------------|-------------|-------------|-------------|-------------|
G|-------------|-------------|-------------|-------------|-------------|-------------|
D|-------------|-------------|-------------|-------------|-------------|-------------|
A|-------------|-------------|-------------|-------------|-------------|-------------|
E|-------------|-------------|-------------|-------------|-------------|-------------|


E|-------------|-------------|-------------|-------------|-------------|-------------|
B|-------------|-------------|-------------|-------------|-------------|-------------|
G|-------------|-------------|-------------|-------------|-------------|-------------|
D|-------------|-------------|-------------|-------------|-------------|-------------|
A|-------------|-------------|-------------|-------------|-------------|-------------|
E|-------------|-------------|-------------|-------------|-------------|-------------|


E|-------------|-------------|-------------|-------------|-------------|-------------|
B|-------------|-------------|-------------|-------------|-------------|-------------|
G|-------------|-------------|-------------|-------------|-------------|-------------|
D|-------------|-------------|-------------|-------------|-------------|-------------|
A|-------------|-------------|-------------|-------------|-------------|-------------|
E|-------------|-------------|-------------|-------------|-------------|-------------|


E|-------------|-------------|-------------|-12-----|-12-----|-13-----|-13-----|-12-------------|
B|-------------|-------------|-------------|-12-----|-12-----|-13-----|-13-----|-12-------------|
G|-------------|-------------|-------------|-12-----|-12-----|-13-----|-13-----|-12-------------|
D|-------------|-------------|-------------|--------|--------|--------|--------|----------------|
A|-------------|-------------|-------------|--------|--------|--------|--------|----------------|
E|-------------|-------------|-------------|--------|--------|--------|--------|----------------|


E|-12-------------|-12-------------|-12-----------12----|-12-----13---|-12-----15---|
B|-12-------------|-12-------------|-12-----------12----|-12-----13---|-12-----15---|
G|-12-------------|-12-------------|-12-----------12----|-12-----13---|-12-----15---|
D|----------------|----------------|--------------------|-------------|-------------|
A|----------------|----------------|--------------------|-------------|-------------|
E|----------------|----------------|--------------------|-------------|-------------|


E|-12-----13---|-12-----15---|-16-----13---|-12-----15---|-16-----13---|-12-----15---|
B|-12-----13---|-12-----15---|-16-----13---|-12-----15---|-16-----13---|-12-----15---|
G|-12-----13---|-12-----15---|-16-----13---|-12-----15---|-16-----13---|-12-----15---|
D|-------------|-------------|-------------|-------------|-------------|-------------|
A|-------------|-------------|-------------|-------------|-------------|-------------|
E|-------------|-------------|-------------|-------------|-------------|-------------|


E|--------|--------|--------|--------|--------|--------|--------|--------|--------|
B|--------|--------|--------|--------|--------|--------|--------|--------|--------|
G|--------|--------|--------|--------|--------|--------|--------|--------|--------|
D|--------|--------|--------|--------|--------|--------|--------|--------|--------|
A|--------|--------|--------|--------|--------|--------|--------|--------|--------|
E|--------|--------|--------|--------|--------|--------|--------|--------|--------|


E|--------|--------|-------19----|-19----19----|-18----14----|-19-----|-19---21---16----|
B|--------|--------|-------9-----|-9-----19----|-18----14----|-9------|-----------16----|
G|--------|--------|-------13----|-13----16----|-18----------|-13-----|-----------16----|
D|--------|--------|-------------|-------------|-------------|--------|-----------------|
A|--------|--------|-------------|-------------|-------------|--------|-----------------|
E|--------|--------|-------------|-------------|-------------|--------|-----------------|


E|---------16------19----|-18----14----|-19-----|-19---21---16----|--------|--------|
B|-----9-------9---19----|-18----14----|-9------|-----------16----|--------|--------|
G|-13--------------16----|-18----------|-13-----|-----------16----|--------|--------|
D|-----------------------|-------------|--------|-----------------|--------|--------|
A|-----------------------|-------------|--------|-----------------|--------|--------|
E|-----------------------|-------------|--------|-----------------|--------|--------|


E|--------|--------|-12-----|-12-----|-13-----|-13-----|-12-----|-12-----|-13-----|
B|--------|--------|-12-----|-12-----|-13-----|-13-----|-12-----|-12-----|-13-----|
G|--------|--------|-12-----|-12-----|-13-----|-13-----|-12-----|-12-----|-13-----|
D|--------|--------|--------|--------|--------|--------|--------|--------|--------|
A|--------|--------|--------|--------|--------|--------|--------|--------|--------|
E|--------|--------|--------|--------|--------|--------|--------|--------|--------|


E|-13-----|-12-----|-12-----|-13-----|-13-----|
B|-13-----|-12-----|-12-----|-13-----|-13-----|
G|-13-----|-12-----|-12-----|-13-----|-13-----|
D|--------|--------|--------|--------|--------|
A|--------|--------|--------|--------|--------|
E|--------|--------|--------|--------|--------|



← Back to top