My Nation

by Kalmah

Guitar Pro Tab  |  v4.06  |  Posted on March 29, 2007, 11 a.m. ← Back

Guitar Pro Tab Summary

Album

They Will Return

Song Author

unknown

Tabbed by

Semhan Ayd´┐Żn (Monochrome)

Instruments

1st → Antti Kokko
2nd → Timo Lehtinen
3rd → Pekka Kokko
4th → Janne Kusmin
5th → Marco Sneck

File Size

50 KB

Views

2,270






Tablature Sheet

Title: My Nation
Artist: Kalmah
Album: They Will Return
Author: 






Track 1: Antti Kokko
Back to top
D#|-----------|---------------------------|------------------------------|---------------------------|
A#|-----------|---------------------------|------------------------------|---------------------------|
F#|-----------|---------------------------|------------------------------|---------------------------|
C#|-----------|---------------------------|------------------------------|---------------------------|
G#|-----------|-7---7---5---7----3----3---|-5-------5---2----2---2---2---|-7---7---5---7----3----3---|
D#|-----------|---------------------------|-----3-------0----0---0---0---|---------------------------|


D#|------------------------------|---------------------------|------------------------------|
A#|------------------------------|---------------------------|------------------------------|
F#|------------------------------|---------------------------|------------------------------|
C#|------------------------------|---------------------------|------------------------------|
G#|-5-------5---2----2---2---2---|-7---7---5---7----3----3---|-5-------5---2----2---2---2---|
D#|-----3-------0----0---0---0---|---------------------------|-----3-------0----0---0---0---|


D#|---------------------------|------------------------------|---------------------------|
A#|---------------------------|------------------------------|---------------------------|
F#|---------------------------|------------------------------|-9---9---7---9-----11--12--|
C#|---------------------------|------------------------------|---------------------------|
G#|-7---7---5---7----3----3---|-5-------5---2----2---2---2---|---------------------------|
D#|---------------------------|-----3-------0----0---0---0---|---------------------------|


D#|-------------------------------|---------------------------|--------------------------|
A#|-------------------------------|---------------------------|--------------------------|
F#|-111211------------------------|-9---9---7---9-----11--12--|-12-14-12--11--9----------|
C#|--------12--9---14---14--------|---------------------------|--------------------------|
G#|-------------------------------|---------------------------|--------------------------|
D#|-------------------------------|---------------------------|--------------------------|


D#|------------------------------|------------------------|------------------------------|
A#|------------------------------|------------------------|------------------------------|
F#|-12--12--11--12---12--16--14--|-14--12--11--12---------|-12--12--11--9----------------|
C#|------------------------------|------------------------|------------------12--9-------|
G#|------------------------------|------------------------|--------------------------12--|
D#|------------------------------|------------------------|------------------------------|


D#|-----------------------|--------|--------|--------|------------12---|-12-----|-12-----|
A#|-----------------------|--------|--------|--------|-------12--------|-12-----|-12-----|
F#|-----------------------|--------|--------|--------|-----------------|--------|--------|
C#|-----------------------|-2------|-2------|-2------|-2-----2---------|--------|--------|
G#|-11--10--9---7-----7---|-2------|-2------|-2------|-2-----2---------|--------|--------|
D#|-----------------------|-0------|-0------|-0------|-0-----0---------|-12-----|-12-----|


D#|-12-----|-12-----|--------|--------|--------|--------|--------|--------|--------|
A#|-12-----|-12-----|--------|--------|--------|--------|--------|--------|--------|
F#|--------|--------|--------|--------|--------|--------|--------|--------|--------|
C#|--------|--------|--------|--------|--------|--------|--------|--------|--------|
G#|--------|--------|--------|--------|--------|--------|--------|--------|--------|
D#|-12-----|-12-----|--------|--------|--------|--------|--------|--------|--------|


D#|--------|--------|--------|--------|-----------------------|---------------------------------|
A#|--------|--------|--------|--------|-----------------------|---------------------------------|
F#|--------|--------|--------|--------|-----------------------|---------------------------------|
C#|--------|--------|--------|--------|-----------------------|-12--12------11--11------10--10--|
G#|--------|--------|--------|--------|-------2---2---2---2---|-10--10------9---9-------12--12--|
D#|--------|--------|--------|--------|-------0---0---0---0---|---------0-----------0-----------|


D#|-----------------------------------|---------------------------------|-------------------------------------|
A#|-----------------------------------|---------------------------------|-------------------------------------|
F#|-----------------------------------|---------------------------------|-------------------------------------|
C#|-----9---9-------------------------|-9---9-------7---7-------7---7---|-----2---2---------------------------|
G#|-----10--10------------------------|-10--10------9---9-------5---5---|-----3---3-------3--3--3---3--3--3---|
D#|-0-----------0---0---0---0--0--0---|---------0-----------0-----------|-0-----------0-----------------------|


D#|---------------------------------|-----------------------------------|---------------------------------|
A#|---------------------------------|-----------------------------------|---------------------------------|
F#|---------------------------------|-----------------------------------|---------------------------------|
C#|-12--12------11--11------10--10--|-----9---9-------------------------|-9---9-------7---7-------7---7---|
G#|-10--10------9---9-------12--12--|-----10--10------------------------|-10--10------9---9-------5---5---|
D#|---------0-----------0-----------|-0-----------0---0---0---0--0--0---|---------0-----------0-----------|


D#|---------------------------------|---------------------------------|-----------------------------------|
A#|---------------------------------|---------------------------------|-----------------------------------|
F#|---------------------------------|---------------------------------|-----------------------------------|
C#|-----2---2-------5---5---5---5---|-12--12------11--11------10--10--|-----9---9-------------------------|
G#|-----3---3-------3---3---3---3---|-10--10------9---9-------12--12--|-----10--10------------------------|
D#|-0-----------0-------------------|---------0-----------0-----------|-0-----------0---0---0---0--0--0---|


D#|---------------------------------|-------------------------------------|---------------------------------|
A#|---------------------------------|-------------------------------------|---------------------------------|
F#|---------------------------------|-------------------------------------|---------------------------------|
C#|-9---9-------7---7-------7---7---|-----2---2---------------------------|-12--12------11--11------10--10--|
G#|-10--10------9---9-------5---5---|-----3---3-------3--3--3---3--3--3---|-10--10------9---9-------12--12--|
D#|---------0-----------0-----------|-0-----------0-----------------------|---------0-----------0-----------|


D#|-----------------------------------|---------------------------------|-------------------------------------|
A#|-----------------------------------|---------------------------------|-------------------------------------|
F#|-----------------------------------|---------------------------------|-------------------------------------|
C#|-----9---9-------------------------|-9---9-------7---7-------7---7---|-----2---2---------------------------|
G#|-----10--10------------------------|-10--10------9---9-------5---5---|-----3---3-------3--3--3---3--3--3---|
D#|-0-----------0---0---0---0--0--0---|---------0-----------0-----------|-0-----------0-----------------------|


D#|--------|--------|--------|---------------24---|-24-----|-24-----|-24-----|-24-----|
A#|--------|--------|--------|-----------24-------|-24-----|-24-----|-24-----|-24-----|
F#|--------|--------|--------|-------24-----------|-24-----|-24-----|-24-----|-24-----|
C#|-2------|-2------|-2------|-2------------------|--------|--------|--------|--------|
G#|-2------|-2------|-2------|-2------------------|--------|--------|--------|--------|
D#|-0------|-0------|-0------|-0------------------|--------|--------|--------|--------|


D#|----------------|----------------|----------------|----------------|----------------|
A#|----------------|----------------|----------------|----------------|----------------|
F#|----------------|----------------|----------------|----------------|----------------|
C#|----------------|----------------|----------------|----------------|----------------|
G#|----------------|----------------|----------------|----------------|----------------|
D#|----------------|----------------|----------------|----------------|----------------|


D#|----------------|----------------|----------------|----------------|----------------|
A#|----------------|----------------|----------------|----------------|----------------|
F#|----------------|----------------|----------------|----------------|----------------|
C#|----------------|----------------|----------------|----------------|----------------|
G#|----------------|----------------|----------------|----------------|----------------|
D#|----------------|----------------|----------------|----------------|----------------|


D#|----------------|-------------------------------|-------------------------------------------------|
A#|----------------|-------------------------------|-------------------------------------------------|
F#|----------------|-------------------------------|-------------------------------------------------|
C#|----------------|-------------------------------|-------------------------------------------------|
G#|----------------|-------10-10-10-10-10-10-10-10-|-10-10-10-10-10-10-9--9--9--9--9--9--12-12-12-12-|
D#|----------------|-------------------------------|-------------------------------------------------|


D#|-------------------------------------------|-------------------------------------------------|
A#|-------------------------------------------|-------------------------------------------------|
F#|-------------------------------------------|-------------------------------------------------|
C#|-------------------------------------------|-------------------------------------------------|
G#|-12-12-10-10-10-10-10-10-------------------|-10-10-10-10-10-10-9--9--9--9--9--9--5--5--5--5--|
D#|-------------------------0---0---0--0--0---|-------------------------------------------------|


D#|---------------------------------------------|-------------------------------------------------|
A#|---------------------------------------------|-------------------------------------------------|
F#|---------------------------------------------|-------------------------------------------------|
C#|---------------------------------------------|-------------------------------------------------|
G#|-5--5--3--3--3--3--3--3--3--3--3---3--3--3---|-10-10-10-10-10-10-9--9--9--9--9--9--12-12-12-12-|
D#|---------------------------------------------|-------------------------------------------------|


D#|-------------------------------------------|-------------------------------------------------|
A#|-------------------------------------------|-------------------------------------------------|
F#|-------------------------------------------|-------------------------------------------------|
C#|-------------------------------------------|-------------------------------------------------|
G#|-12-12-10-10-10-10-10-10-------------------|-10-10-10-10-10-10-9--9--9--9--9--9--5--5--5--5--|
D#|-------------------------0---0---0--0--0---|-------------------------------------------------|


D#|---------------------------------------------|-------------------------------------------------|
A#|---------------------------------------------|-------------------------------------------------|
F#|---------------------------------------------|-------------------------------------------------|
C#|---------------------------------------------|-------------------------------------------------|
G#|-5--5--3--3--3--3--3--3--3--3--3---3--3--3---|-10-10-10-10-10-10-9--9--9--9--9--9--12-12-12-12-|
D#|---------------------------------------------|-------------------------------------------------|


D#|-------------------------------------------|-------------------------------------------------|
A#|-------------------------------------------|-------------------------------------------------|
F#|-------------------------------------------|-------------------------------------------------|
C#|-------------------------------------------|-------------------------------------------------|
G#|-12-12-10-10-10-10-10-10-------------------|-10-10-10-10-10-10-9--9--9--9--9--9--5--5--5--5--|
D#|-------------------------0---0---0--0--0---|-------------------------------------------------|


D#|---------------------------------------------|-------------------------------------------------|
A#|---------------------------------------------|-------------------------------------------------|
F#|---------------------------------------------|-------------------------------------------------|
C#|---------------------------------------------|-------------------------------------------------|
G#|-5--5--3--3--3--3--3--3--3--3--3---3--3--3---|-10-10-10-10-10-10-9--9--9--9--9--9--12-12-12-12-|
D#|---------------------------------------------|-------------------------------------------------|


D#|-------------------------------------------|-------------------------------------------------|
A#|-------------------------------------------|-------------------------------------------------|
F#|-------------------------------------------|-------------------------------------------------|
C#|-------------------------------------------|-------------------------------------------------|
G#|-12-12-10-10-10-10-10-10-------------------|-10-10-10-10-10-10-9--9--9--9--9--9--5--5--5--5--|
D#|-------------------------0---0---0--0--0---|-------------------------------------------------|


D#|---------------------------------------------|---------------------------|------------------------------|
A#|---------------------------------------------|---------------------------|------------------------------|
F#|---------------------------------------------|---------------------------|------------------------------|
C#|---------------------------------------------|---------------------------|------------------------------|
G#|-5--5--3--3--3--3--3--3--3--3--3---3--3--3---|-7---7---5---7----3----3---|-5-------5---2----2---2---2---|
D#|---------------------------------------------|---------------------------|-----3-------0----0---0---0---|


D#|---------------------------|------------------------------|---------------------------|
A#|---------------------------|------------------------------|---------------------------|
F#|---------------------------|------------------------------|---------------------------|
C#|---------------------------|------------------------------|---------------------------|
G#|-7---7---5---7----3----3---|-5-------5---2----2---2---2---|-7---7---5---7----3----3---|
D#|---------------------------|-----3-------0----0---0---0---|---------------------------|


D#|------------------------------|---------------------------|------------------------------|
A#|------------------------------|---------------------------|------------------------------|
F#|------------------------------|---------------------------|------------------------------|
C#|------------------------------|---------------------------|------------------------------|
G#|-5-------5---2----2---2---2---|-7---7---5---7----3----3---|-5-------5---2----2---2---2---|
D#|-----3-------0----0---0---0---|---------------------------|-----3-------0----0---0---0---|


D#|---------------------------|-------------------------------|---------------------------|
A#|---------------------------|-------------------------------|---------------------------|
F#|-9---9---7---9-----11--12--|-111211------------------------|-9---9---7---9-----11--12--|
C#|---------------------------|--------12--9---14---14--------|---------------------------|
G#|---------------------------|-------------------------------|---------------------------|
D#|---------------------------|-------------------------------|---------------------------|


D#|--------------------------|------------------------------|------------------------|
A#|--------------------------|------------------------------|------------------------|
F#|-12-14-12--11--9----------|-12--12--11--12---12--16--14--|-14--12--11--12---------|
C#|--------------------------|------------------------------|------------------------|
G#|--------------------------|------------------------------|------------------------|
D#|--------------------------|------------------------------|------------------------|


D#|------------------------------|-----------------------|------------------|---------------------------|
A#|------------------------------|-----------------------|------------------|---------------------------|
F#|-12--12--11--9----------------|-----------------------|-4-----2-----5----|-5---5---------------------|
C#|------------------12--9-------|-----------------------|-5-----4-----7----|-7---5-----5---5---5---5---|
G#|--------------------------12--|-11--10--9---7-----7---|------------------|-----3-----3---3---3---3---|
D#|------------------------------|-----------------------|------------------|---------------------------|


D#|------------------|---------------------------|------------------|---------------------------|
A#|------------------|---------------------------|------------------|---------------------------|
F#|-5-----4-----7----|-7---9---------------------|-4-----2-----5----|-5---5---------------------|
C#|-5-----4-----5----|-5---9---------------------|-5-----4-----7----|-7---5-----5---5---5---5---|
G#|-3-----2-----5----|-5---7-----2---2---2---2---|------------------|-----3-----3---3---3---3---|
D#|------------------|-----------0---0---0---0---|------------------|---------------------------|


D#|------------------|---------------------------|------------------|---------------------------|
A#|------------------|---------------------------|------------------|---------------------------|
F#|-5-----4-----7----|-7---9---------------------|-4-----2-----5----|-5---5---------------------|
C#|-5-----4-----5----|-5---9---------------------|-5-----4-----7----|-7---5-----5---5---5---5---|
G#|-3-----2-----5----|-5---7-----2---2---2---2---|------------------|-----3-----3---3---3---3---|
D#|------------------|-----------0---0---0---0---|------------------|---------------------------|


D#|------------------|---------------------------|------------------|---------------------------|
A#|------------------|---------------------------|------------------|---------------------------|
F#|-5-----4-----7----|-7---9---------------------|-4-----2-----5----|-5---5---------------------|
C#|-5-----4-----5----|-5---9---------------------|-5-----4-----7----|-7---5-----5---5---5---5---|
G#|-3-----2-----5----|-5---7-----2---2---2---2---|------------------|-----3-----3---3---3---3---|
D#|------------------|-----------0---0---0---0---|------------------|---------------------------|


D#|------------------|---------------------------|-------------------------------------------------|
A#|------------------|---------------------------|-------------------------------------------------|
F#|-5-----4-----7----|-7---9---------------------|-------------------------------------------------|
C#|-5-----4-----5----|-5---9---------------------|-------------------------------------------------|
G#|-3-----2-----5----|-5---7-----2---2---2---2---|-------------------------------------------------|
D#|------------------|-----------0---0---0---0---|-0--0--0--0--0--0--0--0--0--0--0--0--0--0--0--0--|


D#|-------------------------------------------------|-------------------------------------------------|
A#|-------------------------------------------------|-------------------------------------------------|
F#|-------------------------------------------------|-------------------------------------------------|
C#|-------------------------------------------------|-------------------------------------------------|
G#|-------------------------------------------------|-------------------------------------------------|
D#|-0--0--0--0--0--0--0--0--0--0--0--0--0--0--0--0--|-0--0--0--0--0--0--0--0--0--0--0--0--0--0--0--0--|


D#|-------------------------------------------------|---------------------------------|
A#|-------------------------------------------------|---------------------------------|
F#|-------------------------------------------------|-4---4-------4---4-------4---4---|
C#|-------------------------------------------------|-4---4-------5---5-------2---2---|
G#|-------------------------------------------------|-2---2---2---2---2---2---2---2---|
D#|-0--0--0--0--0--0--0--0--0--0--0--0--0--0--0--0--|---------------------------------|


D#|---------------------------------|-------------------------------------------------|
A#|---------------------------------|-------------------------------------------------|
F#|-----4---4-------4-------4-------|-------------------------------------------------|
C#|-----4---4-------4-------4-------|-------------------------------------------------|
G#|-2---2---2---2---2---2---2---2---|-2--2--2--2--2--2--2--2--2--2--2--2--2--2--2--2--|
D#|---------------------------------|-------------------------------------------------|


D#|-------------------------------------------------|---------------------------------|
A#|-------------------------------------------------|---------------------------------|
F#|-------------------------------------------------|-7---7-------7---7-------7---7---|
C#|-------------------------------------------------|-7---7-------8---8-------5---5---|
G#|-2--2--2--2--2--2--2--2--2--2--2--2--2--2--2--2--|-5---5---5---5---5---5---5---5---|
D#|-------------------------------------------------|---------------------------------|


D#|---------------------------------|-------------------------------------------------|
A#|---------------------------------|-------------------------------------------------|
F#|-----7---7-------7-------7-------|-------------------------------------------------|
C#|-----7---7-------7-------7-------|-------------------------------------------------|
G#|-5---5---5---5---5---5---5---5---|-5--5--5--5--5--5--5--5--5--5--5--5--5--5--5--5--|
D#|---------------------------------|-------------------------------------------------|


D#|-------------------------------------------------|-----------------------------------------|
A#|-------------------------------------------------|-----------------------------------------|
F#|-------------------------------------------------|-----------------------------------------|
C#|-------------------------------------------------|-----------------------------------------|
G#|-5--5--5--5--5--5--5--5--5--5--5--5--5--5--5--5--|-----------------------------------------|
D#|-------------------------------------------------|-0--0--0---0--0--0---0--0--0---0--0--0---|


D#|-----------------------------------------|-----------------------------------------|
A#|-----------------------------------------|-----------------------------------------|
F#|-----------------------------------------|-----------------------------------------|
C#|-----------------------------------------|-----------------------------------------|
G#|-----------------------------------------|-----------------------------------------|
D#|-0--0--0---0--0--0---0--0--0---0--0--0---|-2---2--2--2---2--2--2---2--2--2---2--2--|


D#|-----------------------------------------|-----------------------------------------|
A#|-----------------------------------------|-----------------------------------------|
F#|-----------------------------------------|-----------------------------------------|
C#|-----------------------------------------|-----------------------------------------|
G#|-----------------------------------------|-----------------------------------------|
D#|-2---2--2--2---2--2--2---2--2--2---2--2--|-0--0--0---0--0--0---0--0--0---0--0--0---|


D#|-----------------------------------------|-----------------------------------------|
A#|-----------------------------------------|-----------------------------------------|
F#|-----------------------------------------|-----------------------------------------|
C#|-----------------------------------------|-----------------------------------------|
G#|-----------------------------------------|-----------------------------------------|
D#|-0--0--0---0--0--0---0--0--0---0--0--0---|-2---2--2--2---2--2--2---2--2--2---2--2--|


D#|-----------------------------------------|------------------|---------------------------|
A#|-----------------------------------------|------------------|---------------------------|
F#|-----------------------------------------|-4-----2-----5----|-5---5---------------------|
C#|-----------------------------------------|-5-----4-----7----|-7---5-----5---5---5---5---|
G#|-----------------------------------------|------------------|-----3-----3---3---3---3---|
D#|-2---2--2--2---2--2--2---2--2--2---2--2--|------------------|---------------------------|


D#|------------------|---------------------------|------------------|---------------------------|
A#|------------------|---------------------------|------------------|---------------------------|
F#|-5-----4-----7----|-7---9---------------------|-4-----2-----5----|-5---5---------------------|
C#|-5-----4-----5----|-5---9---------------------|-5-----4-----7----|-7---5-----5---5---5---5---|
G#|-3-----2-----5----|-5---7-----2---2---2---2---|------------------|-----3-----3---3---3---3---|
D#|------------------|-----------0---0---0---0---|------------------|---------------------------|


D#|------------------|----------------|--------|-------------------------------|-------------------------------------------------|
A#|------------------|----------------|--------|-------------------------------|-------------------------------------------------|
F#|-5-----4-----7----|-7---9------9---|-9------|-9-----------------------------|-------------------------------------------------|
C#|-5-----4-----5----|-5---9------9---|-9------|-9-----------------------------|-------------------------------------------------|
G#|-3-----2-----5----|-5---10-----10--|-10-----|-10----10-10-10-10-10-10-10-10-|-10-10-10-10-10-10-9--9--9--9--9--9--12-12-12-12-|
D#|------------------|-----0------0---|-0------|-0-----------------------------|-------------------------------------------------|


D#|-------------------------------------------|-------------------------------------------------|
A#|-------------------------------------------|-------------------------------------------------|
F#|-------------------------------------------|-------------------------------------------------|
C#|-------------------------------------------|-------------------------------------------------|
G#|-12-12-10-10-10-10-10-10-------------------|-10-10-10-10-10-10-9--9--9--9--9--9--5--5--5--5--|
D#|-------------------------0---0---0--0--0---|-------------------------------------------------|


D#|---------------------------------------------|-------------------------------------------------|
A#|---------------------------------------------|-------------------------------------------------|
F#|---------------------------------------------|-------------------------------------------------|
C#|---------------------------------------------|-------------------------------------------------|
G#|-5--5--3--3--3--3--3--3--3--3--3---3--3--3---|-10-10-10-10-10-10-9--9--9--9--9--9--12-12-12-12-|
D#|---------------------------------------------|-------------------------------------------------|


D#|-------------------------------------------|-------------------------------------------------|
A#|-------------------------------------------|-------------------------------------------------|
F#|-------------------------------------------|-------------------------------------------------|
C#|-------------------------------------------|-------------------------------------------------|
G#|-12-12-10-10-10-10-10-10-------------------|-10-10-10-10-10-10-9--9--9--9--9--9--5--5--5--5--|
D#|-------------------------0---0---0--0--0---|-------------------------------------------------|


D#|---------------------------------------------|-------------------------------------------------|
A#|---------------------------------------------|-------------------------------------------------|
F#|---------------------------------------------|-------------------------------------------------|
C#|---------------------------------------------|-------------------------------------------------|
G#|-5--5--3--3--3--3--3--3--3--3--3---3--3--3---|-10-10-10-10-10-10-9--9--9--9--9--9--12-12-12-12-|
D#|---------------------------------------------|-------------------------------------------------|


D#|-------------------------------------------|-------------------------------------------------|
A#|-------------------------------------------|-------------------------------------------------|
F#|-------------------------------------------|-------------------------------------------------|
C#|-------------------------------------------|-------------------------------------------------|
G#|-12-12-10-10-10-10-10-10-------------------|-10-10-10-10-10-10-9--9--9--9--9--9--5--5--5--5--|
D#|-------------------------0---0---0--0--0---|-------------------------------------------------|


D#|---------------------------------------------|-------------------------------------------------|
A#|---------------------------------------------|-------------------------------------------------|
F#|---------------------------------------------|-------------------------------------------------|
C#|---------------------------------------------|-------------------------------------------------|
G#|-5--5--3--3--3--3--3--3--3--3--3---3--3--3---|-10-10-10-10-10-10-9--9--9--9--9--9--12-12-12-12-|
D#|---------------------------------------------|-------------------------------------------------|


D#|-------------------------------------------|-------------------------------------------------|
A#|-------------------------------------------|-------------------------------------------------|
F#|-------------------------------------------|-------------------------------------------------|
C#|-------------------------------------------|-------------------------------------------------|
G#|-12-12-10-10-10-10-10-10-------------------|-10-10-10-10-10-10-9--9--9--9--9--9--5--5--5--5--|
D#|-------------------------0---0---0--0--0---|-------------------------------------------------|


D#|---------------------------------------------|---------------------------|------------------------------|
A#|---------------------------------------------|---------------------------|------------------------------|
F#|---------------------------------------------|---------------------------|------------------------------|
C#|---------------------------------------------|---------------------------|------------------------------|
G#|-5--5--3--3--3--3--3--3--3--3--3---3--3--3---|-7---7---5---7----3----3---|-5-------5---2----2---2---2---|
D#|---------------------------------------------|---------------------------|-----3-------0----0---0---0---|


D#|---------------------------|------------------------------|---------------------------|
A#|---------------------------|------------------------------|---------------------------|
F#|---------------------------|------------------------------|---------------------------|
C#|---------------------------|------------------------------|---------------------------|
G#|-7---7---5---7----3----3---|-5-------5---2----2---2---2---|-7---7---5---7----3----3---|
D#|---------------------------|-----3-------0----0---0---0---|---------------------------|


D#|------------------------------|---------------------------|------------------------------|
A#|------------------------------|---------------------------|------------------------------|
F#|------------------------------|---------------------------|------------------------------|
C#|------------------------------|---------------------------|------------------------------|
G#|-5-------5---2----2---2---2---|-7---7---5---7----3----3---|-5-------5---2----2---2---2---|
D#|-----3-------0----0---0---0---|---------------------------|-----3-------0----0---0---0---|


D#|---------------------------|-------------------------------|---------------------------|
A#|---------------------------|-------------------------------|---------------------------|
F#|-9---9---7---9-----11--12--|-111211------------------------|-9---9---7---9-----11--12--|
C#|---------------------------|--------12--9---14---14--------|---------------------------|
G#|---------------------------|-------------------------------|---------------------------|
D#|---------------------------|-------------------------------|---------------------------|


D#|--------------------------|------------------------------|------------------------|
A#|--------------------------|------------------------------|------------------------|
F#|-12-14-12--11--9----------|-12--12--11--12---12--16--14--|-14--12--11--12---------|
C#|--------------------------|------------------------------|------------------------|
G#|--------------------------|------------------------------|------------------------|
D#|--------------------------|------------------------------|------------------------|


D#|------------------------|--------|-----------------|-------------|--------|--------|
A#|------------------------|--------|-----------------|-------------|--------|--------|
F#|-9---9---7---5-----5----|-5------|-5-----7---------|-7-----------|--------|--------|
C#|-9---9---7---5-----5----|-5------|-5-----7----5----|-7----2------|-2------|-2------|
G#|-7---7---5---3-----3----|-3------|-3-----5----5----|-5----2------|-2------|-2------|
D#|------------------------|--------|------------3----|------0------|-0------|-0------|


D#|--------|--------|--------|--------|--------|--------|
A#|--------|--------|--------|--------|--------|--------|
F#|--------|--------|--------|--------|--------|--------|
C#|-2------|-2------|-2------|-2------|-2------|-2------|
G#|-2------|-2------|-2------|-2------|-2------|-2------|
D#|-0------|-0------|-0------|-0------|-0------|-0------|









Track 2: Pekka Kokko
Back to top
D#|------------|-------------|-----------------------|-------------|-----------------------|
A#|------------|-------------|-----------------------|-------------|-----------------------|
F#|------------|-------------|-----------------------|-------------|-----------------------|
C#|------------|-------------|-----------------------|-------------|-----------------------|
G#|------------|-------------|-----------2---2---2---|-------------|-----------2---2---2---|
D#|------------|-------------|-----------0---0---0---|-------------|-----------0---0---0---|


D#|---------------------------|------------------------------|-----------------------------|
A#|---------------------------|------------------------------|-----------------------------|
F#|---------------------------|------------------------------|-----------------------------|
C#|---------------------------|------------------------------|-----------------------------|
G#|-10--10--9---10---7----7---|-9-------9---2----2---2---2---|-10--10--9---10---7----9--10-|
D#|---------------------------|-----7-------0----0---0---0---|-----------------------------|


D#|------------------------------|---------------------------|------------------------------|
A#|------------------------------|---------------------------|------------------------------|
F#|------------------------------|---------------------------|------------------------------|
C#|------------------------------|---------------------------|------------------------------|
G#|-12--10--9---7----2---2---2---|-7---7---5---7----3----3---|-5-------5---2----2---2---2---|
D#|------------------0---0---0---|---------------------------|-----3-------0----0---0---0---|


D#|---------------------------|------------------------------|---------------------------|
A#|---------------------------|------------------------------|---------------------------|
F#|---------------------------|------------------------------|---------------------------|
C#|---------------------------|------------------------------|---------------------------|
G#|-7---7---5---7----3----3---|-5-------5---2----2---2---2---|-7---7---5---7----3----3---|
D#|---------------------------|-----3-------0----0---0---0---|---------------------------|


D#|------------------------------|---------------------------|------------------------|
A#|------------------------------|---------------------------|------------------------|
F#|------------------------------|---------------------------|------------------------|
C#|------------------------------|---------------------------|-------------2-----2----|
G#|-5-------5---2----2---2---2---|-7---7---5---7----3----3---|-5-------5---2-----2----|
D#|-----3-------0----0---0---0---|---------------------------|-----3-------0-----0----|


D#|--------|--------|--------|--------|--------|--------|--------|--------|--------|
A#|--------|--------|--------|--------|--------|--------|--------|--------|--------|
F#|--------|--------|--------|--------|--------|--------|--------|--------|--------|
C#|-2------|-2------|-2------|-2------|-2------|-2------|-2------|-2------|--------|
G#|-2------|-2------|-2------|-2------|-2------|-2------|-2------|-2------|--------|
D#|-0------|-0------|-0------|-0------|-0------|-0------|-0------|-0------|--------|


D#|--------|--------|--------|--------|--------|--------|--------|--------|--------|
A#|--------|--------|--------|--------|--------|--------|--------|--------|--------|
F#|--------|--------|--------|--------|--------|--------|--------|--------|--------|
C#|--------|--------|--------|--------|--------|--------|--------|--------|--------|
G#|--------|--------|--------|--------|--------|--------|--------|--------|--------|
D#|--------|--------|--------|--------|--------|--------|--------|--------|--------|


D#|--------|-----------------------|---------------------------------|-----------------------------------|
A#|--------|-----------------------|---------------------------------|-----------------------------------|
F#|--------|-----------------------|---------------------------------|-----------------------------------|
C#|--------|-----------------------|-2---2-------2---2-------7---7---|-----7---7-------------------------|
G#|--------|-------2---2---2---2---|-2---2-------2---2-------7---7---|-----5---5-------------------------|
D#|--------|-------0---0---0---0---|-0---0---0---0---0---0---5---5---|-0---3---3---0---0---0---0--0--0---|


D#|---------------------------------|-------------------------------------|---------------------------------|
A#|---------------------------------|-------------------------------------|---------------------------------|
F#|---------------------------------|-------------------------------------|---------------------------------|
C#|-2---2-------2---2-------7---7---|-----5---5---------------------------|-2---2-------2---2-------7---7---|
G#|-2---2-------2---2-------9---9---|-----3---3-------3--3--3---3--3--3---|-2---2-------2---2-------7---7---|
D#|-0---0---0---0---0---0-----------|-0-----------0-----------------------|-0---0---0---0---0---0---5---5---|


D#|-----------------------------------|---------------------------------|---------------------------------|
A#|-----------------------------------|---------------------------------|---------------------------------|
F#|-----------------------------------|---------------------------------|---------------------------------|
C#|-----7---7-------------------------|-2---2-------2---2-------7---7---|-----5---5-------5---5---5---5---|
G#|-----5---5-------------------------|-2---2-------2---2-------9---9---|-----3---3-------3---3---3---3---|
D#|-0---3---3---0---0---0---0--0--0---|-0---0---0---0---0---0-----------|-0-----------0-------------------|


D#|---------------------------------|-----------------------------------|---------------------------------|
A#|---------------------------------|-----------------------------------|---------------------------------|
F#|-16--16------14--14------17--17--|-----16--16------------------------|-16--16------14--14--------------|
C#|---------------------------------|-----------------------------------|-------------------------9---9---|
G#|-14--14------12--12------15--15--|-----14--14------------------------|-14--14------12--12------9---9---|
D#|---------0-----------0-----------|-0-----------0---0---0---0--0--0---|---------0-----------0-----------|


D#|-------------------------------------|---------------------------------|-----------------------------------|
A#|-------------------------------------|---------------------------------|-----------------------------------|
F#|-------------------------------------|-16--16------14--14------17--17--|-----16--16------------------------|
C#|-----9---9---------------------------|---------------------------------|-----------------------------------|
G#|-----10--10------3--3--3---3--3--3---|-14--14------12--12------15--15--|-----14--14------------------------|
D#|-0-----------0-----------------------|---------0-----------0-----------|-0-----------0---0---0---0--0--0---|


D#|---------------------------------|-------------------------------------|--------|
A#|---------------------------------|-------------------------------------|--------|
F#|-16--16------14--14--------------|-------------------------------------|--------|
C#|-------------------------9---9---|-----9---9---------------------------|-2------|
G#|-14--14------12--12------9---9---|-----10--10------3--3--3---3--3--3---|-2------|
D#|---------0-----------0-----------|-0-----------0-----------------------|-0------|


D#|--------|--------|--------|--------|--------|--------|--------|--------|--------|
A#|--------|--------|--------|--------|--------|--------|--------|--------|--------|
F#|--------|--------|--------|--------|--------|--------|--------|--------|--------|
C#|-2------|-2------|-2------|-2------|-2------|-2------|-2------|--------|--------|
G#|-2------|-2------|-2------|-2------|-2------|-2------|-2------|--------|--------|
D#|-0------|-0------|-0------|-0------|-0------|-0------|-0------|--------|--------|


D#|--------|--------|--------|--------|--------|--------|--------|--------|--------|
A#|--------|--------|--------|--------|--------|--------|--------|--------|--------|
F#|--------|--------|--------|--------|--------|--------|--------|--------|--------|
C#|--------|--------|--------|--------|--------|--------|--------|--------|--------|
G#|--------|--------|--------|--------|--------|--------|--------|--------|--------|
D#|--------|--------|--------|--------|--------|--------|--------|--------|--------|


D#|-------------------------------|-------------------------------------------------|
A#|-------------------------------|-------------------------------------------------|
F#|-------------------------------|-------------------------------------------------|
C#|-------------------------------|-------------------------------------------------|
G#|-------7--7--7--7--7--7--7--7--|-7--7--7--7--7--7--5--5--5--5--5--5--------------|
D#|-------------------------------|-------------------------------------5--5--5--5--|


D#|-------------------------------------------|-------------------------------------------------|
A#|-------------------------------------------|-------------------------------------------------|
F#|-------------------------------------------|-------------------------------------------------|
C#|-------------------------------------------|-------------------------------------------------|
G#|-------------------------------------------|-------------------------------------------------|
D#|-5--5--3--3--3--3--3--3--0---0---0--0--0---|-5--5--5--5--5--5--3--3--3--3--3--3--2--2--2--2--|


D#|---------------------------------------------|-------------------------------------------------|
A#|---------------------------------------------|-------------------------------------------------|
F#|---------------------------------------------|-------------------------------------------------|
C#|---------------------------------------------|-------------------------------------------------|
G#|-------3--3--3--3--3--3--3--3--3---3--3--3---|-7--7--7--7--7--7--5--5--5--5--5--5--------------|
D#|-2--2----------------------------------------|-------------------------------------5--5--5--5--|


D#|-------------------------------------------|-------------------------------------------------|
A#|-------------------------------------------|-------------------------------------------------|
F#|-------------------------------------------|-------------------------------------------------|
C#|-------------------------------------------|-------------------------------------------------|
G#|-------------------------------------------|-------------------------------------------------|
D#|-5--5--3--3--3--3--3--3--0---0---0--0--0---|-5--5--5--5--5--5--3--3--3--3--3--3--2--2--2--2--|


D#|---------------------------------------------|-------------------------------------------------|
A#|---------------------------------------------|-------------------------------------------------|
F#|---------------------------------------------|-------------------------------------------------|
C#|---------------------------------------------|-------------------------------------------------|
G#|-------3--3--3--3--3--3--3--3--3---3--3--3---|-14-14-14-14-14-14-12-12-12-12-12-12-15-15-15-15-|
D#|-2--2----------------------------------------|-------------------------------------------------|


D#|-------------------------------------------|-------------------------------------------------|
A#|-------------------------------------------|-------------------------------------------------|
F#|-------------------------------------------|-------------------------------------------------|
C#|-------------------------------------------|-------------------------------------------------|
G#|-15-15-14-14-14-14-14-14-------------------|-14-14-14-14-14-14-12-12-12-12-12-12-9--9--9--9--|
D#|-------------------------0---0---0--0--0---|-------------------------------------------------|


D#|---------------------------------------------|-------------------------------------------------|
A#|---------------------------------------------|-------------------------------------------------|
F#|---------------------------------------------|-------------------------------------------------|
C#|---------------------------------------------|-------------------------------------------------|
G#|-9--9--10-10-10-10-10-10-3--3--3---3--3--3---|-14-14-14-14-14-14-12-12-12-12-12-12-15-15-15-15-|
D#|---------------------------------------------|-------------------------------------------------|


D#|-------------------------------------------|-------------------------------------------------|
A#|-------------------------------------------|-------------------------------------------------|
F#|-------------------------------------------|-------------------------------------------------|
C#|-------------------------------------------|-------------------------------------------------|
G#|-15-15-14-14-14-14-14-14-------------------|-14-14-14-14-14-14-12-12-12-12-12-12-9--9--9--9--|
D#|-------------------------0---0---0--0--0---|-------------------------------------------------|


D#|---------------------------------------------|-------------|-----------------------|
A#|---------------------------------------------|-------------|-----------------------|
F#|---------------------------------------------|-------------|-----------------------|
C#|---------------------------------------------|-------------|-----------------------|
G#|-9--9--10-10-10-10-10-10-3--3--3---3--3--3---|-------------|-----------2---2---2---|
D#|---------------------------------------------|-------------|-----------0---0---0---|


D#|---------------------------|------------------------------|---------------------------|
A#|---------------------------|------------------------------|---------------------------|
F#|---------------------------|------------------------------|---------------------------|
C#|---------------------------|------------------------------|---------------------------|
G#|-10--10--9---10---7----7---|-9-------9---2----2---2---2---|-10--10--9---10---7----7---|
D#|---------------------------|-----7-------0----0---0---0---|---------------------------|


D#|------------------------------|---------------------------|------------------------------|
A#|------------------------------|---------------------------|------------------------------|
F#|------------------------------|---------------------------|------------------------------|
C#|------------------------------|---------------------------|------------------------------|
G#|-9-------9---2----2---2---2---|-10--10--9---10---7----10--|-10--10--9---7----2---2---2---|
D#|-----7-------0----0---0---0---|---------------------------|------------------0---0---0---|


D#|---------------------------|------------------------------|---------------------------|
A#|---------------------------|------------------------------|---------------------------|
F#|---------------------------|------------------------------|---------------------------|
C#|---------------------------|------------------------------|---------------------------|
G#|-7---7---5---7----3----3---|-5-------5---2----2---2---2---|-7---7---5---7----3----3---|
D#|---------------------------|-----3-------0----0---0---0---|---------------------------|


D#|------------------------------|---------------------------|------------------------------|
A#|------------------------------|---------------------------|------------------------------|
F#|------------------------------|---------------------------|------------------------------|
C#|------------------------------|---------------------------|------------------------------|
G#|-5-------5---2----2---2---2---|-7---7---5---7----3----3---|-5-------5---2----2---2---2---|
D#|-----3-------0----0---0---0---|---------------------------|-----3-------0----0---0---0---|


D#|---------------------------|------------------------|------------------|---------------------------|
A#|---------------------------|------------------------|------------------|---------------------------|
F#|---------------------------|------------------------|------------------|-----5---------------------|
C#|---------------------------|-------------2-----2----|-5-----4-----7----|-7---5-----5---5---5---5---|
G#|-7---7---5---7----3----3---|-5-------5---2-----2----|-5-----4-----7----|-7---3-----3---3---3---3---|
D#|---------------------------|-----3-------0-----0----|-3-----2-----5----|-5-------------------------|


D#|------------------|---------------------------|------------------|---------------------------|
A#|------------------|---------------------------|------------------|---------------------------|
F#|-5-----0----------|---------------------------|------------------|-----5---------------------|
C#|-5-----0----------|---------------------------|-5-----4-----7----|-7---5-----5---5---5---5---|
G#|-3-----2-----5----|-5---7-----2---2---2---2---|-5-----4-----7----|-7---3-----3---3---3---3---|
D#|------------------|-----------0---0---0---0---|-3-----2-----5----|-5-------------------------|


D#|------------------|---------------------------|------------------|---------------------------|
A#|------------------|---------------------------|------------------|---------------------------|
F#|-5-----4----------|---------------------------|------------------|-----5---------------------|
C#|-5-----5----------|---------------------------|-5-----4-----7----|-7---5-----5---5---5---5---|
G#|-3-----2-----5----|-5---7-----2---2---2---2---|-5-----4-----7----|-7---3-----3---3---3---3---|
D#|------------------|-----------0---0---0---0---|-3-----2-----5----|-5-------------------------|


D#|------------------|---------------------------|------------------|---------------------------|
A#|------------------|---------------------------|------------------|---------------------------|
F#|-5-----0----------|---------------------------|------------------|-----5---------------------|
C#|-5-----0----------|---------------------------|-5-----4-----7----|-7---5-----5---5---5---5---|
G#|-3-----2-----5----|-5---7-----2---2---2---2---|-5-----4-----7----|-7---3-----3---3---3---3---|
D#|------------------|-----------0---0---0---0---|-3-----2-----5----|-5-------------------------|


D#|------------------|---------------------------|-------------------------------------------------|
A#|------------------|---------------------------|-------------------------------------------------|
F#|-5-----4----------|---------------------------|-------------------------------------------------|
C#|-5-----5----------|---------------------------|-------------------------------------------------|
G#|-3-----2-----5----|-5---7-----2---2---2---2---|-------------------------------------------------|
D#|------------------|-----------0---0---0---0---|-0--0--0--0--0--0--0--0--0--0--0--0--0--0--0--0--|


D#|-------------------------------------------------|-------------------------------------------------|
A#|-------------------------------------------------|-------------------------------------------------|
F#|-------------------------------------------------|-------------------------------------------------|
C#|-------------------------------------------------|-------------------------------------------------|
G#|-------------------------------------------------|-------------------------------------------------|
D#|-0--0--0--0--0--0--0--0--0--0--0--0--0--0--0--0--|-0--0--0--0--0--0--0--0--0--0--0--0--0--0--0--0--|


D#|-------------------------------------------------|---------------------------------|
A#|-------------------------------------------------|---------------------------------|
F#|-------------------------------------------------|-4---4-------4---4-------4---4---|
C#|-------------------------------------------------|-4---4-------5---5-------2---2---|
G#|-------------------------------------------------|-2---2---2---2---2---2---2---2---|
D#|-0--0--0--0--0--0--0--0--0--0--0--0--0--0--0--0--|---------------------------------|


D#|---------------------------------|-------------------------------------------------|
A#|---------------------------------|-------------------------------------------------|
F#|-----4---4-------4-------4-------|-------------------------------------------------|
C#|-----4---4-------4-------4-------|-------------------------------------------------|
G#|-2---2---2---2---2---2---2---2---|-2--2--2--2--2--2--2--2--2--2--2--2--2--2--2--2--|
D#|---------------------------------|-------------------------------------------------|


D#|-------------------------------------------------|---------------------------------|
A#|-------------------------------------------------|---------------------------------|
F#|-------------------------------------------------|-7---7-------7---7-------7---7---|
C#|-------------------------------------------------|-7---7-------8---8-------5---5---|
G#|-2--2--2--2--2--2--2--2--2--2--2--2--2--2--2--2--|-5---5---5---5---5---5---5---5---|
D#|-------------------------------------------------|---------------------------------|


D#|---------------------------------|-------------------------------------------------|
A#|---------------------------------|-------------------------------------------------|
F#|-----7---7-------7-------7-------|-------------------------------------------------|
C#|-----7---7-------7-------7-------|-------------------------------------------------|
G#|-5---5---5---5---5---5---5---5---|-5--5--5--5--5--5--5--5--5--5--5--5--5--5--5--5--|
D#|---------------------------------|-------------------------------------------------|


D#|-------------------------------------------------|-----------------------------------------|
A#|-------------------------------------------------|-----------------------------------------|
F#|-------------------------------------------------|-----------------------------------------|
C#|-------------------------------------------------|-----------------------------------------|
G#|-5--5--5--5--5--5--5--5--5--5--5--5--5--5--5--5--|-----------------------------------------|
D#|-------------------------------------------------|-0--0--0---0--0--0---0--0--0---0--0--0---|


D#|-----------------------------------------|-----------------------------------------|
A#|-----------------------------------------|-----------------------------------------|
F#|-----------------------------------------|-----------------------------------------|
C#|-----------------------------------------|-----------------------------------------|
G#|-----------------------------------------|-----------------------------------------|
D#|-0--0--0---0--0--0---0--0--0---0--0--0---|-2---2--2--2---2--2--2---2--2--2---2--2--|


D#|-----------------------------------------|-----------------------------------------|
A#|-----------------------------------------|-----------------------------------------|
F#|-----------------------------------------|-----------------------------------------|
C#|-----------------------------------------|-----------------------------------------|
G#|-----------------------------------------|-----------------------------------------|
D#|-2---2--2--2---2--2--2---2--2--2---2--2--|-0--0--0---0--0--0---0--0--0---0--0--0---|


D#|-----------------------------------------|-----------------------------------------|
A#|-----------------------------------------|-----------------------------------------|
F#|-----------------------------------------|-----------------------------------------|
C#|-----------------------------------------|-----------------------------------------|
G#|-----------------------------------------|-----------------------------------------|
D#|-0--0--0---0--0--0---0--0--0---0--0--0---|-2---2--2--2---2--2--2---2--2--2---2--2--|


D#|-----------------------------------------|------------------|---------------------------|
A#|-----------------------------------------|------------------|---------------------------|
F#|-----------------------------------------|------------------|-----5---------------------|
C#|-----------------------------------------|-5-----4-----7----|-7---5-----5---5---5---5---|
G#|-----------------------------------------|-5-----4-----7----|-7---3-----3---3---3---3---|
D#|-2---2--2--2---2--2--2---2--2--2---2--2--|-3-----2-----5----|-5-------------------------|


D#|------------------|---------------------------|------------------|---------------------------|
A#|------------------|---------------------------|------------------|---------------------------|
F#|-5-----0----------|---------------------------|------------------|-----5---------------------|
C#|-5-----0----------|---------------------------|-5-----4-----7----|-7---5-----5---5---5---5---|
G#|-3-----2-----5----|-5---7-----2---2---2---2---|-5-----4-----7----|-7---3-----3---3---3---3---|
D#|------------------|-----------0---0---0---0---|-3-----2-----5----|-5-------------------------|


D#|------------------|----------------|--------|-------------------------------|-------------------------------------------------|
A#|------------------|----------------|--------|-------------------------------|-------------------------------------------------|
F#|-5-----4----------|-----9------9---|-9------|-9-----------------------------|-------------------------------------------------|
C#|-5-----5----------|-----9------9---|-9------|-9-----------------------------|-------------------------------------------------|
G#|-3-----2-----5----|-5---7------7---|-7------|-7-----7--7--7--7--7--7--7--7--|-7--7--7--7--7--7--5--5--5--5--5--5--------------|
D#|------------------|-----0------0---|-0------|-0-----------------------------|-------------------------------------5--5--5--5--|


D#|-------------------------------------------|-------------------------------------------------|
A#|-------------------------------------------|-------------------------------------------------|
F#|-------------------------------------------|-------------------------------------------------|
C#|-------------------------------------------|-------------------------------------------------|
G#|-------------------------------------------|-------------------------------------------------|
D#|-5--5--3--3--3--3--3--3--0---0---0--0--0---|-5--5--5--5--5--5--3--3--3--3--3--3--2--2--2--2--|


D#|---------------------------------------------|-------------------------------------------------|
A#|---------------------------------------------|-------------------------------------------------|
F#|---------------------------------------------|-------------------------------------------------|
C#|---------------------------------------------|-------------------------------------------------|
G#|-------3--3--3--3--3--3--3--3--3---3--3--3---|-7--7--7--7--7--7--5--5--5--5--5--5--------------|
D#|-2--2----------------------------------------|-------------------------------------5--5--5--5--|


D#|-------------------------------------------|-------------------------------------------------|
A#|-------------------------------------------|-------------------------------------------------|
F#|-------------------------------------------|-------------------------------------------------|
C#|-------------------------------------------|-------------------------------------------------|
G#|-------------------------------------------|-------------------------------------------------|
D#|-5--5--3--3--3--3--3--3--0---0---0--0--0---|-5--5--5--5--5--5--3--3--3--3--3--3--2--2--2--2--|


D#|---------------------------------------------|-------------------------------------------------|
A#|---------------------------------------------|-------------------------------------------------|
F#|---------------------------------------------|-------------------------------------------------|
C#|---------------------------------------------|-------------------------------------------------|
G#|-------3--3--3--3--3--3--3--3--3---3--3--3---|-14-14-14-14-14-14-12-12-12-12-12-12-15-15-15-15-|
D#|-2--2----------------------------------------|-------------------------------------------------|


D#|-------------------------------------------|-------------------------------------------------|
A#|-------------------------------------------|-------------------------------------------------|
F#|-------------------------------------------|-------------------------------------------------|
C#|-------------------------------------------|-------------------------------------------------|
G#|-15-15-14-14-14-14-14-14-------------------|-14-14-14-14-14-14-12-12-12-12-12-12-9--9--9--9--|
D#|-------------------------0---0---0--0--0---|-------------------------------------------------|


D#|---------------------------------------------|-------------------------------------------------|
A#|---------------------------------------------|-------------------------------------------------|
F#|---------------------------------------------|-------------------------------------------------|
C#|---------------------------------------------|-------------------------------------------------|
G#|-9--9--10-10-10-10-10-10-3--3--3---3--3--3---|-14-14-14-14-14-14-12-12-12-12-12-12-15-15-15-15-|
D#|---------------------------------------------|-------------------------------------------------|


D#|-------------------------------------------|-------------------------------------------------|
A#|-------------------------------------------|-------------------------------------------------|
F#|-------------------------------------------|-------------------------------------------------|
C#|-------------------------------------------|-------------------------------------------------|
G#|-15-15-14-14-14-14-14-14-------------------|-14-14-14-14-14-14-12-12-12-12-12-12-9--9--9--9--|
D#|-------------------------0---0---0--0--0---|-------------------------------------------------|


D#|---------------------------------------------|-------------|-----------------------|
A#|---------------------------------------------|-------------|-----------------------|
F#|---------------------------------------------|-------------|-----------------------|
C#|---------------------------------------------|-------------|-----------------------|
G#|-9--9--10-10-10-10-10-10-3--3--3---3--3--3---|-------------|-----------2---2---2---|
D#|---------------------------------------------|-------------|-----------0---0---0---|


D#|---------------------------|------------------------------|---------------------------|
A#|---------------------------|------------------------------|---------------------------|
F#|---------------------------|------------------------------|---------------------------|
C#|---------------------------|------------------------------|---------------------------|
G#|-10--10--9---10---7----7---|-9-------9---2----2---2---2---|-10--10--9---10---7----7---|
D#|---------------------------|-----7-------0----0---0---0---|---------------------------|


D#|------------------------------|-----------------------------|------------------------------|
A#|------------------------------|-----------------------------|------------------------------|
F#|------------------------------|-----------------------------|------------------------------|
C#|------------------------------|-----------------------------|------------------------------|
G#|-9-------9---2----2---2---2---|-10--10--9---10---7----9--10-|-12--10--9---7----2---2---2---|
D#|-----7-------0----0---0---0---|-----------------------------|------------------0---0---0---|


D#|---------------------------|------------------------------|---------------------------|
A#|---------------------------|------------------------------|---------------------------|
F#|---------------------------|------------------------------|---------------------------|
C#|---------------------------|------------------------------|---------------------------|
G#|-7---7---5---7----3----3---|-5-------5---2----2---2---2---|-7---7---5---7----3----3---|
D#|---------------------------|-----3-------0----0---0---0---|---------------------------|


D#|------------------------------|---------------------------|------------------------------|
A#|------------------------------|---------------------------|------------------------------|
F#|------------------------------|---------------------------|------------------------------|
C#|------------------------------|---------------------------|------------------------------|
G#|-5-------5---2----2---2---2---|-7---7---5---7----3----3---|-5-------5---2----2---2---2---|
D#|-----3-------0----0---0---0---|---------------------------|-----3-------0----0---0---0---|


D#|------------------------|--------|-----------------|-------------|--------|--------|
A#|------------------------|--------|-----------------|-------------|--------|--------|
F#|-9---9---7---5-----5----|-5------|-5-----7---------|-7-----------|--------|--------|
C#|-9---9---7---5-----5----|-5------|-5-----7----5----|-7----2------|-2------|-2------|
G#|-7---7---5---3-----3----|-3------|-3-----5----5----|-5----2------|-2------|-2------|
D#|------------------------|--------|------------3----|------0------|-0------|-0------|


D#|--------|--------|--------|--------|--------|--------|
A#|--------|--------|--------|--------|--------|--------|
F#|--------|--------|--------|--------|--------|--------|
C#|-2------|-2------|-2------|-2------|-2------|-2------|
G#|-2------|-2------|-2------|-2------|-2------|-2------|
D#|-0------|-0------|-0------|-0------|-0------|-0------|









Track 3: Timo Lehtinen
Back to top
F#|------------|-------------|-------------|-------------|-------------|-------------|
C#|------------|-------------|-------------|-------------|-------------|-------------|
G#|------------|-------------|-------------|-------------|-------------|-------------|
D#|------------|-------------|-------------|-------------|-------------|-------------|
A#|------------|-------------|-------------|-------------|-------------|-------------|


F#|-------------|-------------|-------------|-------------|-------------|-------------|
C#|-------------|-------------|-------------|-------------|-------------|-------------|
G#|-------------|-------------|-------------|-------------|-------------|-------------|
D#|-------------|-------------|-------------|-------------|-------------|-------------|
A#|-------------|-------------|-------------|-------------|-------------|-------------|


F#|-------------|-------------|-------------|-------------|-------------|-------------|
C#|-------------|-------------|-------------|-------------|-------------|-------------|
G#|-------------|-------------|-------------|-------------|-------------|-------------|
D#|-------------|-------------|-------------|-------------|-------------|-------------|
A#|-------------|-------------|-------------|-------------|-------------|-------------|


F#|-------------|-------------|-------------|-------------|-------------|-------------|
C#|-------------|-------------|-------------|-------------|-------------|-------------|
G#|-------------|-------------|-------------|-------------|-------------|-------------|
D#|-------------|-------------|-------------|-------------|-------------|-------------|
A#|-------------|-------------|-------------|-------------|-------------|-------------|


F#|-------------|-------------|-------------|-------------|-------------|-------------|
C#|-------------|-------------|-------------|-------------|-------------|-------------|
G#|-------------|-------------|-------------|-------------|-------------|-------------|
D#|-------------|-------------|-------------|-------------|-------------|-------------|
A#|-------------|-------------|-------------|-------------|-------------|-------------|


F#|-------------|-------------|-------------|-------------|-------------|-------------|
C#|-------------|-------------|-------------|-------------|-------------|-------------|
G#|-------------|-------------|-------------|-------------|-------------|-------------|
D#|-------------|-------------|-------------|-------------|-------------|-------------|
A#|-------------|-------------|-------------|-------------|-------------|-------------|


F#|-------------|-------------|-------------|-------------|-------------|-------------|
C#|-------------|-------------|-------------|-------------|-------------|-------------|
G#|-------------|-------------|-------------|-------------|-------------|-------------|
D#|-------------|-------------|-------------|-------------|-------------|-------------|
A#|-------------|-------------|-------------|-------------|-------------|-------------|


F#|-------------|-------------|-------------|-------------|-------------|-------------|
C#|-------------|-------------|-------------|-------------|-------------|-------------|
G#|-------------|-------------|-------------|-------------|-------------|-------------|
D#|-------------|-------------|-------------|-------------|-------------|-------------|
A#|-------------|-------------|-------------|-------------|-------------|-------------|


F#|-------------|-------------|-------------|-------------|-------------|-------------|
C#|-------------|-------------|-------------|-------------|-------------|-------------|
G#|-------------|-------------|-------------|-------------|-------------|-------------|
D#|-------------|-------------|-------------|-------------|-------------|-------------|
A#|-------------|-------------|-------------|-------------|-------------|-------------|


F#|-------------|-------------|-------------|-------------|-------------|-------------|
C#|-------------|-------------|-------------|-------------|-------------|-------------|
G#|-------------|-------------|-------------|-------------|-------------|-------------|
D#|-------------|-------------|-------------|-------------|-------------|-------------|
A#|-------------|-------------|-------------|-------------|-------------|-------------|


F#|-------------|-------------|-------------|-------------|-------------|-------------|
C#|-------------|-------------|-------------|-------------|-------------|-------------|
G#|-------------|-------------|-------------|-------------|-------------|-------------|
D#|-------------|-------------|-------------|-------------|-------------|-------------|
A#|-------------|-------------|-------------|-------------|-------------|-------------|


F#|-------------|-------------|-------------|-------------|-------------|-------------|
C#|-------------|-------------|-------------|-------------|-------------|-------------|
G#|-------------|-------------|-------------|-------------|-------------|-------------|
D#|-------------|-------------|-------------|-------------|-------------|-------------|
A#|-------------|-------------|-------------|-------------|-------------|-------------|


F#|-------------|-------------|-------------|-------------|-------------|-------------|
C#|-------------|-------------|-------------|-------------|-------------|-------------|
G#|-------------|-------------|-------------|-------------|-------------|-------------|
D#|-------------|-------------|-------------|-------------|-------------|-------------|
A#|-------------|-------------|-------------|-------------|-------------|-------------|


F#|-------------|-------------|-------------|-------------|-------------|-------------|
C#|-------------|-------------|-------------|-------------|-------------|-------------|
G#|-------------|-------------|-------------|-------------|-------------|-------------|
D#|-------------|-------------|-------------|-------------|-------------|-------------|
A#|-------------|-------------|-------------|-------------|-------------|-------------|


F#|-------------|-------------|-------------|-------------|-------------|-------------|
C#|-------------|-------------|-------------|-------------|-------------|-------------|
G#|-------------|-------------|-------------|-------------|-------------|-------------|
D#|-------------|-------------|-------------|-------------|-------------|-------------|
A#|-------------|-------------|-------------|-------------|-------------|-------------|


F#|-------------|-------------|-------------|-------------|-------------|-------------|
C#|-------------|-------------|-------------|-------------|-------------|-------------|
G#|-------------|-------------|-------------|-------------|-------------|-------------|
D#|-------------|-------------|-------------|-------------|-------------|-------------|
A#|-------------|-------------|-------------|-------------|-------------|-------------|


F#|-------------|-------------|-------------|-------------|-------------|-------------|
C#|-------------|-------------|-------------|-------------|-------------|-------------|
G#|-------------|-------------|-------------|-------------|-------------|-------------|
D#|-------------|-------------|-------------|-------------|-------------|-------------|
A#|-------------|-------------|-------------|-------------|-------------|-------------|


F#|-------------|-------------|-------------|-------------|-------------|-------------|
C#|-------------|-------------|-------------|-------------|-------------|-------------|
G#|-------------|-------------|-------------|-------------|-------------|-------------|
D#|-------------|-------------|-------------|-------------|-------------|-------------|
A#|-------------|-------------|-------------|-------------|-------------|-------------|


F#|-------------|-------------|-------------|-------------|-------------|-------------|
C#|-------------|-------------|-------------|-------------|-------------|-------------|
G#|-------------|-------------|-------------|-------------|-------------|-------------|
D#|-------------|-------------|-------------|-------------|-------------|-------------|
A#|-------------|-------------|-------------|-------------|-------------|-------------|


F#|-------------|-------------|-------------|-------------|-------------|-------------|
C#|-------------|-------------|-------------|-------------|-------------|-------------|
G#|-------------|-------------|-------------|-------------|-------------|-------------|
D#|-------------|-------------|-------------|-------------|-------------|-------------|
A#|-------------|-------------|-------------|-------------|-------------|-------------|


F#|-------------|-------------|-------------|-------------|-------------|-------------|
C#|-------------|-------------|-------------|-------------|-------------|-------------|
G#|-------------|-------------|-------------|-------------|-------------|-------------|
D#|-------------|-------------|-------------|-------------|-------------|-------------|
A#|-------------|-------------|-------------|-------------|-------------|-------------|


F#|-------------|-------------|-------------|-------------|-------------|-------------|
C#|-------------|-------------|-------------|-------------|-------------|-------------|
G#|-------------|-------------|-------------|-------------|-------------|-------------|
D#|-------------|-------------|-------------|-------------|-------------|-------------|
A#|-------------|-------------|-------------|-------------|-------------|-------------|


F#|-------------|-------------|-------------|-------------|-------------|-------------|
C#|-------------|-------------|-------------|-------------|-------------|-------------|
G#|-------------|-------------|-------------|-------------|-------------|-------------|
D#|-------------|-------------|-------------|-------------|-------------|-------------|
A#|-------------|-------------|-------------|-------------|-------------|-------------|


F#|-------------|-------------|-------------|-------------|-------------|-------------|
C#|-------------|-------------|-------------|-------------|-------------|-------------|
G#|-------------|-------------|-------------|-------------|-------------|-------------|
D#|-------------|-------------|-------------|-------------|-------------|-------------|
A#|-------------|-------------|-------------|-------------|-------------|-------------|


F#|-------------|-------------|-------------|-------------|-------------|-------------|
C#|-------------|-------------|-------------|-------------|-------------|-------------|
G#|-------------|-------------|-------------|-------------|-------------|-------------|
D#|-------------|-------------|-------------|-------------|-------------|-------------|
A#|-------------|-------------|-------------|-------------|-------------|-------------|


F#|-------------|-------------|-------------|-------------|-------------|-------------|
C#|-------------|-------------|-------------|-------------|-------------|-------------|
G#|-------------|-------------|-------------|-------------|-------------|-------------|
D#|-------------|-------------|-------------|-------------|-------------|-------------|
A#|-------------|-------------|-------------|-------------|-------------|-------------|


F#|-------------|-------------|-------------|-------------|-------------|-------------|
C#|-------------|-------------|-------------|-------------|-------------|-------------|
G#|-------------|-------------|-------------|-------------|-------------|-------------|
D#|-------------|-------------|-------------|-------------|-------------|-------------|
A#|-------------|-------------|-------------|-------------|-------------|-------------|


F#|-------------|-------------|-------------|-------------|-------------|-------------|
C#|-------------|-------------|-------------|-------------|-------------|-------------|
G#|-------------|-------------|-------------|-------------|-------------|-------------|
D#|-------------|-------------|-------------|-------------|-------------|-------------|
A#|-------------|-------------|-------------|-------------|-------------|-------------|


F#|-------------|-------------|-------------|-------------|-------------|-------------|
C#|-------------|-------------|-------------|-------------|-------------|-------------|
G#|-------------|-------------|-------------|-------------|-------------|-------------|
D#|-------------|-------------|-------------|-------------|-------------|-------------|
A#|-------------|-------------|-------------|-------------|-------------|-------------|


F#|-------------|-------------|-------------|-------------|-------------|-------------|
C#|-------------|-------------|-------------|-------------|-------------|-------------|
G#|-------------|-------------|-------------|-------------|-------------|-------------|
D#|-------------|-------------|-------------|-------------|-------------|-------------|
A#|-------------|-------------|-------------|-------------|-------------|-------------|


F#|-------------|-------------|-------------|-------------|-------------|-------------|
C#|-------------|-------------|-------------|-------------|-------------|-------------|
G#|-------------|-------------|-------------|-------------|-------------|-------------|
D#|-------------|-------------|-------------|-------------|-------------|-------------|
A#|-------------|-------------|-------------|-------------|-------------|-------------|


F#|-------------|-------------|-------------|-------------|-------------|-------------|
C#|-------------|-------------|-------------|-------------|-------------|-------------|
G#|-------------|-------------|-------------|-------------|-------------|-------------|
D#|-------------|-------------|-------------|-------------|-------------|-------------|
A#|-------------|-------------|-------------|-------------|-------------|-------------|


F#|-------------|
C#|-------------|
G#|-------------|
D#|-------------|
A#|-------------|









Track 4: Marco Sneck
Back to top
D#|------------|-------------|-------------|-------------|-------------|-------------|
A#|------------|-------------|-------------|-------------|-------------|-------------|
F#|------------|-------------|-------------|-------------|-------------|-------------|
C#|------------|-------------|-------------|-------------|-------------|-------------|
G#|------------|-------------|-------------|-------------|-------------|-------------|
D#|------------|-------------|-------------|-------------|-------------|-------------|
A#|------------|-------------|-------------|-------------|-------------|-------------|


D#|-------------|-------------|-------------|-------------|-------------|-------------|
A#|-------------|-------------|-------------|-------------|-------------|-------------|
F#|-------------|-------------|-------------|-------------|-------------|-------------|
C#|-------------|-------------|-------------|-------------|-------------|-------------|
G#|-------------|-------------|-------------|-------------|-------------|-------------|
D#|-------------|-------------|-------------|-------------|-------------|-------------|
A#|-------------|-------------|-------------|-------------|-------------|-------------|


D#|-------------|-------------|-------------|-------------|-------------|-------------|
A#|-------------|-------------|-------------|-------------|-------------|-------------|
F#|-------------|-------------|-------------|-------------|-------------|-------------|
C#|-------------|-------------|-------------|-------------|-------------|-------------|
G#|-------------|-------------|-------------|-------------|-------------|-------------|
D#|-------------|-------------|-------------|-------------|-------------|-------------|
A#|-------------|-------------|-------------|-------------|-------------|-------------|


D#|-------------|-------------|-------------|---------------------------------|---------------------------------|
A#|-------------|-------------|-------------|---------------------------------|---------------------------------|
F#|-------------|-------------|-------------|-16------------------16--19------|-19--17------17--16--16--14--14--|
C#|-------------|-------------|-------------|-----14--14--17--14------14--14--|-----14--14--14--14--14--14--14--|
G#|-------------|-------------|-------------|-7-------14------14--15------15--|-15------15--15--------------15--|
D#|-------------|-------------|-------------|-7---------------------------7---|-----------------------------7---|
A#|-------------|-------------|-------------|-5---------------------------5---|-----------------------------5---|


D#|---------------------------------|---------------------------------|---------------------------------|
A#|---------------------------------|---------------------------------|---------------------------------|
F#|-16------------------16--16------|-16--14----------------------14--|-16------------------16--19------|
C#|-----14--14--17--14--14--17--14--|-14--16--14--14--17--17--16--16--|-----14--14--17--14------14--14--|
G#|-5---5---14------14--14------14--|-14------14--15--5---12--12--12--|-7-------14------14--15------15--|
D#|-3---------------------------3---|-------------3---5-----------5---|-7---------------------------7---|
A#|-1---------------------------1---|-------------1---3-----------3---|-5---------------------------5---|


D#|---------------------------------|---------------------------------|---------------------------------|
A#|---------------------------------|---------------------------------|---------------------------------|
F#|-19--17------17--16--16--14--14--|-16------------------16--16------|-16--14----------------------14--|
C#|-----14--14--14--14--14--14--14--|-----14--14--17--14--14--17--14--|-14--16--14--14--17--17--16--16--|
G#|-15------15--15--------------15--|-5---5---14------14--14------14--|-14------14--15--5---12--12--12--|
D#|-----------------------------7---|-3---------------------------3---|-------------3---5-----------5---|
A#|-----------------------------5---|-1---------------------------1---|-------------1---3-----------3---|


D#|---------------------------------|---------------------------------|---------------------------------|
A#|---------------------------------|---------------------------------|---------------------------------|
F#|-16------------------16--19------|-19--17------17--16--16--14--14--|-16------------------16--16------|
C#|-----14--14--17--14------14--14--|-----14--14--14--14--14--14--14--|-----14--14--17--14--14--17--14--|
G#|-7-------14------14--15------15--|-15------15--15--------------15--|-5---5---14------14--14------14--|
D#|-7---------------------------7---|-----------------------------7---|-3---------------------------3---|
A#|-5---------------------------5---|-----------------------------5---|-1---------------------------1---|


D#|---------------------------------|---------------------------------|---------------------------------|
A#|---------------------------------|-17------17--17--------------17--|-17----------17--17----------17--|
F#|-16--14----------------------14--|-16------------------16--19--19--|-19--17------17--16--16--14--14--|
C#|-14--16--14--14--17--17--16--16--|-16--14--14--17--14------14--14--|-----14--14------14--14--14--14--|
G#|-14------14--15--5---12--12--12--|-7---7---14------14--15------15--|-15------15--15--------------15--|
D#|-------------3---5-----------5---|-7---------------------------7---|-----------------------------7---|
A#|-------------1---3-----------3---|-5---------------------------5---|-----------------------------5---|


D#|---------------------------------|---------------------------------|----------------|
A#|-17----------17--17----------17--|-15----------15--15----------15--|----------------|
F#|-16------------------16--16--16--|-16--14----------------------14--|----------------|
C#|-14--14--14--17--14------14--14--|-----14--14--14--17--17--16--16--|----------------|
G#|-5---5---14------14--14------14--|-14------14--15--5---12--12--12--|----------------|
D#|-5---------------------------5---|-------------5---5-----------5---|----------------|
A#|-3---------------------------3---|-------------3---3-----------3---|----------------|


D#|----------------|----------------|----------------|----------------|----------------|
A#|----------------|----------------|----------------|----------------|----------------|
F#|----------------|----------------|----------------|----------------|----------------|
C#|----------------|----------------|----------------|----------------|----------------|
G#|----------------|----------------|----------------|----------------|----------------|
D#|----------------|----------------|----------------|----------------|----------------|
A#|----------------|----------------|----------------|----------------|----------------|


D#|----------------|----------------|----------------|----------------|----------------|
A#|----------------|----------------|----------------|----------------|----------------|
F#|----------------|----------------|----------------|----------------|----------------|
C#|----------------|----------------|----------------|----------------|----------------|
G#|----------------|----------------|----------------|----------------|----------------|
D#|----------------|----------------|----------------|----------------|----------------|
A#|----------------|----------------|----------------|----------------|----------------|


D#|----------------|----------------|----------------|----------------|----------------|
A#|----------------|----------------|----------------|----------------|----------------|
F#|----------------|----------------|----------------|----------------|----------------|
C#|----------------|----------------|----------------|----------------|----------------|
G#|----------------|----------------|----------------|----------------|----------------|
D#|----------------|----------------|----------------|----------------|----------------|
A#|----------------|----------------|----------------|----------------|----------------|


D#|----------------|----------------|----------------|----------------|---------------------------------|
A#|----------------|----------------|----------------|----------------|---------------------------------|
F#|----------------|----------------|----------------|----------------|-16------------------16--19------|
C#|----------------|----------------|----------------|----------------|-----14--14--17--14------14--14--|
G#|----------------|----------------|----------------|----------------|-7-------14------14--15------15--|
D#|----------------|----------------|----------------|----------------|-7---------------------------7---|
A#|----------------|----------------|----------------|----------------|-5---------------------------5---|


D#|---------------------------------|---------------------------------|---------------------------------|
A#|---------------------------------|---------------------------------|---------------------------------|
F#|-19--17------17--16--16--14--14--|-16------------------16--16------|-16--14----------------------14--|
C#|-----14--14--14--14--14--14--14--|-----14--14--17--14--14--17--14--|-14--16--14--14--17--17--16--16--|
G#|-15------15--15--------------15--|-5---5---14------14--14------14--|-14------14--15--5---12--12--12--|
D#|-----------------------------7---|-3---------------------------3---|-------------3---5-----------5---|
A#|-----------------------------5---|-1---------------------------1---|-------------1---3-----------3---|


D#|---------------------------------|---------------------------------|---------------------------------|
A#|---------------------------------|---------------------------------|---------------------------------|
F#|-16------------------16--19------|-19--17------17--16--16--14--14--|-16------------------16--16------|
C#|-----14--14--17--14------14--14--|-----14--14--14--14--14--14--14--|-----14--14--17--14--14--17--14--|
G#|-7-------14------14--15------15--|-15------15--15--------------15--|-5---5---14------14--14------14--|
D#|-7---------------------------7---|-----------------------------7---|-3---------------------------3---|
A#|-5---------------------------5---|-----------------------------5---|-1---------------------------1---|


D#|---------------------------------|---------------------------------|---------------------------------|
A#|---------------------------------|---------------------------------|---------------------------------|
F#|-16--14----------------------14--|-16------------------16--19------|-19--17------17--16--16--14--14--|
C#|-14--16--14--14--17--17--16--16--|-----14--14--17--14------14--14--|-----14--14--14--14--14--14--14--|
G#|-14------14--15--5---12--12--12--|-7-------14------14--15------15--|-15------15--15--------------15--|
D#|-------------3---5-----------5---|-7---------------------------7---|-----------------------------7---|
A#|-------------1---3-----------3---|-5---------------------------5---|-----------------------------5---|


D#|---------------------------------|---------------------------------|---------------------------------|
A#|---------------------------------|---------------------------------|-17------17--17--------------17--|
F#|-16------------------16--16------|-16--14----------------------14--|-16------------------16--19--19--|
C#|-----14--14--17--14--14--17--14--|-14--16--14--14--17--17--16--16--|-16--14--14--17--14------14--14--|
G#|-5---5---14------14--14------14--|-14------14--15--5---12--12--12--|-7---7---14------14--15------15--|
D#|-3---------------------------3---|-------------3---5-----------5---|-7---------------------------7---|
A#|-1---------------------------1---|-------------1---3-----------3---|-5---------------------------5---|


D#|---------------------------------|---------------------------------|---------------------------------|
A#|-17----------17--17----------17--|-17----------17--17----------17--|-15----------15--15----------15--|
F#|-19--17------17--16--16--14--14--|-16------------------16--16--16--|-16--14----------------------14--|
C#|-----14--14------14--14--14--14--|-14--14--14--17--14------14--14--|-----14--14--14--17--17--16--16--|
G#|-15------15--15--------------15--|-5---5---14------14--14------14--|-14------14--15--5---12--12--12--|
D#|-----------------------------7---|-5---------------------------5---|-------------5---5-----------5---|
A#|-----------------------------5---|-3---------------------------3---|-------------3---3-----------3---|


D#|----------------|----------------|----------------|----------------|----------------|
A#|----------------|----------------|----------------|----------------|----------------|
F#|----------------|----------------|----------------|----------------|----------------|
C#|----------------|----------------|----------------|----------------|----------------|
G#|----------------|----------------|----------------|----------------|----------------|
D#|----------------|----------------|----------------|----------------|----------------|
A#|----------------|----------------|----------------|----------------|----------------|


D#|----------------|----------------|----------------|----------------|----------------|
A#|----------------|----------------|----------------|----------------|----------------|
F#|----------------|----------------|----------------|----------------|----------------|
C#|----------------|----------------|----------------|----------------|----------------|
G#|----------------|----------------|----------------|----------------|----------------|
D#|----------------|----------------|----------------|----------------|----------------|
A#|----------------|----------------|----------------|----------------|----------------|


D#|----------------|----------------|----------------|----------------|----------------|
A#|----------------|----------------|----------------|----------------|----------------|
F#|----------------|----------------|----------------|----------------|----------------|
C#|----------------|----------------|----------------|----------------|----------------|
G#|----------------|----------------|----------------|----------------|----------------|
D#|----------------|----------------|----------------|----------------|----------------|
A#|----------------|----------------|----------------|----------------|----------------|


D#|----------------|-------------|-------------|-------------|-------------|-------------|
A#|----------------|-------------|-------------|-------------|-------------|-------------|
F#|----------------|-------------|-------------|-------------|-------------|-------------|
C#|----------------|-------------|-------------|-------------|-------------|-------------|
G#|----------------|-------------|-------------|-------------|-------------|-------------|
D#|----------------|-------------|-------------|-------------|-------------|-------------|
A#|----------------|-------------|-------------|-------------|-------------|-------------|


D#|-------------|-------------|-------------|-------------|-------------|-------------|
A#|-------------|-------------|-------------|-------------|-------------|-------------|
F#|-------------|-------------|-------------|-------------|-------------|-------------|
C#|-------------|-------------|-------------|-------------|-------------|-------------|
G#|-------------|-------------|-------------|-------------|-------------|-------------|
D#|-------------|-------------|-------------|-------------|-------------|-------------|
A#|-------------|-------------|-------------|-------------|-------------|-------------|


D#|-------------|-------------|-------------|-------------|-------------|--------|
A#|-------------|-------------|-------------|-------------|-------------|--------|
F#|-------------|-------------|-------------|-------------|-------------|--------|
C#|-------------|-------------|-------------|-------------|-------------|--------|
G#|-------------|-------------|-------------|-------------|-------------|--------|
D#|-------------|-------------|-------------|-------------|-------------|--------|
A#|-------------|-------------|-------------|-------------|-------------|--------|


D#|--------|--------|--------|--------|--------|--------|--------|------------------|
A#|--------|--------|--------|--------|--------|--------|--------|------------------|
F#|--------|--------|--------|--------|--------|--------|--------|-12----11----7----|
C#|--------|--------|--------|--------|--------|--------|--------|-12----11----7----|
G#|--------|--------|--------|--------|--------|--------|--------|-10----9-----5----|
D#|--------|--------|--------|--------|--------|--------|--------|-10----9-----5----|
A#|--------|--------|--------|--------|--------|--------|--------|-8-----7-----3----|


D#|------------------------|------------------|------------------------|------------------|
A#|------------------------|------------------|------------------------|------------------|
F#|-7---5----5---4----5----|-5-----7-----7----|-7---9----9---11---12---|-12----11----7----|
C#|-7---5----5---4----5----|-5-----7-----4----|-4---9----9---9----9----|-12----11----7----|
G#|-5---3----3---2----3----|-3-----5-----5----|-5---7----7---7----7----|-10----9-----5----|
D#|-----3-------------3----|-3-----5-----2----|-----7-------------7----|-10----9-----5----|
A#|-----1-------------1----|-1-----3-----3----|-----5-------------5----|-8-----7-----3----|


D#|------------------------|------------------|------------------------|-------------------------------------------------|
A#|------------------------|------------------|------------------------|-------------------------------------------------|
F#|-7---5----5---4----5----|-5-----7-----7----|-7---9----9---11---12---|-------------------------------------------------|
C#|-7---5----5---4----5----|-5-----7-----4----|-4---9----9---9----9----|----------7--9--10-9--7--9--7-----7--9--10-9--7--|
G#|-5---3----3---2----3----|-3-----5-----5----|-5---7----7---7----7----|-7--9--10----------------------10----------------|
D#|-----3-------------3----|-3-----5-----2----|-----7-------------7----|-------------------------------------------------|
A#|-----1-------------1----|-1-----3-----3----|-----5-------------5----|-------------------------------------------------|


D#|-------------------------------------------------|-------------------------------------------------|
A#|-------------------------------------------------|----------10-12-13-12-10-12-10----10-12-13-12-10-|
F#|----------------------------11-9-----11-12-11----|-9--11-12----------------------12----------------|
C#|-14-------12-------10-------------10----------12-|-------------------------------------------------|
G#|----7--7-----7--7-----7--7-----------------------|-------------------------------------------------|
D#|-------------------------------------------------|-------------------------------------------------|
A#|-------------------------------------------------|-------------------------------------------------|


D#|----------------------------14-12----14-15-14----|-17-----17-15-14--|-14--1415141214----14--17------|
A#|-17-------15-------13-------------13----------15-|------------------|---------------------------16--|
F#|----9--9-----9--9-----9--9-----------------------|------------------|-------------------------------|
C#|-------------------------------------------------|------------------|-------------------------------|
G#|-------------------------------------------------|------------------|-------------------------------|
D#|-------------------------------------------------|------------------|-------------------------------|
A#|-------------------------------------------------|------------------|-------------------------------|


D#|-14----------------------------------------------|-----------------------------|
A#|---------16--------------------------------------|-----------------------------|
F#|-----17--------------14--16--17------------------|------14-16-17-1617161416----|
C#|-------------16--17--------------17--16--14--13--|-13--------------------------|
G#|-------------------------------------------------|-----------------------------|
D#|-------------------------------------------------|-----------------------------|
A#|-------------------------------------------------|-----------------------------|


D#|-15-----14---|-14---------------------------------------|-------------------------------------------------|
A#|-------------|------10-11-10-0--8--10-8-----7--8--6-----|-5--7--5-----3--5--3-----5--7--8--7--5-----------|
F#|-------------|---------------------------2-----------0--|----------------------------------------7--5--4--|
C#|-------------|------------------------------------------|----------2--------------------------------------|
G#|-------------|------------------------------------------|----------------------3--------------------------|
D#|-------------|------------------------------------------|-------------------------------------------------|
A#|-------------|------------------------------------------|-------------------------------------------------|


D#|---------------------------------------------------------|-------------------------------------------------|
A#|---------------------------------------------------------|-------------------------------------------------|
F#|---------------------------------------------------------|-9--7--------9--7--------9--7--9--7--------9--7--|
C#|-7--5--5--4--5--4--5--4--5--4--5--4--5--4--4--5--5--5----|-------9-----------9-----------------9-----------|
G#|---------------------------------------------------------|----------7-----------7-----------------7--------|
D#|---------------------------------------------------------|-------------------------------------------------|
A#|---------------------------------------------------------|-------------------------------------------------|


D#|----------------------------------------------------------|-------------------------------------------------|
A#|----------------------------------------------------------|-------------------------------------------------|
F#|-9--7--------9--7--9--------11-12-11-------9--11-9--------|-11-9--------11-9--------11-9--11-9--------11-9--|
C#|-------9--------------9--------------12-------------12----|-------10----------10----------------10----------|
G#|----------7--------------7--------------10-------------10-|----------9-----------9-----------------9--------|
D#|----------------------------------------------------------|-------------------------------------------------|
A#|----------------------------------------------------------|-------------------------------------------------|


D#|----------------------------------------------------------|-------------------------------------------------------------|
A#|----------------------------------------------------------|-------------------------------------------------------------|
F#|-11-9--------9--11-9--------14-16-14-------12-14-12-------|-12-14-12-------12-14-12-------14-16-14----14-14-16-14----14-|
C#|-------10-------------10-------------16-------------13----|----------14-------------14-------------14-------------14----|
G#|----------9--------------9--------------14-------------12-|-------------14-------------14-------------------------------|
D#|----------------------------------------------------------|-------------------------------------------------------------|
A#|----------------------------------------------------------|-------------------------------------------------------------|


D#|-------------------------------------------------------------|---------------------|
A#|-------------------------------------------------------------|---------------------|
F#|-16-17-16----16-16-17-16----16-17-19-17----17-17-19-17----17-|-19-----171917-16----|
C#|----------17-------------17-------------19-------------19----|------------------19-|
G#|-------------------------------------------------------------|---------------------|
D#|-------------------------------------------------------------|---------------------|
A#|-------------------------------------------------------------|---------------------|


D#|----------------------------------------|--------|--------|--------|--------|--------|
A#|----------------------------------------|--------|--------|--------|--------|--------|
F#|----------------------------------------|--------|--------|--------|--------|--------|
C#|-17-16----------------------------------|--------|--------|--------|--------|--------|
G#|-------15-14-12-------------------------|--------|--------|--------|--------|--------|
D#|----------------15-14-12----------------|--------|--------|--------|--------|--------|
A#|-------------------------13-12-10-5-----|--------|--------|--------|--------|--------|


D#|--------|--------|--------|--------|--------|----------------|----------------|
A#|--------|--------|--------|--------|--------|----------------|----------------|
F#|--------|--------|--------|--------|--------|----------------|----------------|
C#|--------|--------|--------|--------|--------|----------------|----------------|
G#|--------|--------|--------|--------|--------|----------------|----------------|
D#|--------|--------|--------|--------|--------|----------------|----------------|
A#|--------|--------|--------|--------|--------|----------------|----------------|


D#|----------------|----------------|----------------|----------------|----------------|
A#|----------------|----------------|----------------|----------------|----------------|
F#|----------------|----------------|----------------|----------------|----------------|
C#|----------------|----------------|----------------|----------------|----------------|
G#|----------------|----------------|----------------|----------------|----------------|
D#|----------------|----------------|----------------|----------------|----------------|
A#|----------------|----------------|----------------|----------------|----------------|


D#|----------------|----------------|----------------|----------------|----------------|
A#|----------------|----------------|----------------|----------------|----------------|
F#|----------------|----------------|----------------|----------------|----------------|
C#|----------------|----------------|----------------|----------------|----------------|
G#|----------------|----------------|----------------|----------------|----------------|
D#|----------------|----------------|----------------|----------------|----------------|
A#|----------------|----------------|----------------|----------------|----------------|


D#|----------------|----------------|----------------|----------------|-------------|
A#|----------------|----------------|----------------|----------------|-------------|
F#|----------------|----------------|----------------|----------------|-------------|
C#|----------------|----------------|----------------|----------------|-------------|
G#|----------------|----------------|----------------|----------------|-------------|
D#|----------------|----------------|----------------|----------------|-------------|
A#|----------------|----------------|----------------|----------------|-------------|


D#|-------------|-------------|-------------|-------------|-------------|-------------|
A#|-------------|-------------|-------------|-------------|-------------|-------------|
F#|-------------|-------------|-------------|-------------|-------------|-------------|
C#|-------------|-------------|-------------|-------------|-------------|-------------|
G#|-------------|-------------|-------------|-------------|-------------|-------------|
D#|-------------|-------------|-------------|-------------|-------------|-------------|
A#|-------------|-------------|-------------|-------------|-------------|-------------|


D#|-------------|-------------|-------------|-------------|-------------|-------------|
A#|-------------|-------------|-------------|-------------|-------------|-------------|
F#|-------------|-------------|-------------|-------------|-------------|-------------|
C#|-------------|-------------|-------------|-------------|-------------|-------------|
G#|-------------|-------------|-------------|-------------|-------------|-------------|
D#|-------------|-------------|-------------|-------------|-------------|-------------|
A#|-------------|-------------|-------------|-------------|-------------|-------------|


D#|-------------|-------------|-------------|-------------|-------------|-------------|
A#|-------------|-------------|-------------|-------------|-------------|-------------|
F#|-------------|-------------|-------------|-------------|-------------|-------------|
C#|-------------|-------------|-------------|-------------|-------------|-------------|
G#|-------------|-------------|-------------|-------------|-------------|-------------|
D#|-------------|-------------|-------------|-------------|-------------|-------------|
A#|-------------|-------------|-------------|-------------|-------------|-------------|


D#|-------------|-------------|-------------|-------------|-------------|-------------|
A#|-------------|-------------|-------------|-------------|-------------|-------------|
F#|-------------|-------------|-------------|-------------|-------------|-------------|
C#|-------------|-------------|-------------|-------------|-------------|-------------|
G#|-------------|-------------|-------------|-------------|-------------|-------------|
D#|-------------|-------------|-------------|-------------|-------------|-------------|
A#|-------------|-------------|-------------|-------------|-------------|-------------|


D#|-------------|
A#|-------------|
F#|-------------|
C#|-------------|
G#|-------------|
D#|-------------|
A#|-------------|









Track 5: Janne Kusmin
Back to top
C|-------------------------|-49-----|-49----49--------------|--------|-------------------52--|
C|-------------------------|--------|-----------------------|--------|-----------------------|
C|-------------------------|--------|-----------------------|--------|-----------------------|
C|-------48----------------|--------|-----------48--48--48--|--------|-----------48--48------|
C|-------41------40-40-----|--------|-----------41--41--41--|--------|-----------41--41--40--|
C|-36-36-----36--------36--|-36-----|-36----36--------------|--------|-----------------------|


C|-49------------------------------|-----------------------------------|-49------------------------------|
C|---------------------------------|-----------------------------------|---------------------------------|
C|---------------------------------|-----------------------------------|---------------------------------|
C|---------46------46------46------|-46------46------46--------46------|---------46------46------46------|
C|---------40--------------40------|---------40----------------40------|---------40--------------40------|
C|-36--36------36------36------36--|-36--36------36------36-36-----36--|-36--36------36------36------36--|


C|-----------------------------------|---------------------------------|-----------------------------------|
C|-----------------------------------|---------------------------------|-----------------------------------|
C|-----------------------------------|---------------------------------|-----------------------------------|
C|-46------46------46------46--------|-46------46------46------46------|-46------46------46--------46------|
C|---------40--------------40-----40-|---------40--------------40------|---------40----------------40------|
C|-36--36------36------36------36----|-36--36------36------36------36--|-36--36------36------36-36-----36--|


C|---------------------------------|-----------------------------------|-49------------------------------|
C|---------------------------------|-----------------------------------|---------------------------------|
C|---------------------------------|-----------------------------------|---------------------------------|
C|-46------46------46------46------|-46------46------46------46--48-48-|---------46------46------46------|
C|---------40--------------40------|---------40--------------40--------|---------40--------------40------|
C|-36--36------36------36------36--|-36--36------36------36------------|-36--36------36------36------36--|


C|-----------------------------------|---------------------------------|-------------------------------------|
C|-----------------------------------|---------------------------------|-------------------------------------|
C|-----------------------------------|---------------------------------|-------------------------------------|
C|-46------46------46--------46------|-46------46------46------46------|-41------48--------------------------|
C|---------40----------------40------|---------40--------------40------|-40------41------48-48-48--45-45-----|
C|-36--36------36------36-36-----36--|-36--36------36------36------36--|-----36------36------------------36--|


C|-49------------------|---------------------------|---------------------|--------------------------------|
C|---------------------|---------------------------|---------------------|--------------------------------|
C|---------------------|---------------------------|---------------------|--------------------------------|
C|------51---51---51---|-51---51---51---51--515151-|-51---51---51---51---|-51---51------------46--44------|
C|-----------40--------|-----------40--------------|-----------40--------|----------------40--------------|
C|-36------------------|-36------------------------|-36------------------|-36-------36-36-----36------36--|


C|-49------------------|---------------------------|---------------------|--------------------------------|
C|---------------------|---------------------------|---------------------|--------------------------------|
C|---------------------|---------------------------|---------------------|--------------------------------|
C|------51---51---51---|-51---51---51---51--515151-|-51---51---51---51---|-51---51----------------48------|
C|-----------40--------|-----------40--------------|-----------40--------|----------------40------41------|
C|-36------------------|-36------------------------|-36------------------|-36-------36-36-----36------36--|


C|-49------------------|---------------------------|---------------------|--------------------------------|
C|---------------------|---------------------------|---------------------|--------------------------------|
C|---------------------|---------------------------|---------------------|--------------------------------|
C|------51---51---51---|-51---51---51---51--515151-|-51---51---51---51---|-51---51------------------------|
C|-----------40--------|-----------40--------------|-----------40--------|----------------40--48--45--43--|
C|-36------------------|-36------------------------|-36------------------|-36-------36-36-----------------|


C|-49------------------|---------------------------|---------------------|--------------------------------|
C|---------------------|---------------------------|---------------------|--------------------------------|
C|---------------------|---------------------------|---------------------|--------------------------------|
C|------51---51---51---|-51---51---51---51--515151-|-51---51---51---51---|-51---51----------------48------|
C|-----------40--------|-----------40--------------|-----------40--------|----------------40------41------|
C|-36------------------|-36------------------------|-36------------------|-36-------36-36-----36------36--|


C|-49------------------|---------------------------|---------------------|--------------------------------|
C|---------------------|---------------------------|---------------------|--------------------------------|
C|---------------------|---------------------------|---------------------|--------------------------------|
C|------51---51---51---|-51---51---51---51--515151-|-51---51---51---51---|-51---51--------51--48--48--48--|
C|-----------40--------|-----------40--------------|-----------40--------|----------------40--41--41--41--|
C|-36------------------|-36------------------------|-36------------------|-36-------36-36-----36--36--36--|


C|-49------------------------------|-----------------------------------|---------------------------------|
C|---------------------------------|-----------------------------------|---------------------------------|
C|---------------------------------|-----------------------------------|---------------------------------|
C|---------46------46------46------|-46------46------46------46--------|-46------46------46------46------|
C|---------40--------------40------|---------40--------------40--------|---------40--------------40------|
C|-36--36------36--36----------36--|-----36----------36--36-----36-36--|-36--36------36--36----------36--|


C|---------------------------------------|-49------------------------------|-----------------------------------|
C|---------------------------------------|---------------------------------|-----------------------------------|
C|---------------------------------------|---------------------------------|-----------------------------------|
C|-46------46------46----------46--------|---------46------46------46------|-46------46------46------46--------|
C|---------40------------------40--------|---------40--------------40------|---------40--------------40--------|
C|-----36----------36-36-36-------36-36--|-36--36------36--36----------36--|-----36----------36--36-----36-36--|


C|---------------------------------|-----------------------------------------------|
C|---------------------------------|-----------------------------------------------|
C|---------------------------------|-----------------------------------------------|
C|-46------46------46------46------|-46--------------------------------------------|
C|---------40--------------40------|-40--40-40-40-40-48-48-40-40-48-48-45-45-43-43-|
C|-36--36------36--36----------36--|-----------------------------------------------|


C|-49------------------------------|-----------------------------------|---------------------------------|
C|---------------------------------|-----------------------------------|---------------------------------|
C|---------------------------------|-----------------------------------|---------------------------------|
C|---------46------46------46------|-46------46------46------46--------|-46------46------46------46------|
C|---------40--------------40------|---------40--------------40--------|---------40--------------40------|
C|-36--36------36--36----------36--|-----36----------36--36-----36-36--|-36--36------36--36----------36--|


C|---------------------------------------|-49------------------------------|-----------------------------------|
C|---------------------------------------|---------------------------------|-----------------------------------|
C|---------------------------------------|---------------------------------|-----------------------------------|
C|-46------46------46----------46--------|---------46------46------46------|-46------46------46------46--------|
C|---------40------------------40--------|---------40--------------40------|---------40--------------40--------|
C|-----36----------36-36-36-------36-36--|-36--36------36--36----------36--|-----36----------36--36-----36-36--|


C|---------------------------------|-----------------------------------------|-49------------------|
C|---------------------------------|-----------------------------------------|---------------------|
C|---------------------------------|-----------------------------------------|---------------------|
C|-46------46------46------46------|-41--48-48-45-45-43--43-43-43--41-41-41--|------51---51---51---|
C|---------40--------------40------|-40--------------------------------------|-----------40--------|
C|-36--36------36--36----------36--|-----------------------------------------|-36------------------|


C|---------------------------|---------------------|--------------------------------|
C|---------------------------|---------------------|--------------------------------|
C|---------------------------|---------------------|--------------------------------|
C|-51---51---51---51--515151-|-51---51---51---51---|-51---51------------------------|
C|-----------40--------------|-----------40--------|----------------40--------------|
C|-36------------------------|-36------------------|-36-------36-36-----36------36--|


C|-49------------------|---------------------------|---------------------|--------------------------------|
C|---------------------|---------------------------|---------------------|--------------------------------|
C|---------------------|---------------------------|---------------------|--------------------------------|
C|------51---51---51---|-51---51---51---51--515151-|-51---51---51---51---|-51---51----------------48--48--|
C|-----------40--------|-----------40--------------|-----------40--------|----------------40------41--41--|
C|-36------------------|-36------------------------|-36------------------|-36-------36-36-----36----------|


C|-49------------------|---------------------------|---------------------|--------------------------------|
C|---------------------|---------------------------|---------------------|--------------------------------|
C|---------------------|---------------------------|---------------------|--------------------------------|
C|------51---51---51---|-51---51---51---51--515151-|-51---51---51---51---|-51---51------------------------|
C|-----------40--------|-----------40--------------|-----------40--------|----------------40--48--45--43--|
C|-36------------------|-36------------------------|-36------------------|-36-------36-36-----------------|


C|-49------------------|---------------------------|---------------------|--------------------------------|
C|---------------------|---------------------------|---------------------|--------------------------------|
C|---------------------|---------------------------|---------------------|--------------------------------|
C|------51---51---51---|-51---51---51---51--515151-|-51---51---51---51---|-51---51--------51------48--48--|
C|-----------40--------|-----------40--------------|-----------40--------|----------------40------41--41--|
C|-36------------------|-36------------------------|-36------------------|-36-------36-36---------36--36--|


C|-49------------------|---------------------------|---------------------|-----------------------------------|
C|---------------------|---------------------------|---------------------|-----------------------------------|
C|---------------------|---------------------------|---------------------|-----------------------------------|
C|------51---51---51---|-51---51---51---51--515151-|-51---51---51---51---|-51---51---------------------------|
C|-----------40--------|-----------40--------------|-----------40--------|-----------40-40-40-40-40-40-40-40-|
C|-36------------------|-36------------------------|-36------------------|-36--------------------------------|


C|-------------------------------------------------|-------------------------------------------------|
C|-------52----------52----------52----------52----|-------52----------52----------------------------|
C|-53----------53----------53----------53----------|-53----------53----------53----53-------53-53----|
C|-------------------------------------------------|-------------------------------------------------|
C|-------------40----------------------40----------|-------------40----------------------40----------|
C|-36-36-36-36-36-36-36-36-36-36-36-36-36-36-36-36-|-36-36-36-36-36-36-36-36-36-36-36-36-36-36-36-36-|


C|-------------------------------------------------|-------------------------------------------------|
C|-------52----------52----------52----------52----|-------52----------52----------------------------|
C|-53----------53----------53----------53----------|-53----------53----------53-53-53----53-53-53----|
C|-------------------------------------------------|-------------------------------------------------|
C|-------------40----------------------40----------|-------------40----------------------40----------|
C|-36-36-36-36-36-36-36-36-36-36-36-36-36-36-36-36-|-36-36-36-36-36-36-36-36-36-36-36-36-36-36-36-36-|


C|-------------------------------------------------|-------------------------------------------------|
C|-------52----------52----------52----------52----|-------52----------52----------------------------|
C|-53----------53----------53----------53----------|-53----------53----------53----53-------53-53----|
C|-------------------------------------------------|-------------------------------------------------|
C|-------------40----------------------40----------|-------------40----------------------40----------|
C|-36-36-36-36-36-36-36-36-36-36-36-36-36-36-36-36-|-36-36-36-36-36-36-36-36-36-36-36-36-36-36-36-36-|


C|-------------------------------------------------|-------------------------------------------------|
C|-------52----------52----------52----------52----|-------------------------------------------------|
C|-53----------53----------53----------53----------|-------------------------------------------------|
C|-------------------------------------------------|-------------------------------48-48-45-45-43-43-|
C|-------------40----------------------40----------|-40----40-40-40-40-48-48-40-40-------------------|
C|-36-36-36-36-36-36-36-36-36-36-36-36-36-36-36-36-|-36-36-36-36-36-36-36-36-36-36-36-36-36-36-36-36-|


C|-------------------------------------------------|-------------------------------------------------|
C|-------52----------52----------52----------52----|-------52----------52----------------------------|
C|-53----------53----------53----------53----------|-53----------53----------53----53-------53-53----|
C|-------------------------------------------------|-------------------------------------------------|
C|-------------40----------------------40----------|-------------40----------------------40----------|
C|-36-36-36-36-36-36-36-36-36-36-36-36-36-36-36-36-|-36-36-36-36-36-36-36-36-36-36-36-36-36-36-36-36-|


C|-------------------------------------------------|-------------------------------------------------|
C|-------52----------52----------52----------52----|-------52----------52----------------------------|
C|-53----------53----------53----------53----------|-53----------53----------53-53-53----53-53-53----|
C|-------------------------------------------------|-------------------------------------------------|
C|-------------40----------------------40----------|-------------40----------------------40----------|
C|-36-36-36-36-36-36-36-36-36-36-36-36-36-36-36-36-|-36-36-36-36-36-36-36-36-36-36-36-36-36-36-36-36-|


C|-------------------------------------------------|-------------------------------------------------|
C|-------52----------52----------52----------52----|-------52----------52----------------------------|
C|-53----------53----------53----------53----------|-53----------53----------53----53-------53-53----|
C|-------------------------------------------------|-------------------------------------------------|
C|-------------40----------------------40----------|-------------40----------------------40----------|
C|-36-36-36-36-36-36-36-36-36-36-36-36-36-36-36-36-|-36-36-36-36-36-36-36-36-36-36-36-36-36-36-36-36-|


C|-------------------------------------------------|-------------------------------------------------|
C|-------52----------52----------52----------52----|-------------------------------------------------|
C|-53----------53----------53----------53----------|-------------------------------------------------|
C|-------------------------------------------------|-------------------------------48-48-45-45-43-43-|
C|-------------40----------------------40----------|-40----40-40-40-40-48-48-40-40-------------------|
C|-36-36-36-36-36-36-36-36-36-36-36-36-36-36-36-36-|-36-36-36-36-36-36-36-36-36-36-36-36-36-36-36-36-|


C|-49-----|-------------------52--|-49------------------------------|-----------------------------------|
C|--------|-----------------------|---------------------------------|-----------------------------------|
C|--------|-----------------------|---------------------------------|-----------------------------------|
C|--------|-----------48--48------|---------46------46------46------|-46------46------46--------46------|
C|--------|-----------41--41--40--|---------40--------------40------|---------40----------------40------|
C|-36-----|-----------------------|-36--36------36------36------36--|-36--36------36------36-36-----36--|


C|---------------------------------|-----------------------------------|---------------------------------|
C|---------------------------------|-----------------------------------|---------------------------------|
C|---------------------------------|-----------------------------------|---------------------------------|
C|-46------46------46------46------|-46------46------46------46--------|-46------46------46------46------|
C|---------40--------------40------|---------40--------------40-----40-|---------40--------------40------|
C|-36--36------36------36------36--|-36--36------36------36------36----|-36--36------36------36------36--|


C|-----------------------------------------------|-49----------------------------------------------|
C|-----------------------------------------------|-------------------------------------------------|
C|-----------------------------------------------|-------------------------------------------------|
C|-46--------------------------------------------|-------------46----------46----------46----------|
C|-40--40-40-40-40-48-48-40-40-48-48-45-45-43-43-|-------------40----------------------40----------|
C|-----------------------------------------------|-36-36-36-36-36-36-36-36-36-36-36-36-36-36-36-36-|


C|-------------------------------------------------|-------------------------------------------------|
C|-------------------------------------------------|-------------------------------------------------|
C|-------------------------------------------------|-------------------------------------------------|
C|-46----------46----------46----------46----------|-46----------46----------46----------46----------|
C|-------------40----------------------40----------|-------------40----------------------40----------|
C|-36-36-36-36-36-36-36-36-36-36-36-36-36-36-36-36-|-36-36-36-36-36-36-36-36-36-36-36-36-36-36-36-36-|


C|-------------------------------------------------|-49----------------------------------------------|
C|-------------------------------------------------|-------------------------------------------------|
C|-------------------------------------------------|-57----------------------------------------------|
C|-46----------46----------46----------46----------|-------------46----------46----------46----------|
C|-------------40----------------------40----------|-------------40----------------------40----------|
C|-36-36-36-36-36-36-36-36-36-36-36-36-36-36-36-36-|-36-36-36-36-36-36-36-36-36-36-36-36-36-36-36-36-|


C|-------------------------------------------------|-------------------------------------------------|
C|-------------------------------------------------|-------------------------------------------------|
C|-------------------------------------------------|-------------------------------------------------|
C|-46----------46----------46----------46----------|-46----------46----------46----------46----------|
C|-------------40----------------------40----------|-------------40----------------------40----------|
C|-36-36-36-36-36-36-36-36-36-36-36-36-36-36-36-36-|-36-36-36-36-36-36-36-36-36-36-36-36-36-36-36-36-|


C|-----------------------------------------------|-49----49----49---|-49--49-------------------------------|
C|-----------------------------------------------|------------------|--------------------------------------|
C|-----------------------------------------------|-57----57----57---|-57--57-------------------------------|
C|-46--------------------------------------------|------------------|--------------------------------------|
C|-40--40-40-40-40-48-48-45-45-45-45-43-43-43-43-|------------------|----------------40--------40-40-48-48-|
C|-----------------------------------------------|-36----36----36---|-36--36---36-36-----36-36-------------|


C|-49----49----49---|-49--49-------------------------|-49--------------49--------------49--------|
C|------------------|--------------------------------|-------------------------------------------|
C|-57----57----57---|-57--57-------------------------|-57--------------57--------------57--------|
C|------------------|----------------45--45--45--45--|-------------------------------------------|
C|------------------|----------------41--41--41--41--|-----48-48-48-48-----45-45-45-45-----43-43-|
C|-36----36----36---|-36--36---36-36-----------------|-36--------------36--------------36--------|


C|-------53------------------------------------|-49------------49------------49--------|
C|---------------------------------------------|---------------------------------------|
C|-------55------------------------------------|-57------------57------------57--------|
C|---------------------------------------------|---------------------------------------|
C|-43-43-----41-41-------40--------40-40-48-48-|-----40-40-40------48-48-48------45-45-|
C|-------36--------36-36-----36-36-------------|-36------------36------------36--------|


C|-----53--------------------------------|-49------------------------------|---------------------------------|
C|---------------------------------------|---------------------------------|---------------------------------|
C|-----55--------------------------------|---------------------------------|---------------------------------|
C|---------------------------------------|-----51--51--51--51--51--51--51--|-51--51--51--51--51--51--51--51--|
C|-45------43-43-43--40------48-48-45-45-|-----------------40--------------|-----------------40------40------|
C|-----36----------------36--------------|-36----------36----------36------|-----36------36------36------36--|


C|-49------------------------------|-----------------------------------|-49------------------------------|
C|---------------------------------|-----------------------------------|---------------------------------|
C|---------------------------------|-----------------------------------|---------------------------------|
C|-----51--51--51--51--51--51--51--|-51--51--51--51--51--51----51--51--|-----51--51--51--51--51--51--51--|
C|-----------------40--------------|-----------------40--------40------|-----------------40--------------|
C|-36----------36----------36------|-----36------36------36-36-----36--|-36----------36----------36------|


C|---------------------------------|---------------------------------|---------------------------------------|
C|---------------------------------|---------------------------------|---------------------------------------|
C|---------------------------------|---------------------------------|---------------------------------------|
C|-51--51--51--51--51--51--51--51--|-51--51--51--51--51--51--51--51--|-51--51--51--51--51--------------------|
C|-----------------40------40------|-----------------40--------------|-----------------40--48-48-45-45-43-43-|
C|-----36------36------36------36--|-36----------36----------36------|-----36------36------------------------|


C|-49----------------------------------------------|-------------------------------------------------|
C|-------------------------------------------------|-------------------------------------------------|
C|-------------------------------------------------|-------------------------------------------------|
C|-------51----51----51----51----51----51----51----|-51----51----51----51----51----51----51----51----|
C|-------------40----------------------40----------|-------------40----------------------40----------|
C|-36-36-36-36-36-36-36-36-36-36-36-36-36-36-36-36-|-36-36-36-36-36-36-36-36-36-36-36-36-36-36-36-36-|


C|-------------------------------------------------|-------------------------------------------------|
C|-------------------------------------------------|-------------------------------------------------|
C|-------------------------------------------------|-------------------------------------------------|
C|-51----51----51----51----51----51----51----51----|-51----51----51----51----51----51----51----51----|
C|-------------40----------------------40----------|-------------40----------------------40----------|
C|-36-36-36-36-36-36-36-36-36-36-36-36-36-36-36-36-|-36-36-36-36-36-36-36-36-36-36-36-36-36-36-36-36-|


C|-49----------49--------------49--|-49--49------49------------------------|-------------------------------------------------|
C|-----------------52--------------|---------------------------------------|-------------------------------------------------|
C|-----57------------------57------|---------57----------------------------|-------------------------------------------------|
C|---------------------------------|---------------------------------------|-51----51----51----51----51----51----51----51----|
C|---------40--------------40------|---------40------40-40-48----40--------|-------------40----------------------40----------|
C|-36--36------36--36----------36--|-----36------36-----------36-----36-36-|-36-36-36-36-36-36-36-36-36-36-36-36-36-36-36-36-|


C|-------------------------------------------------|-49----------49--------------49--|
C|-------------------------------------------------|-----------------52--------------|
C|-------------------------------------------------|-----57------------------57------|
C|-51----51----51----51----51----51----51----51----|---------------------------------|
C|-------------40----------------------40----------|---------40--------------40------|
C|-36-36-36-36-36-36-36-36-36-36-36-36-36-36-36-36-|-36--36------36--36----------36--|


C|-49--49------49------------------------|-------------------------------------------------|
C|---------------------------------------|-------------------------------------------------|
C|---------57----------------------------|-------------------------------------------------|
C|---------------------------------------|-51----51----51----51----51----51----51----51----|
C|---------40------40-40-48----40--------|-------------40----------------------40----------|
C|-----36------36-----------36-----36-36-|-36-36-36-36-36-36-36-36-36-36-36-36-36-36-36-36-|


C|-------------------------------------------------|-49----------------------------------------------|
C|-------------------------------------------------|-------------------------------------------------|
C|-------------------------------------------------|-------------------------------------------------|
C|-51----51----51----51----51----51----51----51----|-------51----51----51----51----51----51----51----|
C|-------------40----------------------40----------|-40----------40----------40----------40----------|
C|-36-36-36-36-36-36-36-36-36-36-36-36-36-36-36-36-|-36-36-36-36-36-36-36-36-36-36-36-36-36-36-36-36-|


C|-------------------------------------------------|-------------------------------------------------|
C|-------------------------------------------------|-------------------------------------------------|
C|-------------------------------------------------|-------------------------------------------------|
C|-51----51----51----51----51----51----51----51----|-51----51-51-51----51-51-51----51-51-51----51-51-|
C|-40----------40----------40----------40----------|-40----------40----------40----------40----------|
C|-36-36-36-36-36-36-36-36-36-36-36-36-36-36-36-36-|-36-36-36-36-36-36-36-36-36-36-36-36-36-36-36-36-|


C|-------------------------------------------------|-49----------------------------------------------|
C|-------------------------------------------------|-------------------------------------------------|
C|-------------------------------------------------|-------------------------------------------------|
C|-51----51-51-51----51-51-51----51-51-51----51-51-|-------51----51----51----51----51----51----51----|
C|-40----------40----------40----------40----------|-40----------40----------40----------40----------|
C|-36-36-36-36-36-36-36-36-36-36-36-36-36-36-36-36-|-36-36-36-36-36-36-36-36-36-36-36-36-36-36-36-36-|


C|-------------------------------------------------|-------------------------------------------------|
C|-------------------------------------------------|-------------------------------------------------|
C|-------------------------------------------------|-------------------------------------------------|
C|-51----51----51----51----51----51----51----51----|-51----51-51-51----51-51-51----51-51-51----51-51-|
C|-40----------40----------40----------40----------|-40----------40----------40----------40----------|
C|-36-36-36-36-36-36-36-36-36-36-36-36-36-36-36-36-|-36-36-36-36-36-36-36-36-36-36-36-36-36-36-36-36-|


C|-------------------------------------------------|-49----------49---|-49-----------------------------------|
C|-------------------------------------------------|------------------|--------------------------------------|
C|-------------------------------------------------|-------57---------|-----57-------------------------------|
C|-51----51-51-51----51-51-51----------------------|------------------|--------------------------------------|
C|-40----------40----------40----48-48-45-45-43-43-|------------------|----------------40--------40-40-48-48-|
C|-36-36-36-36-36-36-36-36-36-36-36-36-36-36-36-36-|-36----36----36---|-36--36---36-36-----36-36-------------|


C|-49----------49---|-49-----------------------------|-49----------49---|-49-----------------------------------|
C|------------------|--------------------------------|------------------|--------------------------------------|
C|-------57---------|-----57-------------------------|-------57---------|-----57-------------------------------|
C|------------------|----------------45--45--45--45--|------------------|--------------------------------------|
C|------------------|----------------41--41--41--41--|------------------|----------------40--------48-48-45-45-|
C|-36----36----36---|-36--36---36-36-----------------|-36----36----36---|-36--36---36-36-----36-36-------------|


C|-49----------49---|-49-------------|--------|-------------------------------|-------------------------------------------------|
C|------------------|----------------|--------|-------------------------------|-------52----------52----------52----------52----|
C|-------57---------|-----57-----57--|--------|-------------------------------|-53----------53----------53----------53----------|
C|------------------|----------------|--------|-------------------------------|-------------------------------------------------|
C|------------------|----------------|--------|-------40-40-40-40-40-40-40-40-|-------------40----------------------40----------|
C|-36----36----36---|-36--36-----36--|--------|-------------------------------|-36-36-36-36-36-36-36-36-36-36-36-36-36-36-36-36-|


C|-------------------------------------------------|-------------------------------------------------|
C|-------52----------52----------------------------|-------52----------52----------52----------52----|
C|-53----------53----------53----53-------53-53----|-53----------53----------53----------53----------|
C|-------------------------------------------------|-------------------------------------------------|
C|-------------40----------------------40----------|-------------40----------------------40----------|
C|-36-36-36-36-36-36-36-36-36-36-36-36-36-36-36-36-|-36-36-36-36-36-36-36-36-36-36-36-36-36-36-36-36-|


C|-------------------------------------------------|-------------------------------------------------|
C|-------52----------52----------------------------|-------52----------52----------52----------52----|
C|-53----------53----------53-53-53----53-53-53----|-53----------53----------53----------53----------|
C|-------------------------------------------------|-------------------------------------------------|
C|-------------40----------------------40----------|-------------40----------------------40----------|
C|-36-36-36-36-36-36-36-36-36-36-36-36-36-36-36-36-|-36-36-36-36-36-36-36-36-36-36-36-36-36-36-36-36-|


C|-------------------------------------------------|-------------------------------------------------|
C|-------52----------52----------------------------|-------52----------52----------52----------52----|
C|-53----------53----------53----53-------53-53----|-53----------53----------53----------53----------|
C|-------------------------------------------------|-------------------------------------------------|
C|-------------40----------------------40----------|-------------40----------------------40----------|
C|-36-36-36-36-36-36-36-36-36-36-36-36-36-36-36-36-|-36-36-36-36-36-36-36-36-36-36-36-36-36-36-36-36-|


C|-------------------------------------------------|-49----------------------------------------------|
C|-------------------------------------------------|-------52----------52----------52----------52----|
C|-------------------------------------------------|-------------53----------53----------53----------|
C|-------------------------------------------------|-------------------------------------------------|
C|-40-------40-40-48-48-48-40-40-48-48-40-45-45-40-|-------------40----------------------40----------|
C|-36-36-36-36-36-36-36-36-36-36-36-36-36-36-36-36-|-36-36-36-36-36-36-36-36-36-36-36-36-36-36-36-36-|


C|-------------------------------------------------|-------------------------------------------------|
C|-------52----------52----------------------------|-------52----------52----------52----------52----|
C|-53----------53----------53----53-------53-53----|-53----------53----------53----------53----------|
C|-------------------------------------------------|-------------------------------------------------|
C|-------------40----------------------40----------|-------------40----------------------40----------|
C|-36-36-36-36-36-36-36-36-36-36-36-36-36-36-36-36-|-36-36-36-36-36-36-36-36-36-36-36-36-36-36-36-36-|


C|-------------------------------------------------|-------------------------------------------------|
C|-------52----------52----------------------------|-------52----------52----------52----------52----|
C|-53----------53----------53-53-53----53-53-53----|-53----------53----------53----------53----------|
C|-------------------------------------------------|-------------------------------------------------|
C|-------------40----------------------40----------|-------------40----------------------40----------|
C|-36-36-36-36-36-36-36-36-36-36-36-36-36-36-36-36-|-36-36-36-36-36-36-36-36-36-36-36-36-36-36-36-36-|


C|-------------------------------------------------|-------------------------------------------------|
C|-------52----------52----------------------------|-------52----------52----------52----------52----|
C|-53----------53----------53----53-------53-53----|-53----------53----------53----------53----------|
C|-------------------------------------------------|-------------------------------------------------|
C|-------------40----------------------40----------|-------------40----------------------40----------|
C|-36-36-36-36-36-36-36-36-36-36-36-36-36-36-36-36-|-36-36-36-36-36-36-36-36-36-36-36-36-36-36-36-36-|


C|-------------------------------------------------|-49-----|-------------------52--|
C|-------52----------52----------------------------|--------|-----------------------|
C|-53----------53----------------------------------|--------|-----------------------|
C|-------------------------------------------------|--------|-----------48--48------|
C|-------------40----------40----48-48-45-45-43-43-|--------|-----------41--41--40--|
C|-36-36-36-36-36-36-36-36-36-36-36-36-36-36-36-36-|-36-----|-----------------------|


C|-49------------------------------|-----------------------------------|---------------------------------|
C|---------------------------------|-----------------------------------|---------------------------------|
C|---------------------------------|-----------------------------------|---------------------------------|
C|---------46------46------46------|-46------46------46--------46------|-46------46------46------46------|
C|---------40--------------40------|---------40----------------40------|---------40--------------40------|
C|-36--36------36------36------36--|-36--36------36------36-36-----36--|-36--36------36------36------36--|


C|-----------------------------------|-49------------------------------|-----------------------------------------------|
C|-----------------------------------|---------------------------------|-----------------------------------------------|
C|-----------------------------------|---------------------------------|-----------------------------------------------|
C|-46------46------46------46--------|---------46------46------46------|-46--------------------------------------------|
C|---------40--------------40-----40-|---------40--------------40------|-40--40-40-40-40-48-48-40-40-48-48-45-45-43-43-|
C|-36--36------36------36------36----|-36--36------36------36------36--|-----------------------------------------------|


C|-49----------------------------------------------|-------------------------------------------------|
C|-------------------------------------------------|-------------------------------------------------|
C|-------------------------------------------------|-------------------------------------------------|
C|-------------46----------46----------46----------|-46----------46----------46----------46----------|
C|-------------40----------------------40----------|-------------40----------------------40----------|
C|-36-36-36-36-36-36-36-36-36-36-36-36-36-36-36-36-|-36-36-36-36-36-36-36-36-36-36-36-36-36-36-36-36-|


C|-------------------------------------------------|-------------------------------------------------|
C|-------------------------------------------------|-------------------------------------------------|
C|-------------------------------------------------|-------------------------------------------------|
C|-46----------46----------46----------46----------|-46----------46----------46----------46----------|
C|-------------40----------------------40----------|-------------40----------------------40----------|
C|-36-36-36-36-36-36-36-36-36-36-36-36-36-36-36-36-|-36-36-36-36-36-36-36-36-36-36-36-36-36-36-36-36-|


C|-49----------------------------------------------|-------------------------------------------------|
C|-------------------------------------------------|-------------------------------------------------|
C|-57----------------------------------------------|-------------------------------------------------|
C|-------------46----------46----------46----------|-46----------46----------46----------46----------|
C|-------------40----------------------40----------|-------------40----------------------40----------|
C|-36-36-36-36-36-36-36-36-36-36-36-36-36-36-36-36-|-36-36-36-36-36-36-36-36-36-36-36-36-36-36-36-36-|


C|-49------49---------------------|-------------|-------49--------|-49---49-----|-49-----|
C|--------------------------------|-------------|-----------------|-------------|--------|
C|-----57------57--57---57--------|-------------|------------57---|------57-----|-57-----|
C|--------------------------------|-------48----|-45--------------|-------------|--------|
C|--------------------------------|-40----41----|-41--------------|-------------|--------|
C|-36--36--36--36--36---36--36-36-|-------------|-------36---36---|-36---36-----|-36-----|


C|-49-----|-49-----|-49-----|-49-----|-49-----|-49-----|-49-----|
C|--------|--------|--------|--------|--------|--------|--------|
C|-57-----|-57-----|-57-----|-57-----|-57-----|-57-----|-57-----|
C|--------|--------|--------|--------|--------|--------|--------|
C|--------|--------|--------|--------|--------|--------|--------|
C|-36-----|-36-----|-36-----|-36-----|-36-----|-36-----|-36-----|



← Back to top