Plaster Caster

by Kiss

Guitar Pro Tab  |  v3.00  |  Posted on March 29, 2007, 11:07 a.m. ← Back

Guitar Pro Tab Summary

Album

unknown

Song Author

unknown

Tabbed by

Ace Frehley

Instruments

1st → Geneha 1
2nd → Paulha 4
3rd → Gene Vocalss)
4th → Peterss´┐Żo
5th → Acelha 5

File Size

29 KB

Views

460

Notice

the-ace-frehley@bol.com.br






Tablature Sheet

Title: Plaster Caster
Artist: Kiss
Album: 
Author: 






Track 1: Gene
Back to top
E|---------------------------------|---------------------------------|---------------------------------|
B|---------------------------------|---------------------------------|---------------------------------|
G|---------------------------------|---------------------------------|---------------------------------|
D|---------------------------------|---------------------------------|---------------------------------|
A|-0---0---0---0---0---0---0---0---|-0---0---0---0---0---0---0---0---|-0---0---0---0---0---0---0---0---|
E|---------------------------------|---------------------------------|---------------------------------|


E|---------------------------------|---------------------------------|---------------------------------|
B|---------------------------------|---------------------------------|---------------------------------|
G|---------------------------------|---------------------------------|---------------------------------|
D|---------------------------------|---------------------------------|---------------------------------|
A|-0---0---0---0---0---0---0---0---|-0---0---0---0---0---0---0---0---|-0---0---0---0---0---0---0---0---|
E|---------------------------------|---------------------------------|---------------------------------|


E|---------------------------------|---------------------------------|---------------------------------|
B|---------------------------------|---------------------------------|---------------------------------|
G|---------------------------------|---------------------------------|---------------------------------|
D|---------------------------------|---------------------------------|---------------------------------|
A|-0---0---0---0---0---0---0---0---|-0---0---0---0---0---0---0---0---|-0---0---0---0---0---0---0---0---|
E|---------------------------------|---------------------------------|---------------------------------|


E|---------------------------------|---------------------------------|---------------------------------|
B|---------------------------------|---------------------------------|---------------------------------|
G|---------------------------------|---------------------------------|---------------------------------|
D|---------------------------------|---------------------------------|-----5---2-----------------------|
A|-0---0---0---0---0---0---0---0---|-0---0---0---0---0---0---0---0---|-0-----------5---5---3---2---0---|
E|---------------------------------|---------------------------------|---------------------------------|


E|---------------------------------|---------------------------------|---------------------------------|
B|---------------------------------|---------------------------------|---------------------------------|
G|---------------------------------|---------------------------------|---------------------------------|
D|---------------------------------|---------------------------------|---------------------------------|
A|-0---0---0---0---0---3---4---5---|-5---5---5---5---5---------------|---------------------3---4---5---|
E|---------------------------------|---------------------3---4---5---|-5---5---5---5---5---------------|


E|---------------------------------|---------------------------------|---------------------------------|
B|---------------------------------|---------------------------------|---------------------------------|
G|---------------------------------|---------------------------------|---------------------------------|
D|---------------------------------|---------------------------------|---------------------------------|
A|-5---5---5---5---5---3---0-------|---------------------------------|-----------------------------5---|
E|-----------------------------1---|-1---1---1---1---1---1---1---3---|-3---3---3---3---3---3---3-------|


E|---------------------------------|------------------------------|---------------------------------|
B|---------------------------------|------------------------------|---------------------------------|
G|-----------------------------5---|-5---5------------------------|---------------------------------|
D|---------------------------------|----------7---7---5-----------|---------------------------------|
A|-5---5---5---5---5---5---5-------|----------------------7---0---|-0---0---0---0---0---3---4---5---|
E|---------------------------------|------------------------------|---------------------------------|


E|---------------------------------|---------------------------------|---------------------------------|
B|---------------------------------|---------------------------------|---------------------------------|
G|---------------------------------|---------------------------------|---------------------------------|
D|---------------------------------|---------------------------------|-----------------------------3---|
A|-5---5---5---5---5---0---3---0---|-0---0---0---0---0---3---4---5---|-5---5---5---5---5---5---5-------|
E|---------------------------------|---------------------------------|---------------------------------|


E|---------------------------------|---------------------------------|---------------------------------|
B|---------------------------------|---------------------------------|---------------------------------|
G|---------------------------------|---------------------------------|---------------------------------|
D|-3---3---3---3---3---3---3---5---|-5---5---5---5---5---5---5-------|-----------------------------5---|
A|---------------------------------|-----------------------------5---|-5---5---5---5---5---5---5-------|
E|---------------------------------|---------------------------------|---------------------------------|


E|---------------------------------|---------------------------------|---------------------------------|
B|---------------------------------|---------------------------------|---------------------------------|
G|---------------------------------|---------------------------------|---------------------------------|
D|-----5---------------------------|---------------------------------|---------------------------------|
A|-------------5---5---------------|---------------------2---3---5---|-5---5---5---5---5---------------|
E|---------------------0---2---3---|-3---3---3---3---3---------------|---------------------0---2---3---|


E|---------------------------------|---------------------------------|---------------------------------|
B|---------------------------------|---------------------------------|---------------------------------|
G|---------------------------------|---------------------------------|---------------------------------|
D|---------------------------------|---------------------------------|---------------------------------|
A|---------------------2---3---5---|-5---5---5---5---5---5---3-------|---------------------------------|
E|-3---3---3---3---3---------------|-----------------------------1---|-1---1---1---1---1---1---1---3---|


E|---------------------------------|---------------------------------|---------------------------------|
B|---------------------------------|---------------------------------|---------------------------------|
G|---------------------------------|---------------------------------|---------------------------------|
D|---------------------------------|---------------------------------|---------------------------------|
A|-----------------------------0---|-0---0---0---0---0---0---0---0---|-0---0---0---0---0---3---3---5---|
E|-3---3---3---3---3---3---3-------|---------------------------------|---------------------------------|


E|---------------------------------|---------------------------------|---------------------------------|
B|---------------------------------|---------------------------------|---------------------------------|
G|---------------------------------|---------------------------------|---------------------------------|
D|---------------------------------|-----------------------------0---|-0---0---0---0---0---------------|
A|-5---5---5---5---5---3---0-------|---------------------3---3-------|---------------------3---0-------|
E|-----------------------------3---|-3---3---3---3---3---------------|-----------------------------3---|


E|---------------------------------|---------------------------------|---------------------------------|
B|---------------------------------|---------------------------------|---------------------------------|
G|---------------------------------|---------------------------------|---------------------------------|
D|---------------------------------|---------------------------------|---------------------------------|
A|---------------------------------|-----------------------------3---|-3---3---3---3---3---2---0-------|
E|-3---3---3---3---3---3---3---1---|-1---1---1---1---1---1---1-------|-----------------------------3---|


E|---------------------------------|---------------------------------|---------------------------------|
B|---------------------------------|---------------------------------|---------------------------------|
G|---------------------------------|---------------------------------|---------------------------------|
D|---------------------------------|---------------------------------|---------------------------------|
A|-----------------------------3---|-----3---------------0---3---0---|-0---0---0---0---0---3---4---5---|
E|-3---3---3---3---3---3---3-------|-------------3---3---------------|---------------------------------|


E|---------------------------------|---------------------------------|---------------------------------|
B|---------------------------------|---------------------------------|---------------------------------|
G|---------------------------------|---------------------------------|---------------------------------|
D|---------------------------------|---------------------------------|-----------------------------3---|
A|-5---5---5---5---5-----------0---|-0---0---0---0---0---3---4---5---|-5---5---5---5---5---5---5-------|
E|---------------------3---4-------|---------------------------------|---------------------------------|


E|---------------------------------|---------------------------------|---------------------------------|
B|---------------------------------|---------------------------------|---------------------------------|
G|---------------------------------|---------------------------------|---------------------------------|
D|-3---3---3---3---3---3---3---5---|-5---5---5---5---5---5---5-------|-----------------------------5---|
A|---------------------------------|-----------------------------5---|-5---5---5---5---5---5---5-------|
E|---------------------------------|---------------------------------|---------------------------------|


E|---------------------------------|---------------------------------|---------------------------------|
B|---------------------------------|---------------------------------|---------------------------------|
G|---------------------------------|---------------------------------|---------------------------------|
D|-----5---------------------------|---------------------------------|---------------------------------|
A|-------------5---5---------------|---------------------2---3---5---|-5---5---5---5---5---------------|
E|---------------------0---2---3---|-3---3---3---3---3---------------|---------------------0---2---3---|


E|---------------------------------|---------------------------------|---------------------------------|
B|---------------------------------|---------------------------------|---------------------------------|
G|---------------------------------|---------------------------------|---------------------------------|
D|---------------------------------|---------------------------------|---------------------------------|
A|---------------------2---3---5---|-5---5---5---5---5---3---0-------|---------------------------------|
E|-3---3---3---3---3---------------|-----------------------------1---|-1---1---1---1---1---1---1---3---|


E|---------------------------------|---------------------------------|---------------------------------|
B|---------------------------------|---------------------------------|---------------------------------|
G|---------------------------------|---------------------------------|---------------------------------|
D|---------------------------------|---------------------------------|---------------------------------|
A|-----------------------------0---|-0---0---0---0---0---0---0---0---|-0---0---0---0---0---3---3---5---|
E|-3---3---3---3---3---3---3-------|---------------------------------|---------------------------------|


E|---------------------------------|---------------------------------|---------------------------------|
B|---------------------------------|---------------------------------|---------------------------------|
G|---------------------------------|---------------------------------|---------------------------------|
D|---------------------------------|---------------------------------|---------------------------------|
A|-5---5---5---5---5---3---0-------|---------------------0---3---5---|-5---5---5---5---5---3---0-------|
E|-----------------------------3---|-3---3---3---3---3---------------|-----------------------------3---|


E|---------------------------------|---------------------------------|---------------------------------|
B|---------------------------------|---------------------------------|---------------------------------|
G|---------------------------------|---------------------------------|---------------------------------|
D|-----------------------------3---|-3---3---3---3---3---2-----------|---------------------------------|
A|---------------------------------|-------------------------5---3---|-3---3---3---3---3---2---0-------|
E|-3---3---3---3---3---3---3-------|---------------------------------|-----------------------------3---|


E|---------------------------------|---------------------------------|---------------------------------|
B|---------------------------------|---------------------------------|---------------------------------|
G|---------------------------------|---------------------------------|---------------------------------|
D|---------------------------------|---------------------------------|---------------------------------|
A|-----------------------------3---|-----3---------------0---3---0---|-0---0---0---0---0---3---4---5---|
E|-3---3---3---3---3---3---3-------|-------------3---3---------------|---------------------------------|


E|---------------------------------|---------------------------------|---------------------------------|
B|---------------------------------|---------------------------------|---------------------------------|
G|---------------------------------|---------------------------------|---------------------------------|
D|---------------------------------|---------------------------------|-----------------------------3---|
A|-5---5---5---5---5---0---3---0---|-0---0---0---0---0---3---4---5---|-5---5---5---5---5---3---0-------|
E|---------------------------------|---------------------------------|---------------------------------|


E|---------------------------------|---------------------------------|---------------------------------|
B|---------------------------------|---------------------------------|---------------------------------|
G|---------------------------------|---------------------------------|---------------------------------|
D|-3---3---3---3---3---3---3---5---|-5---5---5---5---5---5---5-------|-----------------------------5---|
A|---------------------------------|-----------------------------5---|-5---5---5---5---5---5---5-------|
E|---------------------------------|---------------------------------|---------------------------------|


E|---------------------------------|---------------------------------|---------------------------------|
B|---------------------------------|---------------------------------|---------------------------------|
G|---------------------------------|---------------------------------|---------------------------------|
D|-----5---------------------------|---------------------------------|---------------------------------|
A|-------------5---5---------------|---------------------2---3---5---|-5---5---5---5---5---------------|
E|---------------------0---2---3---|-3---3---3---3---3---------------|---------------------0---2---3---|


E|---------------------------------|---------------------------------|---------------------------------|
B|---------------------------------|---------------------------------|---------------------------------|
G|---------------------------------|---------------------------------|---------------------------------|
D|---------------------------------|---------------------------------|---------------------------------|
A|---------------------2---3---5---|-5---5---5---5---5---3---0-------|---------------------------------|
E|-3---3---3---3---3---------------|-----------------------------1---|-1---1---1---1---1---1---1---3---|


E|---------------------------------|---------------------------------|---------------------------------|
B|---------------------------------|---------------------------------|---------------------------------|
G|---------------------------------|---------------------------------|---------------------------------|
D|---------------------------------|---------------------------------|---------------------------------|
A|-----------------------------0---|-0---0---0---0---0---0---0---0---|-0---0---0---0---0---3---3---5---|
E|-3---3---3---3---3---3---3-------|---------------------------------|---------------------------------|


E|---------------------------------|---------------------------------|---------------------------------|
B|---------------------------------|---------------------------------|---------------------------------|
G|---------------------------------|---------------------------------|---------------------------------|
D|---------------------------------|---------------------------------|---------------------------------|
A|-5---5---5---5---5---3---0-------|---------------------3---3---5---|-5---5---5---5---5---3---0-------|
E|-----------------------------3---|-3---3---3---3---3---------------|-----------------------------3---|


E|---------------------------------|---------------------------------|---------------------------------|
B|---------------------------------|---------------------------------|---------------------------------|
G|---------------------------------|---------------------------------|---------------------------------|
D|---------------------------------|---------------------------------|---------------------------------|
A|---------------------------------|-----------------------------3---|-3---3---3---3---3---3---3-------|
E|-3---3---3---3---3---3---3---1---|-1---1---1---1---1---1---1-------|-----------------------------3---|


E|---------------------------------|---------------------------------|---------------------------------|
B|---------------------------------|---------------------------------|---------------------------------|
G|---------------------------------|---------------------------------|---------------------------------|
D|---------------------------------|---------------------------------|---------------------------------|
A|-----------------------------3---|-----3---------------3---3---5---|-5---5---5---5---5---3---0-------|
E|-3---3---3---3---3---3---3-------|-------------3---3---------------|-----------------------------3---|


E|---------------------------------|---------------------------------|---------------------------------|
B|---------------------------------|---------------------------------|---------------------------------|
G|---------------------------------|---------------------------------|---------------------------------|
D|---------------------------------|---------------------------------|---------------------------------|
A|---------------------3---3---5---|-5---5---5---5---5---3---0-------|---------------------------------|
E|-3---3---3---3---3---------------|-----------------------------3---|-3---3---3---3---3---3---3---1---|


E|---------------------------------|---------------------------------|---------------------------------|
B|---------------------------------|---------------------------------|---------------------------------|
G|---------------------------------|---------------------------------|---------------------------------|
D|---------------------------------|---------------------------------|---------------------------------|
A|-----------------------------3---|-3---3---3---3---3---3---3-------|-----------------------------3---|
E|-1---1---1---1---1---1---1-------|-----------------------------3---|-3---3---3---3---3---3---3-------|


E|---------------------------------|---------------------------------|---------------------------------|
B|---------------------------------|---------------------------------|---------------------------------|
G|---------------------------------|---------------------------------|---------------------------------|
D|---------------------------------|---------------------------------|---------------------------------|
A|-----3---------------0---3---0---|-0---0---0---0---0---3---4---5---|-5---5---5---5---5---------------|
E|-------------3---3---------------|---------------------------------|---------------------3---4---5---|


E|---------------------------------|---------------------------------|---------------------------------|
B|---------------------------------|---------------------------------|---------------------------------|
G|---------------------------------|---------------------------------|---------------------------------|
D|---------------------------------|---------5-------7---5-----------|---------------------------------|
A|---------------------3---4---5---|-5---5-------5-----------7---0---|-0---0---0---0---0---3---4---5---|
E|-5---5---5---5---5---------------|---------------------------------|---------------------------------|


E|---------------------------|---------------------------------|---------------------------------|
B|---------------------------|---------------------------------|---------------------------------|
G|---------------------------|---------------------------------|---------------------------------|
D|---------------------------|---------------------------------|-----------------7---------------|
A|-5---------------------0---|-0---0---0---0---0---3---4---5---|-5---5-------5-----------7---0---|
E|-----0----0---2----3-------|---------------------------------|---------------------------------|


E|--------|--------|-----------------|--------|
B|--------|--------|-----------------|--------|
G|--------|--------|-----------------|--------|
D|--------|--------|-----------------|--------|
A|-0------|-0------|-0---------------|--------|
E|--------|--------|-----------------|--------|









Track 2: Gene Vocals
Back to top
E|--------|--------|--------|--------|--------|--------|--------|--------|--------|
B|--------|--------|--------|--------|--------|--------|--------|--------|--------|
G|--------|--------|--------|--------|--------|--------|--------|--------|--------|
D|--------|--------|--------|--------|--------|--------|--------|--------|--------|
A|--------|--------|--------|--------|--------|--------|--------|--------|--------|
E|--------|--------|--------|--------|--------|--------|--------|--------|--------|


E|--------|--------|--------|---------------------------|---------------------|------------------------------|
B|--------|--------|--------|------2---2---2---2----3---|-3----0--------------|-----2---2-------2---2----3---|
G|--------|--------|--------|---------------------------|----------2----------|-------------2----------------|
D|--------|--------|--------|---------------------------|---------------------|------------------------------|
A|--------|--------|--------|---------------------------|---------------------|------------------------------|
E|--------|--------|--------|---------------------------|---------------------|------------------------------|


E|----------------|------------------------------|------------------------|--------|
B|-3--------------|-----1---1---1---1---1----3---|-3---------3---3----3---|--------|
G|----------------|------------------------------|------2-----------------|--------|
D|----------------|------------------------------|------------------------|--------|
A|----------------|------------------------------|------------------------|--------|
E|----------------|------------------------------|------------------------|--------|


E|--------|---------------------------|---------------------|------------------------------|
B|--------|------2---2----2-------3---|-3----0--------------|-----2---2-------2---2----3---|
G|--------|-------------------2-------|----------2----------|-------------2----------------|
D|--------|---------------------------|---------------------|------------------------------|
A|--------|---------------------------|---------------------|------------------------------|
E|--------|---------------------------|---------------------|------------------------------|


E|-------------|---------1----1---1----3---|-3------------3---3-------2---|-2--------------|
B|-3-----------|-----3---------------------|------3---------------3-------|----------------|
G|-------------|---------------------------|------------------------------|----------------|
D|-------------|---------------------------|------------------------------|----------------|
A|-------------|---------------------------|------------------------------|----------------|
E|-------------|---------------------------|------------------------------|----------------|


E|--------|---------3-----------3-------2---|-2----0--------------|---------3----3---3-------2---|
B|--------|-----3-------3-----------3-------|----------3----------|-----3----------------3-------|
G|--------|---------------------------------|---------------------|------------------------------|
D|--------|---------------------------------|---------------------|------------------------------|
A|--------|---------------------------------|---------------------|------------------------------|
E|--------|---------------------------------|---------------------|------------------------------|


E|-2----0--------------|------1----1---1-------3---|-----3-------3----0---3---0---|
B|----------3----------|---------------------------|------------------------------|
G|---------------------|---------------------------|------------------------------|
D|---------------------|---------------------------|------------------------------|
A|---------------------|---------------------------|------------------------------|
E|---------------------|---------------------------|------------------------------|


E|-5----3---0----------|---------------------------|------2----0-----------3---|-3----0-------2----0---2---|
B|---------------------|-----1---1---2----3--------|---------------3-----------|----------3----------------|
G|---------------------|---------------------------|---------------------------|---------------------------|
D|---------------------|---------------------------|---------------------------|---------------------------|
A|---------------------|---------------------------|---------------------------|---------------------------|
E|---------------------|---------------------------|---------------------------|---------------------------|


E|-2----0-------2---0-------3---|-3----0-------1----0---1---|-1----1---1---1---1----0---|
B|------2---3-----------3-------|----------3----------------|----------1----------------|
G|----------4-------------------|---------------------------|------2--------------------|
D|------------------------------|---------------------------|---------------------------|
A|------------------------------|---------------------------|---------------------------|
E|------------------------------|---------------------------|---------------------------|


E|-0---0----0-------------|------------------------|--------------------|---------0----0---0-------2---|
B|---------------3---1----|-3----0-------------3---|-3---0--------------|-----3----------------3-------|
G|------------------------|----------2-------------|---------2----------|------------------------------|
D|------------------------|------------------------|--------------------|------------------------------|
A|------------------------|------------------------|--------------------|------------------------------|
E|------------------------|------------------------|--------------------|------------------------------|


E|-2----0--------------|---------0----0---0-------2---|-2----0--------------|------1----1---1----3---|
B|----------3----------|-----3----------------3-------|----------3----------|------------------------|
G|---------------------|------------------------------|---------------------|------------------------|
D|---------------------|------------------------------|---------------------|------------------------|
A|---------------------|------------------------------|---------------------|------------------------|
E|---------------------|------------------------------|---------------------|------------------------|


E|-3---3----3---------------|-2----0------------------|--------|---------3-----------3-------2---|
B|-----------------3---3----|------------3------------|--------|-----3-------3-----------3-------|
G|--------------------------|-------------------------|--------|---------------------------------|
D|--------------------------|-------------------------|--------|---------------------------------|
A|--------------------------|-------------------------|--------|---------------------------------|
E|--------------------------|-------------------------|--------|---------------------------------|


E|-2----0--------------|---------3----3---3-------2---|-2----0--------------|------1----1---1-------3---|
B|----------3----------|-----3----------------3-------|----------3----------|---------------------------|
G|---------------------|------------------------------|---------------------|---------------------------|
D|---------------------|------------------------------|---------------------|---------------------------|
A|---------------------|------------------------------|---------------------|---------------------------|
E|---------------------|------------------------------|---------------------|---------------------------|


E|-----3-------3----0---3---0---|-5----3---0----------|--------|------2----0--------3---|
B|------------------------------|---------------------|--------|---------------3--------|
G|------------------------------|---------------------|--------|------------------------|
D|------------------------------|---------------------|--------|------------------------|
A|------------------------------|---------------------|--------|------------------------|
E|------------------------------|---------------------|--------|------------------------|


E|-3----0-------2----0---2---|-2----0-----------0-------3---|-3----0-------1----0---1---|
B|----------3----------------|------7---0---7-------3-------|----------3----------------|
G|---------------------------|----------7-------------------|---------------------------|
D|---------------------------|------------------------------|---------------------------|
A|---------------------------|------------------------------|---------------------------|
E|---------------------------|------------------------------|---------------------------|


E|-1---------------1---1----0---|-0---0----0-------------|------------------------|
B|-----3---3---1----------------|---------------3---1----|-3----0-------------3---|
G|---------5---5----------------|------------------------|----------2-------------|
D|------------------------------|------------------------|------------------------|
A|------------------------------|------------------------|------------------------|
E|------------------------------|------------------------|------------------------|


E|--------------------|--------|--------|--------|--------|--------|--------|--------|
B|-3---0--------------|--------|--------|--------|--------|--------|--------|--------|
G|---------2----------|--------|--------|--------|--------|--------|--------|--------|
D|--------------------|--------|--------|--------|--------|--------|--------|--------|
A|--------------------|--------|--------|--------|--------|--------|--------|--------|
E|--------------------|--------|--------|--------|--------|--------|--------|--------|


E|--------|---------3-----------3-------2---|-2----0--------------|---------3----3---3-------2---|
B|--------|-----3-------3-----------3-------|----------3----------|-----3----------------3-------|
G|--------|---------------------------------|---------------------|------------------------------|
D|--------|---------------------------------|---------------------|------------------------------|
A|--------|---------------------------------|---------------------|------------------------------|
E|--------|---------------------------------|---------------------|------------------------------|


E|-2----0--------------|------1----1---1----3---|-----3-------3-------0---3---0---|
B|----------3----------|------------------------|---------------------------------|
G|---------------------|------------------------|---------------------------------|
D|---------------------|------------------------|---------------------------------|
A|---------------------|------------------------|---------------------------------|
E|---------------------|------------------------|---------------------------------|


E|-5----2---0----------|---------------------------|------3----0--------3---|-3----0-------2----0---2---|
B|---------------------|-----1---1---2----3--------|---------------3--------|----------3----------------|
G|---------------------|---------------------------|------------------------|---------------------------|
D|---------------------|---------------------------|------------------------|---------------------------|
A|---------------------|---------------------------|------------------------|---------------------------|
E|---------------------|---------------------------|------------------------|---------------------------|


E|-2----0---0---2---0-------3---|-3----0-------1----0---1---|-1------------1---1----0---|
B|------2---------------3-------|----------3----------------|------3---1----------------|
G|----------2-------------------|---------------------------|------5---5----------------|
D|------------------------------|---------------------------|---------------------------|
A|------------------------------|---------------------------|---------------------------|
E|------------------------------|---------------------------|---------------------------|


E|-0---0----0-------------|------------------------|--------------------|------2----0--------3---|
B|---------------3---1----|-3----0-------------3---|-3---0--------------|---------------3--------|
G|------------------------|----------2-------------|---------2----------|------------------------|
D|------------------------|------------------------|--------------------|------------------------|
A|------------------------|------------------------|--------------------|------------------------|
E|------------------------|------------------------|--------------------|------------------------|


E|-3----0-------2----0---2---|-2----0---0---2---0-------3---|-3----0-------1----0---1---|
B|----------3----------------|------2---------------3-------|----------3----------------|
G|---------------------------|----------2-------------------|---------------------------|
D|---------------------------|------------------------------|---------------------------|
A|---------------------------|------------------------------|---------------------------|
E|---------------------------|------------------------------|---------------------------|


E|-1----------------------------|------------------------|------------------------|
B|-----3---3-------6---6----5---|-5---5----5----3--------|-3----0-------------3---|
G|---------5---5----------------|-------------------5----|----------2-------------|
D|------------------------------|------------------------|------------------------|
A|------------------------------|------------------------|------------------------|
E|------------------------------|------------------------|------------------------|


E|--------------------|--------|--------|--------|--------|--------|--------|--------|
B|-3---0--------------|--------|--------|--------|--------|--------|--------|--------|
G|---------2----------|--------|--------|--------|--------|--------|--------|--------|
D|--------------------|--------|--------|--------|--------|--------|--------|--------|
A|--------------------|--------|--------|--------|--------|--------|--------|--------|
E|--------------------|--------|--------|--------|--------|--------|--------|--------|


E|--------|--------|--------|--------|--------|
B|--------|--------|--------|--------|--------|
G|--------|--------|--------|--------|--------|
D|--------|--------|--------|--------|--------|
A|--------|--------|--------|--------|--------|
E|--------|--------|--------|--------|--------|









Track 3: Paul
Back to top
E|--------|--------|--------|--------|--------|---------------------------------|--------|
B|--------|--------|--------|--------|--------|-----8---7-------8---7-----------|--------|
G|--------|--------|--------|--------|-2------|-2---7---7---7---7---7---7---2---|-2------|
D|--------|--------|--------|--------|-2------|-2---------------------------2---|-2------|
A|--------|--------|--------|--------|-0------|-0---------------------------0---|-0------|
E|--------|--------|--------|--------|--------|---------------------------------|--------|


E|---------------------------------|--------|---------------------------------|--------|
B|-----8---7-------8---7-----------|--------|-----8---7-------8---7-----------|--------|
G|-2---7---7---7---7---7---7---2---|-2------|-2---7---7---7---7---7---7---2---|-2------|
D|-2---------------------------2---|-2------|-2---------------------------2---|-2------|
A|-0---------------------------0---|-0------|-0---------------------------0---|-0------|
E|---------------------------------|--------|---------------------------------|--------|


E|---------------------------------|--------|---------------------------------|--------|
B|-----8---7-------8---7-----------|--------|-----8---7-------8---7-----------|--------|
G|-2---7---7---7---7---7---7---2---|-2------|-2---7---7---7---7---7---7---2---|-2------|
D|-2---------------------------2---|-2------|-2---------------------------2---|-2------|
A|-0---------------------------0---|-0------|-0---------------------------0---|-0------|
E|---------------------------------|--------|---------------------------------|--------|


E|---------------------------------|----------------|----------------|----------------|
B|-----8---7-------8---7-----------|----------------|----------------|----------------|
G|-2---7---7---7---7---7---7---5---|-5------5-------|----------------|------------7---|
D|-2---------------------------3---|-3------3-------|------------7---|-7------7---5---|
A|-0-------------------------------|------------5---|-5------5---5---|-5------5-------|
E|---------------------------------|------------3---|-3------3-------|----------------|


E|---------------------------|--------|---------------------------------|--------|
B|---------------------------|--------|-----8---7-------8---7-----------|--------|
G|-----7-----------------2---|-2------|-2---7---7---7---7---7---7---2---|-2------|
D|-----5-------7---7-----2---|-2------|-2---------------------------2---|-2------|
A|-------------5---5-----0---|-0------|-0---------------------------0---|-0------|
E|---------------------------|--------|---------------------------------|-3------|


E|---------------------------------|----------------|----------------|----------------|
B|-----8---7-------8---7-----------|----------------|----------------|----------------|
G|-2---7---7---7---7---7---7---5---|-5------5-------|----------------|------------7---|
D|-2---------------------------3---|-3------3-------|------------7---|-7------7---5---|
A|-0-------------------------------|------------5---|-5------5---5---|-5------5-------|
E|---------------------------------|------------3---|-3------3-------|----------------|


E|---------------------------------|------3-----------------|------------------------|
B|---------------------------------|------3-----------------|------3-----------------|
G|-----7---------------------------|------0-----------------|------2-----------------|
D|-----5-------7---7---------------|------0-------------0---|-0----0-----------------|
A|-------------5---5---------------|------6-----2---3-------|------------------------|
E|---------------------0---2---3---|-3----3-----------------|------------0---2---3---|


E|------3-----------------|------------------------|----------------|----------------|
B|------3-----------------|------3-----------------|----------------|----------------|
G|------0-----------------|------2-------------5---|-5------5---7---|-7------7-------|
D|------0-------------0---|-0----0-----0---0---3---|-3------3---5---|-5------5---2---|
A|------1-----2---3-------|------------------------|----------------|------------0---|
E|-3----3-----------------|------------------------|----------------|----------------|


E|---------------------------------|-----------------------|------------3---|-3-----3---------------|
B|---------------------------------|-----------------------|------------3---|-3-----3---------------|
G|-----------------------------2---|-2-----2---5---5---7---|-7------7---0---|-0-----0---5---5---7---|
D|-2---2---4---2---2---2---4---2---|-2-----2---5---5---7---|-7------7---0---|-0-----0---5---5---7---|
A|-0---0---0---0---0---0---0---0---|-0-----0---3---3---5---|-5------5---1---|-----------3---3---5---|
E|---------------------------------|-----------------------|------------3---|-3-----3---------------|


E|------------3---|-3------3-------|----------------|----------------|----------------|
B|------------3---|-3------3-------|----------------|----------------|----------------|
G|-7------7---0---|-0------0---5---|-5------5---5---|-5------5-------|------------5---|
D|-7------7---0---|-0------0---3---|-3------3---5---|-5------5---5---|-5------5---5---|
A|-5------5---1---|----------------|------------3---|-3------3---5---|-5------5---3---|
E|------------3---|-3------3-------|----------------|------------3---|-3------3-------|


E|---------------------------|--------|---------------------------------|--------|
B|---------------------------|--------|-----8---7-------8---7-----------|--------|
G|-----5-----------------2---|-2------|-2---7---7---7---7---7---7---2---|-2------|
D|-----5-------5---5-----2---|-2------|-2---------------------------2---|-2------|
A|-----3-------5---5-----0---|-0------|-0---------------------------0---|-0------|
E|-------------3---3---------|--------|---------------------------------|--------|


E|---------------------------------|----------------|----------------|----------------|
B|-----8---7-------8---7-----------|----------------|----------------|----------------|
G|-2---7---7---7---7---7---7---5---|-5------5-------|----------------|------------7---|
D|-2---------------------------3---|-3------3-------|------------7---|-7------7---5---|
A|-0-------------------------------|------------5---|-5------5---5---|-5------5-------|
E|---------------------------------|------------3---|-3------3-------|----------------|


E|---------------------------------|------3-----------------|------------------------|
B|---------------------------------|------3-----------------|------3-----------------|
G|-----7---------------------------|------0-----------------|------2-----------------|
D|-----5-------7---7---------------|------0-------------0---|-0----0-----------------|
A|-------------5---5---------------|------0-----2---3-------|------------------------|
E|---------------------0---2---3---|-3----3-----------------|------------0---2---3---|


E|------3-----------------|----------------------------|----------------|----------------|
B|------3-----------------|------3---------------------|----------------|----------------|
G|------0-----------------|------2-----------------5---|-5------5---7---|-7------7-------|
D|------0-------------0---|-0----0-----0-----0-----3---|-3------3---5---|-5------5---2---|
A|------0-----2---3-------|----------------------------|----------------|------------0---|
E|-3----3-----------------|----------------------------|----------------|----------------|


E|---------------------------------|-----------------------|------------3---|-3-----3---------------|
B|---------------------------------|-----------------------|------------3---|-3-----3---------------|
G|-----------------------------2---|-2-----2---5---5---7---|-7------7---0---|-0-----0---5---5---7---|
D|-2---2---4---2---2---2---4---2---|-2-----2---5---5---7---|-7------7---0---|-0-----0---5---5---7---|
A|-0---0---0---0---0---0---0---0---|-0-----0---3---3---5---|-5------5---0---|-----------3---3---5---|
E|---------------------------------|-----------------------|------------3---|-3-----3---------------|


E|------------3---|-3------3-------|----------------|----------------|----------------|
B|------------3---|-3------3-------|----------------|----------------|----------------|
G|-7------7---0---|-0------0---5---|-5------5---5---|-5------5-------|------------5---|
D|-7------7---0---|-0------0---3---|-3------3---5---|-5------5---5---|-5------5---5---|
A|-5------5---1---|----------------|------------3---|-3------3---5---|-5------5---3---|
E|------------3---|-3------3-------|----------------|------------3---|-3------3-------|


E|---------------------------|--------|---------------------------------|--------|
B|---------------------------|--------|-----8---7-------8---7-----------|--------|
G|-----5-----------------2---|-2------|-2---7---7---7---7---7---7---2---|-2------|
D|-----5-------5---5-----2---|-2------|-2---------------------------2---|-2------|
A|-----3-------5---5-----0---|-0------|-0---------------------------0---|-0------|
E|-------------3---3---------|--------|---------------------------------|--------|


E|---------------------------------|----------------|----------------|----------------|
B|-----8---7-------8---7-----------|----------------|----------------|----------------|
G|-2---7---7---7---7---7---7---5---|-5------5-------|----------------|------------7---|
D|-2---------------------------3---|-3------3-------|------------7---|-7------7---5---|
A|-0-------------------------------|------------5---|-5------5---5---|-5------5-------|
E|---------------------------------|------------3---|-3------3-------|----------------|


E|---------------------------------|------3-----------------|------------------------|
B|---------------------------------|------3-----------------|------3-----------------|
G|-----7---------------------------|------0-----------------|------2-----------------|
D|-----5-------7---7---------------|------0-------------0---|-0----0-----------------|
A|-------------5---5---------------|------0-----2---3-------|------------------------|
E|---------------------0---2---3---|-3----3-----------------|------------0---2---3---|


E|------3-----------------|----------------------------|----------------|----------------|
B|------3-----------------|------3---------------------|----------------|----------------|
G|------0-----------------|------2-----------------5---|-5------5---7---|-7------7-------|
D|------0-------------0---|-0----0-----0-----0-----3---|-3------3---5---|-5------5---2---|
A|------0-----2---3-------|----------------------------|----------------|------------0---|
E|-3----3-----------------|----------------------------|----------------|----------------|


E|---------------------------------|-----------------------|-----------------------3---|
B|---------------------------------|-----------------------|-3---------------------3---|
G|---------------------------------|-----------5---5---7---|-7---------------------0---|
D|-2---2---4---2---2---2---4---2---|-2-----2---5---5---7---|-7---7---9---7---7-----0---|
A|-0---0---0---0---0---0---0---0---|-0-----0---3---3---5---|-5---5---5---5---5-----0---|
E|---------------------------------|-----------------------|-----------------------3---|


E|-3-----3---------------|-----------------------3---|-3------3-------|-----------------------|
B|-3-----3---------------|-----------------------3---|-3------3-------|-----------------------|
G|-0-----0---5---5---7---|-7---------------------0---|-0------0---5---|-5---------------------|
D|-0-----0---5---5---7---|-7---7---9---7---7-----0---|-0------0---3---|-3-----3---2---0---5---|
A|-----------3---3---5---|-5---5---5---5---5-----0---|----------------|-------------------3---|
E|-3-----3---------------|-----------------------3---|-3------3-------|-----------------------|


E|-----------------------|----------------|---------------------------------|-----------------------3---|
B|-----------------------|----------------|---------------------------------|-----------------------3---|
G|-----------------------|--------5---5---|-----5---------------5---5---7---|-7---------------------0---|
D|-5-----------------5---|-5------5---5---|-----5-------5---5---5---5---7---|-7---7---9---7---7-----0---|
A|-3-----3---2---0---5---|-5------5---3---|-----3-------5---5---3---3---5---|-5---5---5---5---5-----0---|
E|-------------------3---|-3------3-------|-------------3---3---------------|-----------------------3---|


E|-3-----3---------------|-----------------------3---|-3------3-------|-----------------------|
B|-3-----3---------------|-----------------------3---|-3------3-------|-3---------------------|
G|-0-----0---5---5---7---|-7---------------------0---|-0------0---5---|-5---------------------|
D|-0-----0---5---5---7---|-7---7---9---7---7-----0---|-0------0---3---|-3-----3---2---0---5---|
A|-----------3---3---5---|-5---5---5---5---5-----0---|----------------|-------------------3---|
E|-----------------------|-----------------------3---|-3------3-------|-----------------------|


E|-----------------------|----------------|---------------------------|--------|---------------------------------|
B|-----------------------|----------------|---------------------------|--------|-----8---7-------8---7-----------|
G|-----------------------|------------5---|-----5-----------------2---|-2------|-2---7---7---7---7---7---7---2---|
D|-5-----------------5---|-5------5---5---|-----5-------5---5-----2---|-2------|-2---------------------------2---|
A|-3-----3---2---0---5---|-5------5---3---|-----3-------5---5-----0---|-0------|-0---------------------------0---|
E|-------------------3---|-3------3-------|-------------3---3---------|--------|---------------------------------|


E|--------|---------------------------------|--------|---------------------------------|
B|--------|-----8---7-------8---7-----------|--------|-----8---7-------8---7-----------|
G|-2------|-2---7---7---7---7---7---7---2---|-2------|-2---7---7---7---7---7---7---2---|
D|-2------|-2---------------------------2---|-2------|-2---------------------------2---|
A|-0------|-0---------------------------0---|-0------|-0---------------------------0---|
E|--------|---------------------------------|--------|---------------------------------|


E|--------|------------------------------|--------|--------|-----------------|--------|
B|--------|-----8---7-------8------------|--------|--------|-----------------|--------|
G|-2------|-2---7---7---7---7----2---2---|-2------|-2------|-2---------------|--------|
D|-2------|-2--------------------2---2---|-2------|-2------|-2---------------|--------|
A|-0------|-0--------------------0---0---|-0------|-0------|-0---------------|--------|
E|--------|-3----------------------------|--------|--------|-----------------|--------|









Track 4: Ace
Back to top
E|--------|--------|--------|--------|--------|---------------------------------|--------|
B|--------|--------|--------|--------|--------|-----8---7-------8---7-----------|--------|
G|--------|--------|--------|--------|-2------|-2---7---7---7---7---7---7---2---|-2------|
D|--------|--------|--------|--------|-2------|-2---------------------------2---|-2------|
A|--------|--------|--------|--------|-0------|-0---------------------------0---|-0------|
E|--------|--------|--------|--------|--------|---------------------------------|--------|


E|---------------------------------|--------|---------------------------------|--------|
B|-----8---7-------8---7-----------|--------|-----8---7-------8---7-----------|--------|
G|-2---7---7---7---7---7---7---2---|-2------|-2---7---7---7---7---7---7---2---|-2------|
D|-2---------------------------2---|-2------|-2---------------------------2---|-2------|
A|-0---------------------------0---|-0------|-0---------------------------0---|-0------|
E|---------------------------------|--------|---------------------------------|--------|


E|---------------------------------|--------|---------------------------------|--------|
B|-----8---7-------8---7-----------|--------|-----8---7-------8---7-----------|--------|
G|-2---7---7---7---7---7---7---2---|-2------|-2---7---7---7---7---7---7---2---|-2------|
D|-2---------------------------2---|-2------|-2---------------------------2---|-2------|
A|-0---------------------------0---|-0------|-0---------------------------0---|-0------|
E|---------------------------------|--------|---------------------------------|--------|


E|---------------------------------|----------------|----------------|----------------|
B|-----8---7-------8---7-----------|----------------|----------------|----------------|
G|-2---7---7---7---7---7---7---5---|-5------5-------|----------------|------------7---|
D|-2---------------------------3---|-3------3-------|------------7---|-7------7---5---|
A|-0-------------------------------|------------5---|-5------5---5---|-5------5-------|
E|---------------------------------|------------3---|-3------3-------|----------------|


E|---------------------------|--------|---------------------------------|--------|
B|---------------------------|--------|-----8---7-------8---7-----------|--------|
G|-----7-----------------2---|-2------|-2---7---7---7---7---7---7---2---|-2------|
D|-----5-------7---7-----2---|-2------|-2---------------------------2---|-2------|
A|-------------5---5-----0---|-0------|-0---------------------------0---|-0------|
E|---------------------------|--------|---------------------------------|--------|


E|---------------------------------|----------------|----------------|----------------|
B|-----8---7-------8---7-----------|----------------|----------------|----------------|
G|-2---7---7---7---7---7---7---5---|-5------5-------|----------------|------------7---|
D|-2---------------------------3---|-3------3-------|------------7---|-7------7---5---|
A|-0-------------------------------|------------5---|-5------5---5---|-5------5-------|
E|---------------------------------|------------3---|-3------3-------|----------------|


E|---------------------------------|------3-----------------|------------------------|
B|---------------------------------|------3-----------------|------3-----------------|
G|-----7---------------------------|------0-----------------|------2-----------------|
D|-----5-------7---7---------------|------0-------------0---|-0----0-----------------|
A|-------------5---5---------------|------0-----2---3-------|------------------------|
E|---------------------0---2---3---|-3----3-----------------|------------0---2---3---|


E|------3-----------------|------------------------|----------------|----------------|
B|------3-----------------|------3-----------------|----------------|----------------|
G|------0-----------------|------2-------------5---|-5------5---7---|-7------7-------|
D|------0-------------0---|-0----0-----0---0---3---|-3------3---5---|-5------5---2---|
A|------0-----2---3-------|------------------------|----------------|------------0---|
E|-3----3-----------------|------------------------|----------------|----------------|


E|---------------------------------|-----------------------|------------3---|-3-----3---------------|
B|---------------------------------|-----------------------|------------3---|-3-----3---------------|
G|-----------------------------2---|-2-----2---5---5---7---|-7------7---0---|-0-----0---5---5---7---|
D|-2---2---4---2---2---2---4---2---|-2-----2---5---5---7---|-7------7---0---|-0-----0---5---5---7---|
A|-0---0---0---0---0---0---0---0---|-0-----0---3---3---5---|-5------5---1---|-----------3---3---5---|
E|---------------------------------|-----------------------|------------3---|-3-----3---------------|


E|------------3---|-3------3-------|----------------|----------------|----------------|
B|------------3---|-3------3-------|----------------|----------------|----------------|
G|-7------7---0---|-0------0---5---|-5------5---5---|-5------5-------|------------5---|
D|-7------7---0---|-0------0---3---|-3------3---5---|-5------5---5---|-5------5---5---|
A|-5------5---1---|----------------|------------3---|-3------3---5---|-5------5---3---|
E|------------3---|-3------3-------|----------------|------------3---|-3------3-------|


E|---------------------------|--------|---------------------------------|--------|
B|---------------------------|--------|-----8---7-------8---7-----------|--------|
G|-----5-----------------2---|-2------|-2---7---7---7---7---7---7---2---|-2------|
D|-----5-------5---5-----2---|-2------|-2---------------------------2---|-2------|
A|-----3-------5---5-----0---|-0------|-0---------------------------0---|-0------|
E|-------------3---3---------|--------|---------------------------------|--------|


E|---------------------------------|----------------|----------------|----------------|
B|-----8---7-------8---7-----------|----------------|----------------|----------------|
G|-2---7---7---7---7---7---7---5---|-5------5-------|----------------|------------7---|
D|-2---------------------------3---|-3------3-------|------------7---|-7------7---5---|
A|-0-------------------------------|------------5---|-5------5---5---|-5------5-------|
E|---------------------------------|------------3---|-3------3-------|----------------|


E|---------------------------------|------3-----------------|------------------------|
B|---------------------------------|------3-----------------|------3-----------------|
G|-----7---------------------------|------0-----------------|------2-----------------|
D|-----5-------7---7---------------|------0-------------0---|-0----0-----------------|
A|-------------5---5---------------|------0-----2---3-------|------------------------|
E|---------------------0---2---3---|-3----3-----------------|------------0---2---3---|


E|------3-----------------|----------------------------|----------------|----------------|
B|------3-----------------|------3---------------------|----------------|----------------|
G|------0-----------------|------2-----------------5---|-5------5---7---|-7------7-------|
D|------0-------------0---|-0----0-----0-----0-----3---|-3------3---5---|-5------5---2---|
A|------1-----2---3-------|----------------------------|----------------|------------0---|
E|-3----3-----------------|----------------------------|----------------|----------------|


E|-----------------|--------------------|------------3---|-3-----3---------------|
B|-------8-----8---|-8----8-----8-------|------------3---|-3-----3---------------|
G|-------10----10--|-10---10----10------|------------0---|-0-----0---5---5---7---|
D|-----------------|--------------------|------------0---|-0-----0---5---5---7---|
A|-----------------|--------------------|------------0---|-----------3---3---5---|
E|-----------------|--------------------|------------3---|-3-----3---------------|


E|------------3---|-3------3-------|----------------|----------------|----------------|
B|------------3---|-3------3-------|----------------|----------------|----------------|
G|-7------7---0---|-0------0---5---|-5------5---5---|-5------5-------|------------5---|
D|-7------7---0---|-0------0---3---|-3------3---5---|-5------5---5---|-5------5---5---|
A|-5------5---1---|----------------|------------3---|-3------3---5---|-5------5---3---|
E|------------3---|-3------3-------|----------------|------------3---|-3------3-------|


E|----------------|------------------------|-------------------------------------|
B|------------8---|-8----8----8------------|---------------------------------8---|
G|------------7---|-7----7----7--------7---|-7---7---5--7--5-----5---7-------7---|
D|----------------|------------------------|------------------7----------7-------|
A|----------------|------------------------|-------------------------------------|
E|----------------|------------------------|-------------------------------------|


E|----------------------------|-----------------------|---------13------------|---------15------------|
B|-8----8----8----5--8--5-----|-5---8---8---8---------|-----13------16--------|-----15------18--------|
G|-7----7----7-------------7--|-------------------13--|-14----------------15--|-16----------------10--|
D|----------------------------|-----------------------|-----------------------|-----------------------|
A|----------------------------|-----------------------|-----------------------|-----------------------|
E|----------------------------|-----------------------|-----------------------|-----------------------|


E|---------10--13----13---|-10-13-10----10----------------|--------|------------------------|
B|-----10-----------------|----------13-----13----13--12--|-12-----|------3-----------------|
G|-11---------------------|-------------------------------|--------|------2-----------------|
D|------------------------|-------------------------------|--------|------0-----------------|
A|------------------------|-------------------------------|--------|------------------------|
E|------------------------|-------------------------------|--------|------------0---2---3---|


E|------3-----------------|----------------------------|----------------|----------------|
B|------3-----------------|------3---------------------|----------------|----------------|
G|------0-----------------|------2-----------------5---|-5------5---7---|-7------7-------|
D|------0-------------0---|-0----0-----0-----0-----3---|-3------3---5---|-5------5---2---|
A|------1-----2---3-------|----------------------------|----------------|------------0---|
E|-3----3-----------------|----------------------------|----------------|----------------|


E|-----------------|--------------------|-----------------------3---|-3-----3---------------|
B|-------8-----8---|-8----10----10------|-----------------------3---|-3-----3---------------|
G|-------10----10--|-10---12----12------|-----------------------0---|-0-----0---5---5---7---|
D|-----------------|--------------------|-----7---9---7---7-----0---|-0-----0---5---5---7---|
A|-----------------|--------------------|-----5---5---5---5-----0---|-----------3---3---5---|
E|-----------------|--------------------|-----------------------3---|-3-----3---------------|


E|-----------------------3---|-3------3-------|-----------------------|-----------------------|
B|-----------------------3---|-3------3-------|-----------------------|-----------------------|
G|-7---------------------0---|-0------0---5---|-5---------------------|-----------------------|
D|-7---7---9---7---7-----0---|-0------0---3---|-3-----3---2---0---5---|-5-----------------5---|
A|-5---5---5---5---5-----0---|----------------|-------------------3---|-3-----3---2---0---5---|
E|-----------------------3---|-3------3-------|-----------------------|-------------------3---|


E|----------------|---------------------------------|-----------------------3---|-3-----3---------------|
B|----------------|---------------------------------|-----------------------3---|-3-----3---------------|
G|--------5---5---|-----5---------------5---5---7---|-7---------------------0---|-0-----0---5---5---7---|
D|-5------5---5---|-----5-------5---5---5---5---7---|-7---7---9---7---7-----0---|-0-----0---5---5---7---|
A|-5------5---3---|-----3-------5---5---3---3---5---|-5---5---5---5---5-----0---|-----------3---3---5---|
E|-3------3-------|-------------3---3---------------|-----------------------3---|-3-----3---------------|


E|-----------------------3---|-3------3-------|-----------------------|-----------------------|
B|-----------------------3---|-3------3-------|-3---------------------|-----------------------|
G|-7---------------------0---|-0------0---5---|-5---------------------|-----------------------|
D|-7---7---9---7---7-----0---|-0------0---3---|-3-----3---2---0---5---|-5-----------------5---|
A|-5---5---5---5---5-----0---|----------------|-------------------3---|-3-----3---2---0---5---|
E|-----------------------3---|-3------3-------|-----------------------|-------------------3---|


E|----------------|---------------------------|--------|---------------------------------|
B|----------------|---------------------------|--------|-----8---7-------8---7-----------|
G|------------5---|-----5-----------------2---|-2------|-2---7---7---7---7---7---7---2---|
D|-5------5---5---|-----5-------5---5-----2---|-2------|-2---------------------------2---|
A|-5------5---3---|-----3-------5---5-----0---|-0------|-0---------------------------0---|
E|-3------3-------|-------------3---3---------|--------|---------------------------------|


E|--------|---------------------------------|--------|---------------------------------|
B|--------|-----8---7-------8---7-----------|--------|-----8---7-------8---7-----------|
G|-2------|-2---7---7---7---7---7---7---2---|-2------|-2---7---7---7---7---7---7---2---|
D|-2------|-2---------------------------2---|-2------|-2---------------------------2---|
A|-0------|-0---------------------------0---|-0------|-0---------------------------0---|
E|--------|---------------------------------|--------|---------------------------------|


E|--------|------------------------------|--------|--------|-----------------|--------|
B|--------|-----8---7-------8------------|--------|--------|-----------------|--------|
G|-2------|-2---7---7---7---7----2---2---|-2------|-2------|-----------------|--------|
D|-2------|-2--------------------2---2---|-2------|-2------|-7---------------|--------|
A|-0------|-0--------------------0---0---|-0------|-0------|-7---------------|--------|
E|--------|-3----------------------------|--------|--------|-5---------------|--------|









Track 5: Peter
Back to top
C|--------|--------|--------|--------|------41----41---|------41----41---|------41---44---41---|
C|--------|--------|--------|--------|------36----36---|------36----36---|------36--------36---|
C|--------|--------|--------|--------|-----------------|-----------------|---------------------|
C|--------|--------|--------|--------|-----------------|-----------------|---------------------|
C|--------|--------|--------|--------|-----------------|-----------------|---------------------|
C|--------|--------|--------|--------|-----------------|-----------------|---------------------|


C|-44---44---44---44--36--|-36---40--36--36---40--36--|-36--47--40--36--36--48--50--48--|
C|------41----------------|---------------------------|-----36--36----------36--50--36--|
C|------36----------------|---------------------------|-------------------------36------|
C|------------------------|---------------------------|---------------------------------|
C|------------------------|---------------------------|---------------------------------|
C|------------------------|---------------------------|---------------------------------|


C|-36---40--36--36---40--36--|-36--36--47-47-47--47--47--47----36--|-42--36--42---36--36--40--36--|
C|------57-------------------|---------------------------------57--|---------40---42------42------|
C|---------------------------|-------------------------------------|------------------------------|
C|---------------------------|-------------------------------------|------------------------------|
C|---------------------------|-------------------------------------|------------------------------|
C|---------------------------|-------------------------------------|------------------------------|


C|-42--36--40---42--36--40--36--|-42--36--40---36--36--40--36--|-42--36--42---36--36--42--36--|
C|---------42---36------42------|---------42---42------42------|---------40---42------40------|
C|------------------------------|------------------------------|------------------------------|
C|------------------------------|------------------------------|------------------------------|
C|------------------------------|------------------------------|------------------------------|
C|------------------------------|------------------------------|------------------------------|


C|-42--36--40---36--36--40--36--|-42--36--40---42--36--40--36--|-42--36--42---45--45-45-45--57--|
C|---------42---42------42------|---------42---36------42------|---------40-----------------36--|
C|------------------------------|------------------------------|--------------------------------|
C|------------------------------|------------------------------|--------------------------------|
C|------------------------------|------------------------------|--------------------------------|
C|------------------------------|------------------------------|--------------------------------|


C|-----36---36--36---40---|-42--36--42---42--36--42--36--|-42--36--42---36--36--42--36--|
C|-----57---57--57---42---|-36------40---36------40------|---------40---42------40------|
C|------------------------|------------------------------|------------------------------|
C|------------------------|------------------------------|------------------------------|
C|------------------------|------------------------------|------------------------------|
C|------------------------|------------------------------|------------------------------|


C|-42--36--40---42--36--42--36--|-42--36--42---36--36--40--36--|-42--36--42---36--36--42--36--|
C|---------42---36------40------|---------40---42------42------|---------40---42------40------|
C|------------------------------|------------------------------|------------------------------|
C|------------------------------|------------------------------|------------------------------|
C|------------------------------|------------------------------|------------------------------|
C|------------------------------|------------------------------|------------------------------|


C|-42--36--42---42--36--40--36--|-42--36--42---45--45-45-45--57--|-----36---36--57---42--36--|
C|---------40---36------42------|---------40-----------------36--|-----57---57--36---36--42--|
C|------------------------------|--------------------------------|---------------------------|
C|------------------------------|--------------------------------|---------------------------|
C|------------------------------|--------------------------------|---------------------------|
C|------------------------------|--------------------------------|---------------------------|


C|-36--42--42--42--36--42--40--42--|-36--42--42--42--36--42--40--42--|-42--42--40--36--42--42--40--36--|
C|-42------40--36--42------42--36--|-42------40--36--42------42--36--|-36------42--42--36------42--42--|
C|---------------------------------|---------------------------------|---------------------------------|
C|---------------------------------|---------------------------------|---------------------------------|
C|---------------------------------|---------------------------------|---------------------------------|
C|---------------------------------|---------------------------------|---------------------------------|


C|-36--42--42--42--42--42--42--42--|-46--46--42--42--42--46--42--36--|-42--42--42--42--36--42--40--42--|
C|-42------40--36--36------40--36--|-36------40--36--36------40--42--|-36------40--36--46------42--36--|
C|---------------------------------|---------------------------------|---------------------------------|
C|---------------------------------|---------------------------------|---------------------------------|
C|---------------------------------|---------------------------------|---------------------------------|
C|---------------------------------|---------------------------------|---------------------------------|


C|-36--42--42--36--36--46--40--36--|-42--46--40--46--42--57--57--36--|-42--36--42---42--36--40--36--|
C|-42------40--42--42------42--42--|-36------42----------36--36--57--|---------40---36------42------|
C|---------------------------------|---------------------------------|------------------------------|
C|---------------------------------|---------------------------------|------------------------------|
C|---------------------------------|---------------------------------|------------------------------|
C|---------------------------------|---------------------------------|------------------------------|


C|-42--36--42---42--36--40--36--|-42--36--42---42--36--42--36--|-42--36--42---42--36--42--36--|
C|---------40---36------42------|---------40---36------40------|---------40---36------40------|
C|------------------------------|------------------------------|------------------------------|
C|------------------------------|------------------------------|------------------------------|
C|------------------------------|------------------------------|------------------------------|
C|------------------------------|------------------------------|------------------------------|


C|-42--36--40---42--36--40--36--|-42--36--40---42--36--42--36--|-42--36--40--42--45--45-45-45--57--|
C|---------42---36------42------|---------42---36------40------|---------42--------------------36--|
C|------------------------------|------------------------------|-----------------------------------|
C|------------------------------|------------------------------|-----------------------------------|
C|------------------------------|------------------------------|-----------------------------------|
C|------------------------------|------------------------------|-----------------------------------|


C|-----57---57--57---42--42--|-42--42--42--42--42--42--40--42--|-42--42--42--42--42--42--40--36--|
C|-----36---36--36---40--36--|-36------40--36--36------42--36--|-36------40--36--36------42--42--|
C|---------------------------|---------------------------------|---------------------------------|
C|---------------------------|---------------------------------|---------------------------------|
C|---------------------------|---------------------------------|---------------------------------|
C|---------------------------|---------------------------------|---------------------------------|


C|-36--42--42--42--42--42--40--36--|-36--42--42--42--42--42--42--36--|-42--42--40--42--36--42--40--36--|
C|-42------40--36--36------42--42--|-42------40--36--36------40--42--|-36------42--36--42------42--42--|
C|---------------------------------|---------------------------------|---------------------------------|
C|---------------------------------|---------------------------------|---------------------------------|
C|---------------------------------|---------------------------------|---------------------------------|
C|---------------------------------|---------------------------------|---------------------------------|


C|-42--42--40--42--36--42--40--36--|-36--42----42--36--42--46--46--57--|-----57---57--36---42--53--|
C|-36------42--36--42------42--42--|-42--------40--42--36------40--36--|-----36---36--57---40--36--|
C|---------------------------------|-----------------------------------|---------------------------|
C|---------------------------------|-----------------------------------|---------------------------|
C|---------------------------------|-----------------------------------|---------------------------|
C|---------------------------------|-----------------------------------|---------------------------|


C|-53--53--53--53--53--53--40--53--|-36--53--40--53--36--53--53--53--|-36--53--53--53--53--53--40--36--|
C|-36------40--36--36------53--36--|-53------53--36--53------40--36--|-53------40--36--36------53--53--|
C|---------------------------------|---------------------------------|---------------------------------|
C|---------------------------------|---------------------------------|---------------------------------|
C|---------------------------------|---------------------------------|---------------------------------|
C|---------------------------------|---------------------------------|---------------------------------|


C|-53--53--53--53--36--53--53--36--|-53--53--53--53--53--53--40----53--|-53--53--53--53--53--53--40--53--|
C|-36------40--36--53------40--53--|-36------40--36--36------53----36--|-36------40--36--36------53--36--|
C|---------------------------------|-----------------------------------|---------------------------------|
C|---------------------------------|-----------------------------------|---------------------------------|
C|---------------------------------|-----------------------------------|---------------------------------|
C|---------------------------------|-----------------------------------|---------------------------------|


C|-36--53--40--53--53--53--53--53--|-53--53--40--53--53--36--36--36--|------40---42--36--42--36--|
C|-53------53--36--36------40--36--|-36------53----------57--57--57--|------42---36------40------|
C|---------------------------------|---------------------------------|---------------------------|
C|---------------------------------|---------------------------------|---------------------------|
C|---------------------------------|---------------------------------|---------------------------|
C|---------------------------------|---------------------------------|---------------------------|


C|-42--36--42---42--36--42--36--|-42--36--40---36--36--42--36--|-42--36--42---42--36--40--36--|
C|---------40---36------40------|---------42---42------40------|---------40---36------42------|
C|------------------------------|------------------------------|------------------------------|
C|------------------------------|------------------------------|------------------------------|
C|------------------------------|------------------------------|------------------------------|
C|------------------------------|------------------------------|------------------------------|


C|-42--36--40---42--36--42--36--|-42--36--40---36--36--42--36--|-42--36--42--42--45-4545-4545-45--57--|
C|---------42---36------40------|---------42---42------40------|---------40-----------------------36--|
C|------------------------------|------------------------------|--------------------------------------|
C|------------------------------|------------------------------|--------------------------------------|
C|------------------------------|------------------------------|--------------------------------------|
C|------------------------------|------------------------------|--------------------------------------|


C|-----57---36--36---40--42--|-42--46--40--36--42--46--40--42--|-36--46--40--36--42--46--40--36--|
C|-----36---57--57---42--36--|-36------46--42--36------42--36--|-42------46--42--36------42--42--|
C|---------------------------|---------------------------------|---------------------------------|
C|---------------------------|---------------------------------|---------------------------------|
C|---------------------------|---------------------------------|---------------------------------|
C|---------------------------|---------------------------------|---------------------------------|


C|-42--42--42--36--42--42--40--36--|-42--42--42--36--42--42--40--36--|-42--42--40--42--46--46--40--36--|
C|-36------40--42--36------42--42--|-36------40--42--36------42--42--|-36------42--36--36------42--42--|
C|---------------------------------|---------------------------------|---------------------------------|
C|---------------------------------|---------------------------------|---------------------------------|
C|---------------------------------|---------------------------------|---------------------------------|
C|---------------------------------|---------------------------------|---------------------------------|


C|-42--46--40--42--36--46--40--42--|-42--46--42--36--42--46-43-42--57--|-----36---57--57---53--36--|
C|-36------42--36--42------42--36--|-36------40--42--36--43----43--36--|-----57---36--36---40--53--|
C|---------------------------------|-----------------------------------|---------------------------|
C|---------------------------------|-----------------------------------|---------------------------|
C|---------------------------------|-----------------------------------|---------------------------|
C|---------------------------------|-----------------------------------|---------------------------|


C|-53--53----53--36--53--53--53--53--|-53--53--53--53--53--53--40--36--|-36--53--40--53--53--53--53--36--|
C|-36--------40--53--36------40--36--|-36------40--36--36------53--53--|-53------53--36--36------40--53--|
C|-----------------------------------|---------------------------------|---------------------------------|
C|-----------------------------------|---------------------------------|---------------------------------|
C|-----------------------------------|---------------------------------|---------------------------------|
C|-----------------------------------|---------------------------------|---------------------------------|


C|-53--53--40--53--36--53--53--36--|-53--53--40--36--53--53--40--36--|-53--53--40--36--53--53--53--36--|
C|-36------53--36--53------40--53--|-36------53--53--36------53--53--|-36------53--53--36------40--53--|
C|---------------------------------|---------------------------------|---------------------------------|
C|---------------------------------|---------------------------------|---------------------------------|
C|---------------------------------|---------------------------------|---------------------------------|
C|---------------------------------|---------------------------------|---------------------------------|


C|-53--53--40--36--53--53--53--36--|-53--53--53--53--53--36--53--57--|-36--53--53--53--36--53--53--36--|
C|-36------53--53--36------40--53--|-36------40--36--36--53--40--36--|-53------40--36--53------40--53--|
C|---------------------------------|-----------------------------53--|---------------------------------|
C|---------------------------------|---------------------------------|---------------------------------|
C|---------------------------------|---------------------------------|---------------------------------|
C|---------------------------------|---------------------------------|---------------------------------|


C|-36--53--53--36--53--53--40--53--|-53--53--40--36--36--53--40--53--|-53--53--40--53--53--53--40--36--|
C|-53------40--53--36------53--36--|-36------53--53--53------53--36--|-36------53--36--36------53--53--|
C|---------------------------------|---------------------------------|---------------------------------|
C|---------------------------------|---------------------------------|---------------------------------|
C|---------------------------------|---------------------------------|---------------------------------|
C|---------------------------------|---------------------------------|---------------------------------|


C|-53--53--40--53--53--53--53--53--|-53--53--40--36--53--53--53--36--|-53--53--40--36--53--53--53--36--|
C|-36------53--36--36------40--36--|-36------53--53--36------40--53--|-36------53--53--36------40--57--|
C|---------------------------------|---------------------------------|---------------------------------|
C|---------------------------------|---------------------------------|---------------------------------|
C|---------------------------------|---------------------------------|---------------------------------|
C|---------------------------------|---------------------------------|---------------------------------|


C|-----57---57--36---40--53--|-36--53--40--53--53--53--40--53--|-53--53--40--53--53--53--53--36--|
C|-----36---36--57---53--36--|-53------53--36--36------53--36--|-36------53--36--36------40--53--|
C|---------------------------|---------------------------------|---------------------------------|
C|---------------------------|---------------------------------|---------------------------------|
C|---------------------------|---------------------------------|---------------------------------|
C|---------------------------|---------------------------------|---------------------------------|


C|-36--53--40--53--53--53--53--53--|-36--53--53--53--53--53--40--53--|-53--53--40--36--53--53--40--53--|
C|-53------53--36--36------40--36--|-53------40--36--36------53--36--|-36------53--53--36------53--36--|
C|---------------------------------|---------------------------------|---------------------------------|
C|---------------------------------|---------------------------------|---------------------------------|
C|---------------------------------|---------------------------------|---------------------------------|
C|---------------------------------|---------------------------------|---------------------------------|


C|-36--53--53--53--53--53--40--36--|-36--53--53--36--53--53--40--57--|-----57---36--57--36--53--53--|
C|-53------40--36--36------53--53--|-53------40--53--36------53--36--|-----36---57--36------40--36--|
C|---------------------------------|---------------------------------|------------------------------|
C|---------------------------------|---------------------------------|------------------------------|
C|---------------------------------|---------------------------------|------------------------------|
C|---------------------------------|---------------------------------|------------------------------|


C|-53--53--53--53--53--53--53--57--|-53--53--40--53--53--53--53--57--|-36--53--40--53--53--53--53--36--|
C|-36------40--36--36------40--36--|-36------53--36--36------40--36--|-53------53--36--36------40--57--|
C|---------------------------------|---------------------------------|---------------------------------|
C|---------------------------------|---------------------------------|---------------------------------|
C|---------------------------------|---------------------------------|---------------------------------|
C|---------------------------------|---------------------------------|---------------------------------|


C|-36--53--53--36--36--53--53--36--|-53--53--40--53--36--53--53--53--|-53--53--53--53--36--53--53--36--|
C|-53------40--53--53------40--57--|-36------53--36--53------40--36--|-36------40--36--53------40--53--|
C|---------------------------------|---------------------------------|---------------------------------|
C|---------------------------------|---------------------------------|---------------------------------|
C|---------------------------------|---------------------------------|---------------------------------|
C|---------------------------------|---------------------------------|---------------------------------|


C|-53--53--40--36--53--53--53--36--|-36--40--36--36--57---57--36--|--------|--------44------|
C|-36------53--53--36------40--53--|-53--53--53--53--40---36--57--|--------|----------------|
C|---------------------------------|------------------------------|--------|----------------|
C|---------------------------------|------------------------------|--------|----------------|
C|---------------------------------|------------------------------|--------|----------------|
C|---------------------------------|------------------------------|--------|----------------|


C|-57-----|--------|
C|-36-----|--------|
C|--------|--------|
C|--------|--------|
C|--------|--------|
C|--------|--------|



← Back to top