Mother

by Meteoric

Guitar Pro Tab  |  v3.00  |  Posted on March 29, 2007, 11:01 a.m. ← Back

Guitar Pro Tab Summary

Album

Innocent Childrens

Song Author

Hoai Nam

Tabbed by

unknown

Instruments

1st → Solo-Accoustic
2nd → Lead
3rd → Bass
4th → Drum
5th → Accour
6th → Keyboard

File Size

18 KB

Views

629

Notice

Bai hat noi ve cuoc noi chuyen giua nguoi con va me.Su ra di cua nguoi con luon de lai hoi tiec.






Tablature Sheet

Title: Mother
Artist: Meteoric
Album: Innocent Childrens
Author: Hoai Nam






Track 1: Solo-Accoustic
Back to top
E|-------------0-------------|-------------3-------------|-------------5-------------|
B|-------------1----0--------|---------1---1----1----0---|-----0-------3----0--------|
G|---------0--------0----0---|-----0------------2----0---|---------5--------0----5---|
D|-----2---------------------|-3-------------------------|-5-------------------------|
A|-0-------------------------|---------------------------|---------------------------|
E|---------------------------|---------------------------|---------------------------|


E|-----5-----------3---------------|-------------0-------------|-------------3-------------|
B|---------0-----------0-------0---|-------------1----0--------|---------1---1----1----0---|
G|-------------5-----------5-------|---------0--------0----0---|-----0------------2----0---|
D|-3---------------2---------------|-----2---------------------|-3-------------------------|
A|---------------------------------|-0-------------------------|---------------------------|
E|---------------------------------|---------------------------|---------------------------|


E|-------------5-------------|-----5-----------3---------------|-------------0-------------|
B|-----0-------3----0--------|---------0-----------0-------0---|-------------1----0--------|
G|---------5--------0----5---|-------------5-----------5-------|---------0--------0----0---|
D|-5-------------------------|-3---------------2---------------|-----2---------------------|
A|---------------------------|---------------------------------|-0-------------------------|
E|---------------------------|---------------------------------|---------------------------|


E|-------------3-------------|---------------------------|-----5-----------3---------------|
B|---------1---1----1----0---|-----0-------3----0--------|---------0-----------0-------0---|
G|-----0------------2----0---|---------5---4----0----5---|-------------5-----------5-------|
D|-3-------------------------|-5-------------------------|-3---------------2---------------|
A|---------------------------|---------------------------|---------------------------------|
E|---------------------------|---------------------------|---------------------------------|


E|-------------0-------------|-------------3-------------|-------------5-------------|
B|-------------1----0--------|---------1---1----1----0---|-----0------------0--------|
G|---------0--------0----0---|-----0------------2----0---|---------5-------------5---|
D|-----2---------------------|-3-------------------------|-5-------------------------|
A|-0-------------------------|---------------------------|---------------------------|
E|---------------------------|---------------------------|---------------------------|


E|-----5-----------3---------------|-------------|-------------|-------------|-------------|
B|---------0-----------0-------0---|-------------|-------------|-------------|-------------|
G|-------------5-----------5-------|-------------|-------------|-------------|-------------|
D|-3---------------2---------------|-------------|-------------|-------------|-------------|
A|---------------------------------|-------------|-------------|-------------|-------------|
E|---------------------------------|-------------|-------------|-------------|-------------|


E|-------------|-------------|-------------|-------------|-------------|-------------|
B|-------------|-------------|-------------|-------------|-------------|-------------|
G|-------------|-------------|-------------|-------------|-------------|-------------|
D|-------------|-------------|-------------|-------------|-------------|-------------|
A|-------------|-------------|-------------|-------------|-------------|-------------|
E|-------------|-------------|-------------|-------------|-------------|-------------|


E|-------------|-------------|-------------|-------------|-------------|-------------|
B|-------------|-------------|-------------|-------------|-------------|-------------|
G|-------------|-------------|-------------|-------------|-------------|-------------|
D|-------------|-------------|-------------|-------------|-------------|-------------|
A|-------------|-------------|-------------|-------------|-------------|-------------|
E|-------------|-------------|-------------|-------------|-------------|-------------|


E|-------------|-------------|-------------|-------------|-------------|-------------|
B|-------------|-------------|-------------|-------------|-------------|-------------|
G|-------------|-------------|-------------|-------------|-------------|-------------|
D|-------------|-------------|-------------|-------------|-------------|-------------|
A|-------------|-------------|-------------|-------------|-------------|-------------|
E|-------------|-------------|-------------|-------------|-------------|-------------|


E|-------------|-------------|-------------|-------------|-------------|-------------|
B|-------------|-------------|-------------|-------------|-------------|-------------|
G|-------------|-------------|-------------|-------------|-------------|-------------|
D|-------------|-------------|-------------|-------------|-------------|-------------|
A|-------------|-------------|-------------|-------------|-------------|-------------|
E|-------------|-------------|-------------|-------------|-------------|-------------|


E|-------------|-------------|-------------|-------------|-------------|-------------|
B|-------------|-------------|-------------|-------------|-------------|-------------|
G|-------------|-------------|-------------|-------------|-------------|-------------|
D|-------------|-------------|-------------|-------------|-------------|-------------|
A|-------------|-------------|-------------|-------------|-------------|-------------|
E|-------------|-------------|-------------|-------------|-------------|-------------|


E|-------------|-------------|-------------|-------------|-------------|-------------|
B|-------------|-------------|-------------|-------------|-------------|-------------|
G|-------------|-------------|-------------|-------------|-------------|-------------|
D|-------------|-------------|-------------|-------------|-------------|-------------|
A|-------------|-------------|-------------|-------------|-------------|-------------|
E|-------------|-------------|-------------|-------------|-------------|-------------|


E|-------------|-------------|-------------|-------------|-------------|-------------0-------------|
B|-------------|-------------|-------------|-------------|-------------|-------------1----0--------|
G|-------------|-------------|-------------|-------------|-------------|---------0--------0--------|
D|-------------|-------------|-------------|-------------|-------------|-----2-----------------2---|
A|-------------|-------------|-------------|-------------|-------------|-0-------------------------|
E|-------------|-------------|-------------|-------------|-------------|---------------------------|


E|-------------3-------------|-------------5-------------|-----5-----------3---------------|
B|---------1---1----1----0---|-----0------------0--------|---------0-----------0-------0---|
G|-----0------------2----0---|---------5-------------5---|-------------5-----------5-------|
D|-3-------------------------|-5-------------------------|-3---------------2---------------|
A|---------------------------|---------------------------|---------------------------------|
E|---------------------------|---------------------------|---------------------------------|


E|-------------|-------------|-------------|-------------|-------------|-------------|
B|-------------|-------------|-------------|-------------|-------------|-------------|
G|-------------|-------------|-------------|-------------|-------------|-------------|
D|-------------|-------------|-------------|-------------|-------------|-------------|
A|-------------|-------------|-------------|-------------|-------------|-------------|
E|-------------|-------------|-------------|-------------|-------------|-------------|


E|-------------|
B|-------------|
G|-------------|
D|-------------|
A|-------------|
E|-------------|









Track 2: Bass
Back to top
G|-------------|-------------|-------------|-------------|-------------|-------------|
D|-------------|-------------|-------------|-------------|-------------|-------------|
A|-------------|-------------|-------------|-------------|-------------|-------------|
E|-------------|-------------|-------------|-------------|-------------|-------------|
B|-------------|-------------|-------------|-------------|-------------|-------------|


G|-------------|-------------|---------------------------------|---------------------------------|
D|-------------|-------------|---------------------------------|---------------------------------|
A|-------------|-------------|-0---0---0---0---0---0---0-------|---------------------------------|
E|-------------|-------------|-----------------------------0---|-1---1---1---1---1---1---1-------|
B|-------------|-------------|---------------------------------|-----------------------------3---|


G|---------------------|------------------------|---------------------------------|
D|---------------------|------------------------|---------------------------------|
A|-3----3----3----3----|-5----3----2----3---2---|-0---0---0---0---0---0---0-------|
E|---------------------|------------------------|-----------------------------0---|
B|---------------------|------------------------|---------------------------------|


G|---------------------------------|---------------------|------------------------|
D|---------------------------------|---------------------|------------------------|
A|---------------------------------|-3----3----3----3----|-5----3----2----3---2---|
E|-1---1---1---1---1---1---1-------|---------------------|------------------------|
B|-----------------------------3---|---------------------|------------------------|


G|--------|--------|--------|-------------|--------|--------|--------|-------------|
D|--------|--------|--------|-------------|--------|--------|--------|-------------|
A|-0------|--------|-3------|-------2-----|-0------|--------|-3------|-------2-----|
E|--------|-1------|--------|-3-----------|--------|-1------|--------|-3-----------|
B|--------|--------|--------|-------------|--------|--------|--------|-------------|


G|--------|--------|--------|--------|--------|--------|-----------------|--------|
D|--------|--------|--------|--------|--------|--------|-----------------|--------|
A|-0------|-0------|--------|--------|--------|--------|-3---3-----------|-0------|
E|--------|--------|-1------|-1------|-3------|-3------|-----------------|--------|
B|--------|--------|--------|--------|--------|--------|-----------------|--------|


G|--------|--------|--------|--------|--------------------|----------------|--------|
D|--------|--------|--------|--------|--------------------|----------------|--------|
A|-0------|--------|--------|--------|--------------------|-3---3----------|-0------|
E|--------|-1------|-1------|-3------|-3--3--3------------|----------------|--------|
B|--------|--------|--------|--------|--------------------|----------------|--------|


G|--------|--------|--------|--------|--------|---------------------------------|---------------------------------|
D|--------|--------|--------|--------|--------|---------------------------------|---------------------------------|
A|-0------|--------|--------|--------|--------|-3---3---3---5---2---3---5---3---|-0---0---0---0---0---0---0---2---|
E|--------|-1------|-1------|-3------|-3------|---------------------------------|---------------------------------|
B|--------|--------|--------|--------|--------|---------------------------------|---------------------------------|


G|---------------------------------|---------------------------------|---------------------------------|
D|---------------------------------|---------------------------------|---------------------------------|
A|-0---0---0---0---0---0---2---3---|---------------------------------|-------------------------3---2---|
E|---------------------------------|-1---1---1---1---1---1---1---3---|-1---1---1---1---1---1-----------|
B|---------------------------------|---------------------------------|---------------------------------|


G|---------------------------------|---------------------------------|---------------------------------|
D|---------------------------------|---------------------------------|---------------------------------|
A|---------------------------------|---------------------------------|-3---3---3---3---2---2---2---2---|
E|-3---3---3---3---3---3---3---1---|-3---3---3---3---3---3---0---3---|---------------------------------|
B|---------------------------------|---------------------------------|---------------------------------|


G|---------------------------------|---------------------------------|---------------------------------|
D|---------------------------------|---------------------------------|---------------------------------|
A|---------------------------------|-3---3---3---3---3---3---2---3---|-0---0---0---0---0---0---0---3---|
E|-1---1---1---1---1---1---3---5---|---------------------------------|---------------------------------|
B|---------------------------------|---------------------------------|---------------------------------|


G|------------------------------|---------------------------|-------------------------------------------------|
D|------------------------------|---------------------------|-------------------------------------------------|
A|------------------------------|-----------0---0---0---0---|-0--0--0--0--0--0--0--0--0--0--0--0--0--0--0--0--|
E|-3---3---3---3---3---3---0----|---------------------------|-------------------------------------------------|
B|------------------------------|---------------------------|-------------------------------------------------|


G|-------------------------------------------------|-------------------------------------------------|
D|-------------------------------------------------|-------------------------------------------------|
A|-3--3--3--3--3--3--3--3--3--3--3--3--3--3--3--3--|-5--5--5--5--5--5--5--5--5--5--5--5--5--5--5--5--|
E|-------------------------------------------------|-------------------------------------------------|
B|-------------------------------------------------|-------------------------------------------------|


G|-------------------------------------------------|---------------------------------|
D|-------------------------------------------------|---------------------------------|
A|-7--7--7--7--5--5--5--5--3--3--3--3--2--2--2--3--|-0---0---0---0---0---0---0-------|
E|-------------------------------------------------|-----------------------------0---|
B|-------------------------------------------------|---------------------------------|


G|---------------------------------|---------------------|------------------------|
D|---------------------------------|---------------------|------------------------|
A|---------------------------------|-3----3----3----3----|-5----3----2----3---2---|
E|-1---1---1---1---1---1---1-------|---------------------|------------------------|
B|-----------------------------3---|---------------------|------------------------|


G|---------------------------|---------------------------|---------------------------|
D|---------------------------|---------------------------|---------------------------|
A|-0----0----0---0---0---0---|---------------------------|-3----3----3---3---3---3---|
E|---------------------------|-1----1----1---1---1---1---|---------------------------|
B|---------------------------|---------------------------|---------------------------|


G|---------------------------|---------------------------|---------------------------------|
D|---------------------------|---------------------------|-----3-------2-------------------|
A|---------------------------|-0----0----0---0---0---0---|-0-------0-------0---3---2---0---|
E|-3----3----3---3---3---3---|---------------------------|---------------------------------|
B|---------------------------|---------------------------|---------------------------------|


G|--------|
D|--------|
A|-0------|
E|--------|
B|--------|









Track 3: Lead
Back to top
E|-------------|-------------|-------------|-------------|-------------|-------------|
B|-------------|-------------|-------------|-------------|-------------|-------------|
G|-------------|-------------|-------------|-------------|-------------|-------------|
D|-------------|-------------|-------------|-------------|-------------|-------------|
A|-------------|-------------|-------------|-------------|-------------|-------------|
E|-------------|-------------|-------------|-------------|-------------|-------------|


E|-------------|-------------|-------------|-------------|-------------|-------------|
B|-------------|-------------|-------------|-------------|-------------|-------------|
G|-------------|-------------|-------------|-------------|-------------|-------------|
D|-------------|-------------|-------------|-------------|-------------|-------------|
A|-------------|-------------|-------------|-------------|-------------|-------------|
E|-------------|-------------|-------------|-------------|-------------|-------------|


E|----------------|----------------|----------------|----------------|-----------------------------|
B|----------------|----------------|----------------|----------------|-----------------------------|
G|----------------|----------------|----------------|----------------|----------------7------------|
D|----------------|----------------|----------------|----------------|-7----7---9--10------9-------|
A|----------------|----------------|----------------|----------------|-------------------------10--|
E|----------------|----------------|----------------|----------------|-----------------------------|


E|-----------------------------|-----------------------------|--------------------------------|
B|-----------------------------|-----------------------------|--------------------------------|
G|----------------7------------|-------------9--12-----------|-------------7--9---7-----------|
D|-7----7---9--10------9-------|-10---10--12---------12--10--|-9----9---10------------10--9---|
A|-------------------------10--|-----------------------------|--------------------------------|
E|-----------------------------|-----------------------------|--------------------------------|


E|-----------------------------|-----------------------------|-----------------------------|
B|-----------------------------|-----------------------------|-----------------------------|
G|----------------7------------|----------------7------------|-------------9--12-----------|
D|-7----7---9--10------9-------|-7----7---9--10------9-------|-10---10--12---------12--10--|
A|-------------------------10--|-------------------------10--|-----------------------------|
E|-----------------------------|-----------------------------|-----------------------------|


E|--------------------------------|----------------|----------------|----------------|
B|--------------------------------|----------------|----------------|----------------|
G|-------------7--9---7-----------|----------------|----------------|----------------|
D|-9----9---10------------10--9---|----------------|----------------|----------------|
A|--------------------------------|----------------|----------------|----------------|
E|--------------------------------|----------------|----------------|----------------|


E|----------------|----------------|----------------|----------------|----------------|
B|----------------|----------------|----------------|----------------|----------------|
G|----------------|----------------|----------------|----------------|----------------|
D|----------------|----------------|----------------|----------------|----------------|
A|----------------|----------------|----------------|----------------|----------------|
E|----------------|----------------|----------------|----------------|----------------|


E|----------------|----------------|----------------|----------------|----------------|
B|----------------|----------------|----------------|----------------|----------------|
G|----------------|----------------|----------------|----------------|----------------|
D|----------------|----------------|----------------|----------------|----------------|
A|----------------|----------------|----------------|----------------|----------------|
E|----------------|----------------|----------------|----------------|----------------|


E|----------------|----------------|----------------|----------------|----------------|
B|----------------|----------------|----------------|----------------|----------------|
G|----------------|----------------|----------------|----------------|----------------|
D|----------------|----------------|----------------|----------------|----------------|
A|----------------|----------------|----------------|----------------|----------------|
E|----------------|----------------|----------------|----------------|----------------|


E|----------------|----------------|----------------|----------------|----------------|
B|----------------|----------------|----------------|----------------|----------------|
G|----------------|----------------|----------------|----------------|----------------|
D|----------------|----------------|----------------|----------------|----------------|
A|----------------|----------------|----------------|----------------|----------------|
E|----------------|----------------|----------------|----------------|----------------|


E|----------------|----------------|----------------|----------------|----------------|
B|----------------|----------------|----------------|----------------|----------------|
G|----------------|----------------|----------------|----------------|----------------|
D|----------------|----------------|----------------|----------------|----------------|
A|----------------|----------------|----------------|----------------|----------------|
E|----------------|----------------|----------------|----------------|----------------|


E|----------------|----------------|----------------|----------------|----------------|
B|----------------|----------------|----------------|----------------|----------------|
G|----------------|----------------|----------------|----------------|----------------|
D|----------------|----------------|----------------|----------------|----------------|
A|----------------|----------------|----------------|----------------|----------------|
E|----------------|----------------|----------------|----------------|----------------|


E|-------------------------------------------------|-------------------------------------------------|
B|-------------------------------------------------|-------------------------------------------------|
G|-9--7-----------9--7-----------9--7-----------9--|-10-9-----------10-9-----------10-9-----------10-|
D|-------10-9--7--------10-9--7--------10-9--7-----|-------10-9--7--------10-9--7--------10-9--7-----|
A|-------------------------------------------------|-------------------------------------------------|
E|-------------------------------------------------|-------------------------------------------------|


E|-------------------------------------------------|-------------|-------------|-------------|
B|-------------------------------------------------|-------------|-------------|-------------|
G|-12-10----------12-10----------12-10----------12-|-------------|-------------|-------------|
D|-------12-10-9--------12-10-9--------12-10-9-----|-------------|-------------|-------------|
A|-------------------------------------------------|-------------|-------------|-------------|
E|-------------------------------------------------|-------------|-------------|-------------|


E|-------------|-------------|-----------------------------|-----------------------------|
B|-------------|-------------|-----------------------------|-----------------------------|
G|-------------|-------------|----------------7------------|----------------7------------|
D|-------------|-------------|-7----7---9--10------9-------|-7----7---9--10------9-------|
A|-------------|-------------|-------------------------10--|-------------------------10--|
E|-------------|-------------|-----------------------------|-----------------------------|


E|-----------------------------|--------------------------------|---------------------|
B|-----------------------------|--------------------------------|---------------------|
G|-------------9--12-----------|-------------7--9---7-----------|----------------7----|
D|-10---10--12---------12--10--|-9----9---10------------10--9---|-7----9----10--------|
A|-----------------------------|--------------------------------|---------------------|
E|-----------------------------|--------------------------------|---------------------|


E|---------------------------------|--------|
B|---------------------------------|--------|
G|---------------------------------|--------|
D|-10--12--9---10--9---10--7---5---|-7------|
A|---------------------------------|--------|
E|---------------------------------|--------|









Track 4: Accour
Back to top
E|-------------|-------------|-------------|-------------|-------------|-------------|
B|-------------|-------------|-------------|-------------|-------------|-------------|
G|-------------|-------------|-------------|-------------|-------------|-------------|
D|-------------|-------------|-------------|-------------|-------------|-------------|
A|-------------|-------------|-------------|-------------|-------------|-------------|
E|-------------|-------------|-------------|-------------|-------------|-------------|


E|-------------|-------------|-------------|-------------|-------------|-------------|
B|-------------|-------------|-------------|-------------|-------------|-------------|
G|-------------|-------------|-------------|-------------|-------------|-------------|
D|-------------|-------------|-------------|-------------|-------------|-------------|
A|-------------|-------------|-------------|-------------|-------------|-------------|
E|-------------|-------------|-------------|-------------|-------------|-------------|


E|--------|--------|--------|-------------|--------|--------|--------|-------------|
B|--------|--------|--------|-------------|--------|--------|--------|-------------|
G|-2------|--------|--------|-5-----4-----|-2------|--------|-5------|-------4-----|
D|-2------|-3------|-5------|-5-----4-----|-2------|-3------|-5------|-5-----4-----|
A|-0------|-3------|-5------|-3-----2-----|-0------|-3------|-3------|-5-----2-----|
E|--------|-1------|-3------|-------------|--------|-1------|--------|-3-----------|


E|--------|--------|--------|-------------|-----------------------------------------------|
B|--------|--------|--------|-------------|-----------------------------------------------|
G|-2------|--------|-5------|-------4-----|-2------------4--------5--------4--------------|
D|-2------|-3------|-5------|-5-----4-----|-2---2--2--2--2--2--2--2--2--2--2--2--2--2--2--|
A|-0------|-3------|-3------|-5-----2-----|-0---0--0--0--0--0--0--0--0--0--0--0--0--0--0--|
E|--------|-1------|--------|-3-----------|-----------------------------------------------|


E|-----------------------------------------------|-----------------------------------------------|
B|-----------------------------------------------|-----------------------------------------------|
G|-2------------4--------5--------4--------------|-----------------------------------------------|
D|-2---2--2--2--2--2--2--2--2--2--2--2--2--2--2--|-3---------------------------------------------|
A|-0---0--0--0--0--0--0--0--0--0--0--0--0--0--0--|-3---3--3--3--2--------0--------2--3--3--3--3--|
E|-----------------------------------------------|-1---1--1--1--1--1--1--1--1--1--1--1--1--1--1--|


E|-----------------------------------------------|-----------------------------------------------|
B|-----------------------------------------------|-----------------------------------------------|
G|-----------------------------------------------|-----------------------------------------------|
D|-3---------------------------------------------|-5---------------------------------------------|
A|-3---3--3--3--2--------0--------2--3--3--3--3--|-5---5--5--5--3--------2--------3--5--5--5--5--|
E|-1---1--1--1--1--1--1--1--1--1--1--1--1--1--1--|-3---3--3--3--3--3--3--3--3--3--3--3--3--3--3--|


E|-----------------------------------------------|---------------------------------------------|
B|-----------------------------------------------|---------------------------------------------|
G|-----------------------------------------------|---------------------------------------------|
D|-5---------------------------------------------|-5---5---5--5--5--3--5--5--2--5--5--0--5--5--|
A|-5---5--5--5--3--------2--------3--5--5--5--5--|-3---3---3--3--3--3--3--3--3--3--3--2--3--3--|
E|-3---3--3--3--3--3--3--3--3--3--3--3--3--3--3--|---------------------------------------------|


E|-----------------------------------------------|-----------------------------------------------|
B|-----------------------------------------------|-----------------------------------------------|
G|-2------------4--------5--------4--------------|-2------------4--------5--------4--------------|
D|-2---2--2--2--2--2--2--2--2--2--2--2--2--2--2--|-2---2--2--2--2--2--2--2--2--2--2--2--2--2--2--|
A|-0---0--0--0--0--0--0--0--0--0--0--0--0--0--0--|-0---0--0--0--0--0--0--0--0--0--0--0--0--0--0--|
E|-----------------------------------------------|-----------------------------------------------|


E|-----------------------------------------------|-----------------------------------------------|
B|-----------------------------------------------|-----------------------------------------------|
G|-----------------------------------------------|-----------------------------------------------|
D|-3---------------------------------------------|-3---------------------------------------------|
A|-3---3--3--3--2--------0--------2--3--3--3--3--|-3---3--3--3--2--------0--------2--3--3--3--3--|
E|-1---1--1--1--1--1--1--1--1--1--1--1--1--1--1--|-1---1--1--1--1--1--1--1--1--1--1--1--1--1--1--|


E|-----------------------------------------------|-----------------------------------------------|
B|-----------------------------------------------|-----------------------------------------------|
G|-----------------------------------------------|-----------------------------------------------|
D|-5---------------------------------------------|-5---------------------------------------------|
A|-5---5--5--5--3--------2--------3--5--5--5--5--|-5---5--5--5--3--------2--------3--5--5--5--5--|
E|-3---3--3--3--3--3--3--3--3--3--3--3--3--3--3--|-3---3--3--3--3--3--3--3--3--3--3--3--3--3--3--|


E|---------------------------------------------|-----------------------------------------------|
B|---------------------------------------------|-----------------------------------------------|
G|---------------------------------------------|-2------------4--------5--------4--------------|
D|-5---5---5--5--5--3--5--5--2--5--5--0--5--5--|-2---2--2--2--2--2--2--2--2--2--2--2--2--2--2--|
A|-3---3---3--3--3--3--3--3--3--3--3--2--3--3--|-0---0--0--0--0--0--0--0--0--0--0--0--0--0--0--|
E|---------------------------------------------|-----------------------------------------------|


E|-----------------------------------------------|-----------------------------------------------|
B|-----------------------------------------------|-----------------------------------------------|
G|-2------------4--------5--------4--------------|-----------------------------------------------|
D|-2---2--2--2--2--2--2--2--2--2--2--2--2--2--2--|-3---------------------------------------------|
A|-0---0--0--0--0--0--0--0--0--0--0--0--0--0--0--|-3---3--3--3--2--------0--------2--3--3--3--3--|
E|-----------------------------------------------|-1---1--1--1--1--1--1--1--1--1--1--1--1--1--1--|


E|-----------------------------------------------|-----------------------------------------------|
B|-----------------------------------------------|-----------------------------------------------|
G|-----------------------------------------------|-----------------------------------------------|
D|-3---------------------------------------------|-5---------------------------------------------|
A|-3---3--3--3--2--------0--------2--3--3--3--3--|-5---5--5--5--3--------2--------3--5--5--5--5--|
E|-1---1--1--1--1--1--1--1--1--1--1--1--1--1--1--|-3---3--3--3--3--3--3--3--3--3--3--3--3--3--3--|


E|-----------------------------------------------|---------------------------------------------|
B|-----------------------------------------------|---------------------------------------------|
G|-----------------------------------------------|---------------------------------------------|
D|-5---------------------------------------------|-5---5---5--5--5--3--5--5--2--5--5--0--5--5--|
A|-5---5--5--5--3--------2--------3--5--5--5--5--|-3---3---3--3--3--3--3--3--3--3--3--2--3--3--|
E|-3---3--3--3--3--3--3--3--3--3--3--3--3--3--3--|---------------------------------------------|


E|-----------------------------------------------|-----------------------------------------------|
B|-----------------------------------------------|-----------------------------------------------|
G|-2------------4--------5--------4--------------|-2------------4--------5--------4--------------|
D|-2---2--2--2--2--2--2--2--2--2--2--2--2--2--2--|-2---2--2--2--2--2--2--2--2--2--2--2--2--2--2--|
A|-0---0--0--0--0--0--0--0--0--0--0--0--0--0--0--|-0---0--0--0--0--0--0--0--0--0--0--0--0--0--0--|
E|-----------------------------------------------|-----------------------------------------------|


E|-----------------------------------------------|-----------------------------------------------|
B|-----------------------------------------------|-----------------------------------------------|
G|-----------------------------------------------|-----------------------------------------------|
D|-3---------------------------------------------|-3---------------------------------------------|
A|-3---3--3--3--2--------0--------2--3--3--3--3--|-3---3--3--3--2--------0--------2--3--3--3--3--|
E|-1---1--1--1--1--1--1--1--1--1--1--1--1--1--1--|-1---1--1--1--1--1--1--1--1--1--1--1--1--1--1--|


E|-----------------------------------------------|-----------------------------------------------|
B|-----------------------------------------------|-----------------------------------------------|
G|-----------------------------------------------|-----------------------------------------------|
D|-5---------------------------------------------|-5---------------------------------------------|
A|-5---5--5--5--3--------2--------3--5--5--5--5--|-5---5--5--5--3--------2--------3--5--5--5--5--|
E|-3---3--3--3--3--3--3--3--3--3--3--3--3--3--3--|-3---3--3--3--3--3--3--3--3--3--3--3--3--3--3--|


E|---------------------------------------------|-----------------------------------------------|
B|---------------------------------------------|-----------------------------------------------|
G|---------------------------------------------|-----------------------------------------------|
D|-5---5---5--5--5--3--5--5--2--5--5--0--5--5--|-3---------------------------------------------|
A|-3---3---3--3--3--3--3--3--3--3--3--2--3--3--|-3---3--3--3--3--3--3--3--3--3--3--3--3--3--3--|
E|---------------------------------------------|-1---1--1--1--1--1--1--1--1--1--1--1--1--1--1--|


E|-----------------------------------------------|-----------------------------------------------|
B|-----------------------------------------------|-----------------------------------------------|
G|-----------------------------------------------|-----------------------------------------------|
D|-5---5--5--5--5--5--5--5--5--5--5--5--5--5--5--|-----------------------------------------------|
A|-3---3--3--3--3--3--3--3--3--3--3--3--3--3--3--|-7---7--7--7--7--7--7--7--7--7--7--7--7--7--7--|
E|-----------------------------------------------|-5---5--5--5--5--5--5--5--5--5--5--5--5--5--5--|


E|-----------------------------------------------|-----------------------------------------|
B|-----------------------------------------------|-----------------------------------------|
G|-----------------------------------------------|-----------------------------------------|
D|-----------------------------------------------|-----------------------------------------|
A|-5---5--5--5--5--5--5--5--5--5--5--5--5--5--5--|-2--2--2--2--2--2--2--2--2---2---2---2---|
E|-3---3--3--3--3--3--3--3--3--3--3--3--3--3--3--|-0--0--0--0--0--0--0--0--0---0---0---0---|


E|-----------------------------------------|-----------------------------------------|
B|-----------------------------------------|-----------------------------------------|
G|-2---------2---------2---------2---------|-----------------------------------------|
D|-2---2--2--2---2--2--2---2--2--2---2--2--|-3---3--3--3---3--3--3---3--3--3---3--3--|
A|-0---0--0--0---0--0--0---0--0--0---0--0--|-3---3--3--3---3--3--3---3--3--3---3--3--|
E|-----------------------------------------|-1---------------------------------------|


E|-----------------------------------------|---------------------------------|-------------|
B|-----------------------------------------|---------3---------------1-------|-------------|
G|-----------------------------------------|-----5-------5-------0-------0---|-------------|
D|-5---5--5--5---5--5--5---5--5--5---5--5--|-3---------------2---------------|-------------|
A|-5---------5---5--5--5---5--5--5---5--5--|---------------------------------|-------------|
E|-3---3--3--------------------------------|---------------------------------|-------------|


E|-------------|-------------|-------------|------------------------|------------------------|
B|-------------|-------------|-------------|------------------------|------------------------|
G|-------------|-------------|-------------|-2----2----2---2----2---|------------------------|
D|-------------|-------------|-------------|-2----2----2---2----2---|-3----3----3----3---3---|
A|-------------|-------------|-------------|-0----0----0---0----0---|-3----3----3----3---3---|
E|-------------|-------------|-------------|------------------------|-1----1----1----1---1---|


E|------------------------|------------------------|------------------------|-----------------------------------------------|
B|------------------------|------------------------|------------------------|-----------------------------------------------|
G|-5----5----5----5---5---|------------------------|-2----2----2----2---2---|-----------------------------------------------|
D|-5----5----5----5---5---|-5----5----5----5---5---|-2----2----2----2---2---|-2---2--------2--------0-----------------------|
A|-3----3----3----3---3---|-5----5----5----5---5---|-0----0----0----0---0---|-0---0--0--3-----3--2-----2--3--2--0--2--3--2--|
E|------------------------|-3----3----3----3---3---|------------------------|--------------------------------------3--3--3--|


E|--------|
B|--------|
G|-2------|
D|-2------|
A|-0------|
E|--------|









Track 5: Drum
Back to top
C|-42--42--42--42--42--42--42--42--|-42--42--42--42--42--42--42--42--|-42---42---42---42---|
C|---------------------------------|---------------------------------|---------------------|
C|---------------------------------|---------------------------------|---------------------|
C|---------------------------------|---------------------------------|---------------------|
C|---------------------------------|---------------------------------|---------------------|
C|---------------------------------|---------------------------------|---------------------|


C|-42---42---42---42---|-42--42--42--42--42--42--42--42--|-42--42--42--42--42--42--42--42--|
C|---------------------|---------------------------------|---------------------------------|
C|---------------------|---------------------------------|---------------------------------|
C|---------------------|---------------------------------|---------------------------------|
C|---------------------|---------------------------------|---------------------------------|
C|---------------------|---------------------------------|---------------------------------|


C|-42--42--42--42--42--42--42--42--|-48--47--45--43--41--42--38--42--|-49---42--42--38--42--42--42--|
C|---------------------------------|-42--42--42--42--42--------------|------------------------------|
C|---------------------------------|---------------------------------|------------------------------|
C|---------------------------------|-36--36--36--36--36--36------36--|-36-----------------------36--|
C|---------------------------------|---------------------------------|------------------------------|
C|---------------------------------|---------------------------------|------------------------------|


C|-49---42--42--38--42--42--42--|-42---42---38---42---|-42--42--42--42--38--42--42-42-42-42-|
C|------------------------------|---------------------|-------------------------------------|
C|------------------------------|---------------------|-------------------------------------|
C|-36---------------------------|-36---36-------------|-----36--------------36--36-36-36-36-|
C|------------------------------|---------------------|-------------------------------------|
C|------------------------------|---------------------|-------------------------------------|


C|-49---42--42--38--42--42--42--|-49---42--42--38--42--42--42--|-42---42---38---42---|
C|------------------------------|------------------------------|---------------------|
C|------------------------------|------------------------------|---------------------|
C|-36-----------------------36--|-36---------------------------|-36---36-------------|
C|------------------------------|------------------------------|---------------------|
C|------------------------------|------------------------------|---------------------|


C|-42--47-47-45-45-45-45-41413838383838383838383838383838|-49---38-38-38-38-47-47-45-45-41-41-41-41-|
C|-------------------------------------------------------|------------------------------------------|
C|-------------------------------------------------------|------------------------------------------|
C|-----36-36-36-36-36-36---------------------------------|-36---36-36-36-36-36-36-36-36-36-36-36-36-|
C|-------------------------------------------------------|------------------------------------------|
C|-------------------------------------------------------|------------------------------------------|


C|-49---38-38-47-47-45-45-45-45-41-41-41-41-|-49---47-47-47-47-45-45-45-45-41-41-41-41-|
C|------------------------------------------|------------------------------------------|
C|------------------------------------------|------------------------------------------|
C|-36---36-36-36-36-36-36-36-36-36-36-36-36-|-36---36-36-36-36-36-36-36-36-36-36-36-36-|
C|------------------------------------------|------------------------------------------|
C|------------------------------------------|------------------------------------------|


C|-49---38-38-38-38-47-47-45-45-38-38-38-38-|-49---38-38-38-38-47-47-45-45-41-41-41-41-|
C|------------------------------------------|------------------------------------------|
C|------------------------------------------|------------------------------------------|
C|-36---36-36-36-36-36-36-36-36-36-36-36-36-|-36---36-36-36-36-36-36-36-36-36-36-36-36-|
C|------------------------------------------|------------------------------------------|
C|------------------------------------------|------------------------------------------|


C|-49---38-38-47-47-45-45-45-45-41-41-41-41-|-49---47-47-47-47-45-45-45-45-41-41-41-41-|
C|------------------------------------------|------------------------------------------|
C|------------------------------------------|------------------------------------------|
C|-36---36-36-36-36-36-36-36-36-36-36-36-36-|-36---36-36-36-36-36-36-36-36-36-36-36-36-|
C|------------------------------------------|------------------------------------------|
C|------------------------------------------|------------------------------------------|


C|-49---38-38-38-38-38-38-38-38-49-49-49-49-|-49-----|-49-----|-41414141------------|
C|------------------------------------------|--------|--------|-------49------------|
C|------------------------------------------|--------|--------|---------------------|
C|-36---36-36-36-36-36-36-36-36-36-36-36-36-|-36-----|-36-----|-36363636------------|
C|------------------------------------------|--------|--------|---------------------|
C|------------------------------------------|--------|--------|---------------------|


C|-49-----|-49-----|-49-----|-49--49--------------------------|-49-----|-49-----|-49-49-49-----------|
C|--------|--------|--------|---------------------------------|--------|--------|--------------------|
C|--------|--------|--------|---------------------------------|--------|--------|--------------------|
C|-36-----|-36-----|-36-----|-36--36--------------------------|-36-----|-36-----|-36-36-36-----------|
C|--------|--------|--------|---------------------------------|--------|--------|--------------------|
C|--------|--------|--------|---------------------------------|--------|--------|--------------------|


C|-49-----|-49-----|-49-49-49-----------|-49--49--------------------------|-49-----|
C|--------|--------|--------------------|---------------------------------|--------|
C|--------|--------|--------------------|---------------------------------|--------|
C|-36-----|-36-----|-36-36-36-----------|-36--36--------------------------|-36-----|
C|--------|--------|--------------------|---------------------------------|--------|
C|--------|--------|--------------------|---------------------------------|--------|


C|-49-----|-49-49-49-----------|-49-----|-49------------------------38----------|-49-49-49-----------|
C|--------|--------------------|--------|---------------------------------------|--------------------|
C|--------|--------------------|--------|-----------------3636363636------------|--------------------|
C|-36-----|-36-36-36-----------|-36-----|-36------------------------------------|-36-36-36-----------|
C|--------|--------------------|--------|---------------------------------------|--------------------|
C|--------|--------------------|--------|---------------------------------------|--------------------|


C|-49--49--47--47-45-45-41-41-38-38-38-38-38-|-49--42-42-38-42--42--42-42-42-38--42-42-|
C|-------------------------------------------|-----------42------------------42--------|
C|-------------------------------------------|-----------------------------------------|
C|-36--36--36--36-36-36-36-36----------------|-36--36-36----36--36--36-36-36-----36-36-|
C|-------------------------------------------|-----------------------------------------|
C|-------------------------------------------|-----------------------------------------|


C|-49--42-42-38-42--42--42-42-42-38--42-42-|-49--42----38-42--42--42-42-42-38--42-42-|
C|-----------42------------------42--------|--------42-42------------------42--------|
C|-----------------------------------------|-----------------------------------------|
C|-36--36-36----36--36--36-36-36-----36-36-|-36--36-36----36--36--36-36-36-----36-36-|
C|-----------------------------------------|-----------------------------------------|
C|-----------------------------------------|-----------------------------------------|


C|-49--42-42-38-42--42--42-42-42-38--42-42-|-49--42-42-38-42--42--42-42-42-38--42-42-|
C|-----------42------------------42--------|-----------42------------------42--------|
C|-----------------------------------------|-----------------------------------------|
C|-36--36-36----36--36--36-36-36-----36-36-|-36--36-36----36--36--36-36-36-----36-36-|
C|-----------------------------------------|-----------------------------------------|
C|-----------------------------------------|-----------------------------------------|


C|-49--42-42-38-42--42--42-42-42-38--42-42-|-49--49--47--47-45-45-41-41-38-38-38-38-38-|
C|-----------42------------------42--------|-------------------------------------------|
C|-----------------------------------------|-------------------------------------------|
C|-36--36-36----36--36--36-36-36-----36-36-|-36--36--36--36-36-36-36-36----------------|
C|-----------------------------------------|-------------------------------------------|
C|-----------------------------------------|-------------------------------------------|


C|-49--------38------------------38--------|-49--------38------------------38--------|
C|-----------------------------------------|-----------------------------------------|
C|-----------------------------------------|-----------------------------------------|
C|-36--36-36----36--36--36-36-36-----36-36-|-36--36-36----36--36--36-36-36-----36-36-|
C|-----------------------------------------|-----------------------------------------|
C|-----------------------------------------|-----------------------------------------|


C|-49--------38------------------38--------|-49--------38------------------38--------|
C|-----------------------------------------|-----------------------------------------|
C|-----------------------------------------|-----------------------------------------|
C|-36--36-36----36--36--36-36-36-----36-36-|-36--36-36----36--36--36-36-36-----36-36-|
C|-----------------------------------------|-----------------------------------------|
C|-----------------------------------------|-----------------------------------------|


C|---------------------49--49--49--49--|-49-42-42-42-38-42-42-42-42-42-42-42-38-42-42-49-|
C|-------------------------------------|-------------------------------------------------|
C|-------------------------------------|-------------------------------------------------|
C|---------------------36--36--36--36--|-36-36-36-36-36-36-36-36-36-36-36-36-36-36-36-36-|
C|-------------------------------------|-------------------------------------------------|
C|-------------------------------------|-------------------------------------------------|


C|-42-42-42-42-38-42-42-42-42-42-42-42-38-42-42-49-|-42-42-42-38-42-42-42-42-42-42-42-38-42-42-42-49-|
C|-------------------------------------------------|----------42----------------------42-------------|
C|-------------------------------------------------|-------------------------------------------------|
C|-36-36-36-36-36-36-36-36-36-36-36-36-36-36-36-36-|-36-36-36-36-36-36-36-36-36-36-36-36-36-36-36-36-|
C|-------------------------------------------------|-------------------------------------------------|
C|-------------------------------------------------|-------------------------------------------------|


C|-47-47-45-45-41-41-41-41-383838383838383838-38-38-38-|-49---42--42--38--42--42--42--|
C|-----------------------------------------------------|------------------------------|
C|-----------------------------------------------------|------------------------------|
C|-36-36-36-36-36-36-36-36-363636363636363636-36-36-36-|-36-----------------------36--|
C|-----------------------------------------------------|------------------------------|
C|-----------------------------------------------------|------------------------------|


C|-49---42--42--38--42--42--42--|-42---42---38---42---|-42--42--42--42--38--42--42-42-42-42-|
C|------------------------------|---------------------|-------------------------------------|
C|------------------------------|---------------------|-------------------------------------|
C|-36---------------------------|-36---36-------------|-----36--------------36--36-36-36-36-|
C|------------------------------|---------------------|-------------------------------------|
C|------------------------------|---------------------|-------------------------------------|


C|-55-42-42-42-42-42-42-42-38-42-42-42-42-42-42-42-|-42-42-42-42-42-42-42-42-38-42-42-42-42-------------|
C|-------------------------42----------------------|----------------------------------------------------|
C|-------------------------------------------------|----------------------------------------------------|
C|-36-36-36-36-36-36-36-36-36-36-36-36-36-36-36-36-|-36-36-36-36-36-36-36-36-36-36-36-36-36-363636363636|
C|-------------------------------------------------|----------------------------------------------------|
C|-------------------------------------------------|----------------------------------------------------|


C|-49-34-34-34-34-34-34-34-38-34-34-34-34-34-34-34-|-34-34-34-34-34-34-34-34-38-34-34-34-34-34-34-34-|
C|-------------------------34----------------------|-------------------------34----------------------|
C|-------------------------------------------------|-------------------------------------------------|
C|-36-36-36-36-36-36-36-36-36-36-36-36-36-36-36-36-|-36-36-36-36-36-36-36-36-36-36-36-36-36-36-36-36-|
C|-------------------------------------------------|-------------------------------------------------|
C|-------------------------------------------------|-------------------------------------------------|


C|-34-34-34-49-34-34-34-49-34-34-34-49-34-34-34-49-|-48--47--45--43--55--55--55--55--|
C|----------34----------34----------34----------34-|---------------------------------|
C|-------------------------------------------------|---------------------------------|
C|-36-36-36-36-36-36-36-36-36-36-36-36-36-36-36-36-|-36--36--36--36------------------|
C|-------------------------------------------------|-----------------36--36--36--36--|
C|-------------------------------------------------|---------------------------------|


C|-49-----|
C|--------|
C|--------|
C|-36-----|
C|--------|
C|--------|









Track 6: Keyboard
Back to top
E|--------|--------|--------|-------------|--------|--------|--------|-------------|
B|-1------|--------|--------|-------------|-1------|--------|--------|-------------|
G|-2------|-2------|-4------|-------------|-2------|-2------|-4------|-------------|
D|-2------|-3------|-5------|-2-----0-----|-2------|-3------|-5------|-2-----0-----|
A|-0------|-3------|-5------|-3-----2-----|-0------|-3------|-5------|-3-----2-----|
E|--------|-1------|-3------|-------------|--------|-1------|-3------|-------------|


E|-------------|-------------|-------------|-------------|-------------|-------------|
B|-------------|-------------|-------------|-------------|-------------|-------------|
G|-------------|-------------|-------------|-------------|-------------|-------------|
D|-------------|-------------|-------------|-------------|-------------|-------------|
A|-------------|-------------|-------------|-------------|-------------|-------------|
E|-------------|-------------|-------------|-------------|-------------|-------------|


E|-------------|-------------|-------------|-------------|-------------|-------------|
B|-------------|-------------|-------------|-------------|-------------|-------------|
G|-------------|-------------|-------------|-------------|-------------|-------------|
D|-------------|-------------|-------------|-------------|-------------|-------------|
A|-------------|-------------|-------------|-------------|-------------|-------------|
E|-------------|-------------|-------------|-------------|-------------|-------------|


E|-------------|-------------|-------------|-------------|-------------|-------------|
B|-------------|-------------|-------------|-------------|-------------|-------------|
G|-------------|-------------|-------------|-------------|-------------|-------------|
D|-------------|-------------|-------------|-------------|-------------|-------------|
A|-------------|-------------|-------------|-------------|-------------|-------------|
E|-------------|-------------|-------------|-------------|-------------|-------------|


E|-------------|-------------|-------------|-------------|-------------|-------------|
B|-------------|-------------|-------------|-------------|-------------|-------------|
G|-------------|-------------|-------------|-------------|-------------|-------------|
D|-------------|-------------|-------------|-------------|-------------|-------------|
A|-------------|-------------|-------------|-------------|-------------|-------------|
E|-------------|-------------|-------------|-------------|-------------|-------------|


E|-------------|-------------|-------------|-------------|-------------|-------------|
B|-------------|-------------|-------------|-------------|-------------|-------------|
G|-------------|-------------|-------------|-------------|-------------|-------------|
D|-------------|-------------|-------------|-------------|-------------|-------------|
A|-------------|-------------|-------------|-------------|-------------|-------------|
E|-------------|-------------|-------------|-------------|-------------|-------------|


E|-------------|-------------|-------------|-------------|-------------|-------------|
B|-------------|-------------|-------------|-------------|-------------|-------------|
G|-------------|-------------|-------------|-------------|-------------|-------------|
D|-------------|-------------|-------------|-------------|-------------|-------------|
A|-------------|-------------|-------------|-------------|-------------|-------------|
E|-------------|-------------|-------------|-------------|-------------|-------------|


E|-------------|-------------|-------------|-------------|-------------|-------------|
B|-------------|-------------|-------------|-------------|-------------|-------------|
G|-------------|-------------|-------------|-------------|-------------|-------------|
D|-------------|-------------|-------------|-------------|-------------|-------------|
A|-------------|-------------|-------------|-------------|-------------|-------------|
E|-------------|-------------|-------------|-------------|-------------|-------------|


E|-------------|-------------|-------------|-------------|-------------|-------------|
B|-------------|-------------|-------------|-------------|-------------|-------------|
G|-------------|-------------|-------------|-------------|-------------|-------------|
D|-------------|-------------|-------------|-------------|-------------|-------------|
A|-------------|-------------|-------------|-------------|-------------|-------------|
E|-------------|-------------|-------------|-------------|-------------|-------------|


E|-------------|-------------|-------------|-------------|-------------|-------------|
B|-------------|-------------|-------------|-------------|-------------|-------------|
G|-------------|-------------|-------------|-------------|-------------|-------------|
D|-------------|-------------|-------------|-------------|-------------|-------------|
A|-------------|-------------|-------------|-------------|-------------|-------------|
E|-------------|-------------|-------------|-------------|-------------|-------------|


E|-------------|-------------|-------------|-------------|-------------|-------------|
B|-------------|-------------|-------------|-------------|-------------|-------------|
G|-------------|-------------|-------------|-------------|-------------|-------------|
D|-------------|-------------|-------------|-------------|-------------|-------------|
A|-------------|-------------|-------------|-------------|-------------|-------------|
E|-------------|-------------|-------------|-------------|-------------|-------------|


E|-------------|-------------|-------------|-------------|
B|-------------|-------------|-------------|-------------|
G|-------------|-------------|-------------|-------------|
D|-------------|-------------|-------------|-------------|
A|-------------|-------------|-------------|-------------|
E|-------------|-------------|-------------|-------------|



← Back to top