1916

by Motorhead

Guitar Pro Tab  |  v4.06  |  Posted on March 31, 2007, 12:30 p.m. ← Back

Guitar Pro Tab Summary

Album

1916

Song Author

Motorhead

Tabbed by

Menno Roymans

Instruments

1st → Organ
2nd → Cello
3rd → Drums
4th → Violin
5th → Flute

File Size

12 KB

Views

4,886

Notice

have fun, for comments mail to mennodeman@hotmail.com






Tablature Sheet

Title: 1916
Artist: Motorhead
Album: 1916
Author: Motorhead






Track 1: Organ
Back to top
A#|--------|--------|--------|--------|--------|--------|--------|--------|--------|
 F|--------|--------|--------|--------|--------|--------|--------|--------|--------|
C#|--------|--------|--------|--------|--------|--------|--------|--------|--------|
G#|--------|--------|--------|--------|--------|--------|--------|--------|--------|
D#|-2------|-2------|-2------|-2------|-2------|-2------|-2------|-2------|-2------|
A#|-0------|-0------|-0------|-0------|-0------|-0------|-0------|-0------|-0------|


A#|--------|--------|--------|--------|--------|--------|--------|--------|--------|
 F|--------|--------|--------|--------|--------|--------|--------|--------|--------|
C#|--------|--------|--------|--------|--------|--------|--------|--------|--------|
G#|--------|-4------|-4------|-2------|-2------|--------|--------|--------|--------|
D#|-2------|-2------|-2------|-0------|-0------|-2------|-2------|-2------|-2------|
A#|-0------|--------|--------|--------|--------|-0------|-0------|-0------|-0------|


A#|--------|--------|--------|--------|--------|--------|--------|--------|--------|
 F|--------|--------|--------|--------|--------|--------|--------|--------|--------|
C#|--------|--------|--------|--------|--------|--------|--------|--------|--------|
G#|-4------|-4------|-2------|-2------|--------|--------|--------|--------|-4------|
D#|-2------|-2------|-0------|-0------|-2------|-2------|-2------|-2------|-2------|
A#|--------|--------|--------|--------|-0------|-0------|-0------|-0------|--------|


A#|--------|--------|--------|--------|--------|--------|--------|--------|--------|
 F|--------|--------|--------|--------|--------|--------|--------|--------|--------|
C#|--------|--------|--------|--------|--------|--------|--------|--------|--------|
G#|-4------|-2------|-2------|--------|--------|--------|--------|-4------|-4------|
D#|-2------|-0------|-0------|-2------|-2------|-2------|-2------|-2------|-2------|
A#|--------|--------|--------|-0------|-0------|-0------|-0------|--------|--------|


A#|--------|--------|--------|--------|--------|--------|--------|--------|--------|
 F|--------|--------|--------|--------|--------|--------|--------|--------|--------|
C#|--------|--------|--------|--------|--------|--------|--------|--------|--------|
G#|-2------|-2------|--------|--------|--------|--------|--------|--------|--------|
D#|-0------|-0------|-2------|-2------|-2------|-2------|-2------|-2------|-2------|
A#|--------|--------|-0------|-0------|-0------|-0------|-0------|-0------|-0------|


A#|--------|--------|--------|--------|--------|--------|--------|--------|--------|
 F|--------|--------|--------|--------|--------|--------|--------|--------|--------|
C#|--------|--------|--------|--------|--------|--------|--------|--------|--------|
G#|--------|--------|--------|-4------|-4------|-2------|-2------|--------|--------|
D#|-2------|-2------|-2------|-2------|-2------|-0------|-0------|-2------|-2------|
A#|-0------|-0------|-0------|--------|--------|--------|--------|-0------|-0------|


A#|--------|--------|--------|--------|--------|--------|--------|--------|--------|
 F|--------|--------|--------|--------|--------|--------|--------|--------|--------|
C#|--------|--------|--------|--------|--------|--------|--------|--------|--------|
G#|--------|--------|-4------|-4------|-2------|-2------|--------|--------|--------|
D#|-2------|-2------|-2------|-2------|-0------|-0------|-2------|-2------|-2------|
A#|-0------|-0------|--------|--------|--------|--------|-0------|-0------|-0------|


A#|--------|--------|--------|--------|--------|--------|--------|--------|--------|
 F|--------|--------|--------|--------|--------|--------|--------|--------|--------|
C#|--------|--------|--------|--------|--------|--------|--------|--------|--------|
G#|--------|-4------|-4------|-2------|-2------|--------|--------|--------|--------|
D#|-2------|-2------|-2------|-0------|-0------|-2------|-2------|-2------|-2------|
A#|-0------|--------|--------|--------|--------|-0------|-0------|-0------|-0------|


A#|--------|--------|--------|--------|--------|--------|--------|--------|--------|
 F|--------|--------|--------|--------|--------|--------|--------|--------|--------|
C#|--------|--------|--------|--------|--------|--------|--------|--------|--------|
G#|-4------|-4------|-2------|-2------|--------|--------|--------|--------|--------|
D#|-2------|-2------|-0------|-0------|-2------|-2------|-2------|-2------|-2------|
A#|--------|--------|--------|--------|-0------|-0------|-0------|-0------|-0------|


A#|--------|--------|--------|--------|--------|--------|--------|--------|--------|
 F|--------|--------|--------|--------|--------|--------|--------|--------|--------|
C#|--------|--------|--------|--------|--------|--------|--------|--------|--------|
G#|--------|-4------|-4------|-2------|-2------|--------|--------|--------|-2------|
D#|-2------|-2------|-2------|-0------|-0------|-2------|-2------|-2------|-2------|
A#|-0------|--------|--------|--------|--------|-0------|-0------|-0------|--------|


A#|--------|--------|--------|--------|--------|--------|--------|--------|--------|
 F|--------|--------|--------|--------|--------|--------|--------|--------|--------|
C#|--------|--------|--------|--------|--------|--------|--------|--------|--------|
G#|-4------|-4------|-2------|--------|--------|--------|--------|--------|--------|
D#|-2------|-2------|-0------|-0------|-2------|-2------|-2------|-2------|-2------|
A#|--------|--------|--------|-0------|-0------|-0------|-0------|-0------|-0------|


A#|--------|--------|--------|--------|--------|--------|--------|--------|--------|
 F|--------|--------|--------|--------|--------|--------|--------|--------|--------|
C#|--------|--------|--------|--------|--------|--------|--------|--------|--------|
G#|--------|--------|--------|--------|--------|-4------|-4------|-2------|-2------|
D#|-2------|-2------|-2------|-2------|-2------|-2------|-2------|-0------|-0------|
A#|-0------|-0------|-0------|-0------|-0------|--------|--------|--------|--------|


A#|--------|--------|--------|--------|--------|--------|--------|--------|--------|
 F|--------|--------|--------|--------|--------|--------|--------|--------|--------|
C#|--------|--------|--------|--------|--------|--------|--------|--------|--------|
G#|--------|--------|--------|--------|-4------|-4------|-2------|-2------|--------|
D#|-2------|-2------|-2------|-2------|-2------|-2------|-0------|-0------|-2------|
A#|-0------|-0------|-0------|-0------|--------|--------|--------|--------|-0------|


A#|--------|--------|--------|--------|--------|--------|--------|--------|--------|
 F|--------|--------|--------|--------|--------|--------|--------|--------|--------|
C#|--------|--------|--------|--------|--------|--------|--------|--------|--------|
G#|--------|--------|--------|-4------|-4------|-2------|-2------|--------|--------|
D#|-2------|-2------|-2------|-2------|-2------|-0------|-0------|-2------|-2------|
A#|-0------|-0------|-0------|--------|--------|--------|--------|-0------|-0------|


A#|--------|--------|--------|--------|--------|--------|--------|--------|--------|
 F|--------|--------|--------|--------|--------|--------|--------|--------|--------|
C#|--------|--------|--------|--------|--------|--------|--------|--------|--------|
G#|--------|--------|-4------|-4------|-7------|-7------|-2------|-2------|--------|
D#|-2------|-2------|-2------|-2------|-5------|-5------|-0------|-0------|-2------|
A#|-0------|-0------|--------|--------|--------|--------|--------|--------|-0------|


A#|--------|--------|--------|--------|--------|--------|--------|--------|--------|
 F|--------|--------|--------|--------|--------|--------|--------|--------|--------|
C#|--------|--------|--------|--------|--------|--------|--------|--------|--------|
G#|--------|-4------|-4------|-7------|-7------|-2------|-2------|-2------|--------|
D#|-2------|-2------|-2------|-5------|-5------|-0------|-0------|-0------|-0------|
A#|-0------|--------|--------|--------|--------|--------|--------|--------|--------|


A#|--------|--------|--------|--------|--------|--------|
 F|--------|--------|--------|--------|--------|--------|
C#|--------|--------|--------|--------|--------|--------|
G#|-2------|--------|--------|--------|--------|--------|
D#|-2------|-2------|-2------|-2------|-2------|-2------|
A#|-0------|-0------|-0------|-0------|-0------|-0------|









Track 2: Drums
Back to top
C|--------|--------|--------|--------|--------|--------|--------|--------|--------|
C|--------|--------|--------|--------|--------|--------|--------|--------|--------|
C|--------|--------|--------|--------|--------|--------|--------|--------|--------|
C|--------|--------|--------|--------|--------|--------|--------|--------|--------|
C|--------|--------|--------|--------|--------|--------|--------|--------|--------|
C|-35-----|--------|-35-----|--------|-35-----|--------|-35-----|--------|-35-----|


C|--------|--------|--------|--------|--------|--------|--------|--------|--------|
C|--------|--------|--------|--------|--------|--------|--------|--------|--------|
C|--------|--------|--------|--------|--------|--------|--------|--------|--------|
C|--------|--------|--------|--------|--------|--------|--------|--------|--------|
C|--------|--------|--------|--------|--------|--------|--------|--------|--------|
C|--------|-35-----|--------|-35-----|--------|-35-----|--------|-35-----|--------|


C|--------|--------|--------|--------|--------|--------|-------------------|--------|
C|--------|--------|--------|--------|--------|--------|-------------------|--------|
C|--------|--------|--------|--------|--------|--------|-------------------|--------|
C|--------|--------|--------|--------|--------|--------|-------38--38--38--|-38-----|
C|--------|--------|--------|--------|--------|--------|-------------------|--------|
C|-35-----|--------|-35-----|--------|-35-----|--------|-35----------------|--------|


C|-------------------|--------|-------------------|--------|-------------------|--------|
C|-------------------|--------|-------------------|--------|-------------------|--------|
C|-------------------|--------|-------------------|--------|-------------------|--------|
C|-------38--38--38--|-38-----|-------38--38--38--|-38-----|-------38--38--38--|-38-----|
C|-------------------|--------|-------------------|--------|-------------------|--------|
C|-35----------------|--------|-35----------------|--------|-35----------------|--------|


C|-------------------|--------|-------------------|--------|-------------------|--------|
C|-------------------|--------|-------------------|--------|-------------------|--------|
C|-------------------|--------|-------------------|--------|-------------------|--------|
C|-------38--38--38--|-38-----|-------38--38--38--|-38-----|-------38--38--38--|-38-----|
C|-------------------|--------|-------------------|--------|-------------------|--------|
C|-35----------------|--------|-35----------------|--------|-35----------------|--------|


C|-------------------|--------|-------------------|--------|-------------------|--------|
C|-------------------|--------|-------------------|--------|-------------------|--------|
C|-------------------|--------|-------------------|--------|-------------------|--------|
C|-------38--38--38--|-38-----|-------38--38--38--|-38-----|-------38--38--38--|-38-----|
C|-------------------|--------|-------------------|--------|-------------------|--------|
C|-35----------------|--------|-35----------------|--------|-35----------------|--------|


C|-------------------|--------|-------------------|--------|-------------------|--------|
C|-------------------|--------|-------------------|--------|-------------------|--------|
C|-------------------|--------|-------------------|--------|-------------------|--------|
C|-------38--38--38--|-38-----|-------38--38--38--|-38-----|-------38--38--38--|-38-----|
C|-------------------|--------|-------------------|--------|-------------------|--------|
C|-35----------------|--------|-35----------------|--------|-35----------------|--------|


C|-------------------|--------|-------------------|--------|-------------------|--------|
C|-------------------|--------|-------------------|--------|-------------------|--------|
C|-------------------|--------|-------------------|--------|-------------------|--------|
C|-------38--38--38--|-38-----|-------38--38--38--|-38-----|-------38--38--38--|-38-----|
C|-------------------|--------|-------------------|--------|-------------------|--------|
C|-35----------------|--------|-35----------------|--------|-35----------------|--------|


C|-------------------|--------|-------------------|--------|-------------------|--------|
C|-------------------|--------|-------------------|--------|-------------------|--------|
C|-------------------|--------|-------------------|--------|-------------------|--------|
C|-------38--38--38--|-38-----|-------38--38--38--|-38-----|-------38--38--38--|-38-----|
C|-------------------|--------|-------------------|--------|-------------------|--------|
C|-35----------------|--------|-35----------------|--------|-35----------------|--------|


C|-------------------|--------|-------------------|--------|-------------------|--------|
C|-------------------|--------|-------------------|--------|-------------------|--------|
C|-------------------|--------|-------------------|--------|-------------------|--------|
C|-------38--38--38--|-38-----|-------38--38--38--|-38-----|-------38--38--38--|-38-----|
C|-------------------|--------|-------------------|--------|-------------------|--------|
C|-35----------------|--------|-35----------------|--------|-35----------------|--------|


C|-------------------|--------|-------------------|--------|-------------------|--------|
C|-------------------|--------|-------------------|--------|-------------------|--------|
C|-------------------|--------|-------------------|--------|-------------------|--------|
C|-------38--38--38--|-38-----|-------38--38--38--|-38-----|-------38--38--38--|-38-----|
C|-------------------|--------|-------------------|--------|-------------------|--------|
C|-35----------------|--------|-35----------------|--------|-35----------------|--------|


C|-------------------|--------|-------------------|--------|-------------------|--------|
C|-------------------|--------|-------------------|--------|-------------------|--------|
C|-------------------|--------|-------------------|--------|-------------------|--------|
C|-------38--38--38--|-38-----|-------38--38--38--|-38-----|-------38--38--38--|-38-----|
C|-------------------|--------|-------------------|--------|-------------------|--------|
C|-35----------------|--------|-35----------------|--------|-35----------------|--------|


C|-------------------|--------|-------------------|--------|-------------------|--------|
C|-------------------|--------|-------------------|--------|-------------------|--------|
C|-------------------|--------|-------------------|--------|-------------------|--------|
C|-------38--38--38--|-38-----|-------38--38--38--|-38-----|-------38--38--38--|-38-----|
C|-------------------|--------|-------------------|--------|-------------------|--------|
C|-35----------------|--------|-35----------------|--------|-35----------------|--------|


C|-------------------|--------|-------------------|--------|-------------------|--------|
C|-------------------|--------|-------------------|--------|-------------------|--------|
C|-------------------|--------|-------------------|--------|-------------------|--------|
C|-------38--38--38--|-38-----|-------38--38--38--|-38-----|-------38--38--38--|-38-----|
C|-------------------|--------|-------------------|--------|-------------------|--------|
C|-35----------------|--------|-35----------------|--------|-35----------------|--------|


C|-------------------|--------|-------------------|--------|-------------------|--------|
C|-------------------|--------|-------------------|--------|-------------------|--------|
C|-------------------|--------|-------------------|--------|-------------------|--------|
C|-------38--38--38--|-38-----|-------38--38--38--|-38-----|-------38--38--38--|-38-----|
C|-------------------|--------|-------------------|--------|-------------------|--------|
C|-35----------------|--------|-35----------------|--------|-35----------------|--------|


C|-------------------|--------|-------------------|--------|-------------------|--------|
C|-------------------|--------|-------------------|--------|-------------------|--------|
C|-------------------|--------|-------------------|--------|-------------------|--------|
C|-------38--38--38--|-38-----|-------38--38--38--|-38-----|-------38--38--38--|-38-----|
C|-------------------|--------|-------------------|--------|-------------------|--------|
C|-35----------------|--------|-35----------------|--------|-35----------------|--------|


C|-------------------|--------|-------------------|--------|-------------------|--------|
C|-------------------|--------|-------------------|--------|-------------------|--------|
C|-------------------|--------|-------------------|--------|-------------------|--------|
C|-------38--38--38--|-38-----|-------38--38--38--|-38-----|-------38--38--38--|-38-----|
C|-------------------|--------|-------------------|--------|-------------------|--------|
C|-35----------------|--------|-35----------------|--------|-35----------------|--------|


C|-------------------|--------|-------------------|--------|-------------------|--------|
C|-------------------|--------|-------------------|--------|-------------------|--------|
C|-------------------|--------|-------------------|--------|-------------------|--------|
C|-------38--38--38--|-38-----|-------38--38--38--|-38-----|-------38--38--38--|-38-----|
C|-------------------|--------|-------------------|--------|-------------------|--------|
C|-35----------------|--------|-35----------------|--------|-35----------------|--------|


C|-------------------|--------|-------------------|--------|-------------------|--------|
C|-------------------|--------|-------------------|--------|-------------------|--------|
C|-------------------|--------|-------------------|--------|-------------------|--------|
C|-------38--38--38--|-38-----|-------38--38--38--|-38-----|-------38--38--38--|-38-----|
C|-------------------|--------|-------------------|--------|-------------------|--------|
C|-35----------------|--------|-35----------------|--------|-35----------------|--------|


C|-------------------|--------|-------------------|--------|-------------------|--------|
C|-------------------|--------|-------------------|--------|-------------------|--------|
C|-------------------|--------|-------------------|--------|-------------------|--------|
C|-------38--38--38--|-38-----|-------38--38--38--|-38-----|-------38--38--38--|-38-----|
C|-------------------|--------|-------------------|--------|-------------------|--------|
C|-35----------------|--------|-35----------------|--------|-35----------------|--------|


C|-------------------|--------|-------------------|--------|-------------------|--------|
C|-------------------|--------|-------------------|--------|-------------------|--------|
C|-------------------|--------|-------------------|--------|-------------------|--------|
C|-------38--38--38--|-38-----|-------38--38--38--|-38-----|-------38--38--38--|-38-----|
C|-------------------|--------|-------------------|--------|-------------------|--------|
C|-35----------------|--------|-35----------------|--------|-35----------------|--------|


C|-------------------|--------|-------------------|--------|-------------------|--------|
C|-------------------|--------|-------------------|--------|-------------------|--------|
C|-------------------|--------|-------------------|--------|-------------------|--------|
C|-------38--38--38--|-38-----|-------38--38--38--|-38-----|-------38--38--38--|-38-----|
C|-------------------|--------|-------------------|--------|-------------------|--------|
C|-35----------------|--------|-35----------------|--------|-35----------------|--------|


C|-------------------|--------|--------|--------|--------|--------|--------|--------|
C|-------------------|--------|--------|--------|--------|--------|--------|--------|
C|-------------------|--------|--------|--------|--------|--------|--------|--------|
C|-------38--38--38--|-38-----|--------|--------|--------|--------|--------|--------|
C|-------------------|--------|--------|--------|--------|--------|--------|--------|
C|-35----------------|--------|--------|--------|--------|--------|--------|--------|


C|--------|--------|
C|--------|--------|
C|--------|--------|
C|--------|--------|
C|--------|--------|
C|--------|--------|









Track 3: Cello
Back to top
A#|------------|------------|------------|------------|------------|------------|------------|
 F|------------|------------|------------|------------|------------|------------|------------|
C#|------------|------------|------------|------------|------------|------------|------------|
G#|------------|------------|------------|------------|------------|------------|------------|
D#|------------|------------|------------|------------|------------|------------|------------|
A#|------------|------------|------------|------------|------------|------------|------------|


A#|------------|------------|------------|------------|------------|------------|------------|
 F|------------|------------|------------|------------|------------|------------|------------|
C#|------------|------------|------------|------------|------------|------------|------------|
G#|------------|------------|------------|------------|------------|------------|------------|
D#|------------|------------|------------|------------|------------|------------|------------|
A#|------------|------------|------------|------------|------------|------------|------------|


A#|------------|------------|------------|------------|------------|------------|--------|
 F|------------|------------|------------|------------|------------|------------|--------|
C#|------------|------------|------------|------------|------------|------------|--------|
G#|------------|------------|------------|------------|------------|------------|--------|
D#|------------|------------|------------|------------|------------|------------|--------|
A#|------------|------------|------------|------------|------------|------------|--------|


A#|--------|--------|--------|--------|--------|--------|------------|------------|
 F|--------|--------|--------|--------|--------|--------|------------|------------|
C#|--------|--------|--------|--------|--------|--------|------------|------------|
G#|--------|--------|--------|--------|--------|--------|------------|------------|
D#|--------|--------|--------|--------|--------|--------|------------|------------|
A#|--------|--------|--------|--------|--------|--------|------------|------------|


A#|------------|------------|------------|------------|------------|------------|------------|
 F|------------|------------|------------|------------|------------|------------|------------|
C#|------------|------------|------------|------------|------------|------------|------------|
G#|------------|------------|------------|------------|------------|------------|------------|
D#|------------|------------|------------|------------|------------|------------|------------|
A#|------------|------------|------------|------------|------------|------------|------------|


A#|------------|------------|------------|------------|--------|--------|--------|
 F|------------|------------|------------|------------|--------|--------|--------|
C#|------------|------------|------------|------------|--------|--------|--------|
G#|------------|------------|------------|------------|--------|--------|--------|
D#|------------|------------|------------|------------|-2------|-2------|-2------|
A#|------------|------------|------------|------------|-0------|-0------|-0------|


A#|--------|--------|--------|--------|--------|--------|--------|--------|--------|
 F|--------|--------|--------|--------|--------|--------|--------|--------|--------|
C#|--------|--------|--------|--------|--------|--------|--------|--------|--------|
G#|--------|--------|--------|--------|--------|--------|--------|--------|--------|
D#|-2------|-2------|-2------|--------|--------|-2------|-2------|-0------|-0------|
A#|-0------|-0------|-0------|-0------|-0------|--------|--------|--------|--------|


A#|--------|--------|--------|--------|--------|--------|--------|--------|--------|
 F|--------|--------|--------|--------|--------|--------|--------|--------|--------|
C#|--------|--------|--------|--------|--------|--------|--------|--------|--------|
G#|--------|--------|--------|--------|--------|--------|--------|--------|--------|
D#|--------|--------|--------|--------|-2------|-2------|-0------|-0------|--------|
A#|-0------|-0------|-0------|-0------|--------|--------|--------|--------|-0------|


A#|--------|--------|--------|--------|--------|--------|--------|--------|--------|
 F|--------|--------|--------|--------|--------|--------|--------|--------|--------|
C#|--------|--------|--------|--------|--------|--------|--------|--------|--------|
G#|--------|--------|--------|--------|--------|--------|--------|--------|--------|
D#|--------|--------|--------|-2------|-2------|-0------|-0------|--------|--------|
A#|-0------|-0------|-0------|--------|--------|--------|--------|-0------|-0------|


A#|--------|--------|--------|--------|--------|--------|--------|--------|--------|
 F|--------|--------|--------|--------|--------|--------|--------|--------|--------|
C#|--------|--------|--------|--------|--------|--------|--------|--------|--------|
G#|--------|--------|--------|--------|--------|--------|--------|--------|--------|
D#|--------|--------|-2------|-2------|-0------|-0------|--------|--------|--------|
A#|-0------|-0------|--------|--------|--------|--------|-0------|-0------|-0------|


A#|--------|--------|--------|--------|--------|--------|--------|--------|--------|
 F|--------|--------|--------|--------|--------|--------|--------|--------|--------|
C#|--------|--------|--------|--------|--------|--------|--------|--------|--------|
G#|--------|--------|--------|-4------|-4------|-2------|-2------|--------|--------|
D#|--------|-2------|-2------|-2------|-2------|-0------|-0------|-2------|-2------|
A#|-0------|-0------|-0------|--------|--------|--------|--------|-0------|-0------|


A#|--------|--------|--------|--------|--------|--------|--------|--------|--------|
 F|--------|--------|--------|--------|--------|--------|--------|--------|--------|
C#|--------|--------|--------|--------|--------|--------|--------|--------|--------|
G#|--------|--------|-4------|-4------|-2------|-2------|--------|--------|--------|
D#|-2------|-2------|-2------|-2------|-0------|-0------|-2------|-2------|-2------|
A#|-0------|-0------|--------|--------|--------|--------|-0------|-0------|-0------|


A#|--------|--------|--------|--------|--------|--------|--------|--------|--------|
 F|--------|--------|--------|--------|--------|--------|--------|--------|--------|
C#|--------|--------|--------|--------|--------|--------|--------|--------|--------|
G#|--------|--------|--------|--------|--------|--------|--------|-4------|-4------|
D#|-2------|-2------|-2------|-2------|-2------|-2------|-2------|-2------|-2------|
A#|-0------|-0------|-0------|-0------|-0------|-0------|-0------|--------|--------|


A#|--------|--------|--------|--------|--------|--------|--------|--------|--------|
 F|--------|--------|--------|--------|--------|--------|--------|--------|--------|
C#|--------|--------|--------|--------|--------|--------|--------|--------|--------|
G#|-2------|-2------|--------|--------|--------|--------|-4------|-4------|-2------|
D#|-0------|-0------|-2------|-2------|-2------|-2------|-2------|-2------|-0------|
A#|--------|--------|-0------|-0------|-0------|-0------|--------|--------|--------|


A#|--------|--------|--------|--------|--------|--------|--------|--------|--------|
 F|--------|--------|--------|--------|--------|--------|--------|--------|--------|
C#|--------|--------|--------|--------|--------|--------|--------|--------|--------|
G#|-2------|--------|--------|--------|--------|-4------|-4------|-2------|-2------|
D#|-0------|-2------|-2------|-2------|-2------|-2------|-2------|-0------|-0------|
A#|--------|-0------|-0------|-0------|-0------|--------|--------|--------|--------|


A#|--------|--------|--------|--------|--------|--------|--------|--------|--------|
 F|--------|--------|--------|--------|--------|--------|--------|--------|--------|
C#|--------|--------|--------|--------|--------|--------|--------|--------|--------|
G#|--------|--------|--------|--------|-4------|-4------|-7------|-7------|-2------|
D#|-2------|-2------|-2------|-2------|-2------|-2------|-5------|-5------|-0------|
A#|-0------|-0------|-0------|-0------|--------|--------|--------|--------|--------|


A#|--------|--------|--------|--------|--------|--------|--------|--------|--------|
 F|--------|--------|--------|--------|--------|--------|--------|--------|--------|
C#|--------|--------|--------|--------|--------|--------|--------|--------|--------|
G#|-2------|--------|--------|-4------|-4------|-7------|-7------|-2------|-2------|
D#|-0------|-2------|-2------|-2------|-2------|-5------|-5------|-0------|-0------|
A#|-0------|-0------|-0------|--------|--------|--------|--------|--------|--------|


A#|--------|--------|--------|--------|--------|--------|--------|--------|
 F|--------|--------|--------|--------|--------|--------|--------|--------|
C#|--------|--------|--------|--------|--------|--------|--------|--------|
G#|-2------|-2------|--------|--------|--------|-2------|--------|--------|
D#|-0------|-0------|-2------|-2------|-2------|-2------|-2------|-2------|
A#|--------|--------|-0------|-0------|-0------|-0------|-0------|-0------|









Track 4: Flute
Back to top
E|------------|------------|------------|------------|------------|------------|------------|
B|------------|------------|------------|------------|------------|------------|------------|
G|------------|------------|------------|------------|------------|------------|------------|
D|------------|------------|------------|------------|------------|------------|------------|
A|------------|------------|------------|------------|------------|------------|------------|
E|------------|------------|------------|------------|------------|------------|------------|


E|------------|------------|------------|------------|------------|------------|------------|
B|------------|------------|------------|------------|------------|------------|------------|
G|------------|------------|------------|------------|------------|------------|------------|
D|------------|------------|------------|------------|------------|------------|------------|
A|------------|------------|------------|------------|------------|------------|------------|
E|------------|------------|------------|------------|------------|------------|------------|


E|------------|------------|------------|------------|------------|------------|------------|
B|------------|------------|------------|------------|------------|------------|------------|
G|------------|------------|------------|------------|------------|------------|------------|
D|------------|------------|------------|------------|------------|------------|------------|
A|------------|------------|------------|------------|------------|------------|------------|
E|------------|------------|------------|------------|------------|------------|------------|


E|------------|------------|---------------|---------------|------------|------------|
B|------------|------------|---------------|---------------|------------|------------|
G|------------|------------|---------------|---------------|------------|------------|
D|------------|------------|---------------|---------------|------------|------------|
A|------------|------------|---------------|---------------|------------|------------|
E|------------|------------|---------------|---------------|------------|------------|


E|------------|------------|------------|------------|------------|------------|------------|
B|------------|------------|------------|------------|------------|------------|------------|
G|------------|------------|------------|------------|------------|------------|------------|
D|------------|------------|------------|------------|------------|------------|------------|
A|------------|------------|------------|------------|------------|------------|------------|
E|------------|------------|------------|------------|------------|------------|------------|


E|------------|------------|------------|------------|------------|------------|------------|
B|------------|------------|------------|------------|------------|------------|------------|
G|------------|------------|------------|------------|------------|------------|------------|
D|------------|------------|------------|------------|------------|------------|------------|
A|------------|------------|------------|------------|------------|------------|------------|
E|------------|------------|------------|------------|------------|------------|------------|


E|------------|------------|------------|------------|------------|----------------|
B|------------|------------|------------|------------|------------|-11---11---13---|
G|------------|------------|------------|------------|------------|----------------|
D|------------|------------|------------|------------|------------|----------------|
A|------------|------------|------------|------------|------------|----------------|
E|------------|------------|------------|------------|------------|----------------|


E|----------------|----------------|--------|----------------|----------------|------------|
B|-15---13---11---|-10---10---11---|-13-----|-8----8----10---|-11---10---8----|-4----3-----|
G|----------------|----------------|--------|----------------|----------------|------------|
D|----------------|----------------|--------|----------------|----------------|------------|
A|----------------|----------------|--------|----------------|----------------|------------|
E|----------------|----------------|--------|----------------|----------------|------------|


E|--------|----------------|----------------|----------------|--------|----------------|
B|-3------|-11---11---13---|-15---13---11---|-10---10---11---|-13-----|-8----8----10---|
G|--------|----------------|----------------|----------------|--------|----------------|
D|--------|----------------|----------------|----------------|--------|----------------|
A|--------|----------------|----------------|----------------|--------|----------------|
E|--------|----------------|----------------|----------------|--------|----------------|


E|----------------|------------|--------|----------------|----------------|----------------|
B|-11---10---8----|-4----3-----|-3------|-11---11---13---|-15---13---11---|-10---10---11---|
G|----------------|------------|--------|----------------|----------------|----------------|
D|----------------|------------|--------|----------------|----------------|----------------|
A|----------------|------------|--------|----------------|----------------|----------------|
E|----------------|------------|--------|----------------|----------------|----------------|


E|--------|----------------|----------------|------------|--------|----------------|
B|-13-----|-8----8----10---|-11---10---8----|-4----3-----|-3------|-11---11---13---|
G|--------|----------------|----------------|------------|--------|----------------|
D|--------|----------------|----------------|------------|--------|----------------|
A|--------|----------------|----------------|------------|--------|----------------|
E|--------|----------------|----------------|------------|--------|----------------|


E|----------------|----------------|--------|----------------|----------------|------------|
B|-15---13---11---|-10---10---11---|-13-----|-8----8----10---|-11---10---8----|-4----3-----|
G|----------------|----------------|--------|----------------|----------------|------------|
D|----------------|----------------|--------|----------------|----------------|------------|
A|----------------|----------------|--------|----------------|----------------|------------|
E|----------------|----------------|--------|----------------|----------------|------------|


E|--------|------------|------------|----------------|----------------|----------------|
B|-3------|------------|------------|-15---15---16---|-18---16---15---|-13---13---15---|
G|--------|------------|------------|----------------|----------------|----------------|
D|--------|------------|------------|----------------|----------------|----------------|
A|--------|------------|------------|----------------|----------------|----------------|
E|--------|------------|------------|----------------|----------------|----------------|


E|----------------|----------------|----------------|------------|--------|----------------|
B|-16---15---13---|-11---11---13---|-15---13---11---|-6----3-----|-3------|-15---15---16---|
G|----------------|----------------|----------------|------------|--------|----------------|
D|----------------|----------------|----------------|------------|--------|----------------|
A|----------------|----------------|----------------|------------|--------|----------------|
E|----------------|----------------|----------------|------------|--------|----------------|


E|----------------|----------------|----------------|----------------|----------------|
B|-18---16---15---|-13---13---15---|-16---15---13---|-11---11---13---|-15---13---11---|
G|----------------|----------------|----------------|----------------|----------------|
D|----------------|----------------|----------------|----------------|----------------|
A|----------------|----------------|----------------|----------------|----------------|
E|----------------|----------------|----------------|----------------|----------------|


E|------------|--------|------------|------------|------------|------------|------------|
B|-6----3-----|-3------|------------|------------|------------|------------|------------|
G|------------|--------|------------|------------|------------|------------|------------|
D|------------|--------|------------|------------|------------|------------|------------|
A|------------|--------|------------|------------|------------|------------|------------|
E|------------|--------|------------|------------|------------|------------|------------|


E|------------|------------|------------|------------|------------|------------|------------|
B|------------|------------|------------|------------|------------|------------|------------|
G|------------|------------|------------|------------|------------|------------|------------|
D|------------|------------|------------|------------|------------|------------|------------|
A|------------|------------|------------|------------|------------|------------|------------|
E|------------|------------|------------|------------|------------|------------|------------|


E|------------|------------|------------|------------|------------|------------|------------|
B|------------|------------|------------|------------|------------|------------|------------|
G|------------|------------|------------|------------|------------|------------|------------|
D|------------|------------|------------|------------|------------|------------|------------|
A|------------|------------|------------|------------|------------|------------|------------|
E|------------|------------|------------|------------|------------|------------|------------|


E|------------|------------|------------|------------|------------|------------|------------|
B|------------|------------|------------|------------|------------|------------|------------|
G|------------|------------|------------|------------|------------|------------|------------|
D|------------|------------|------------|------------|------------|------------|------------|
A|------------|------------|------------|------------|------------|------------|------------|
E|------------|------------|------------|------------|------------|------------|------------|


E|------------|------------|------------|------------|------------|------------|------------|
B|------------|------------|------------|------------|------------|------------|------------|
G|------------|------------|------------|------------|------------|------------|------------|
D|------------|------------|------------|------------|------------|------------|------------|
A|------------|------------|------------|------------|------------|------------|------------|
E|------------|------------|------------|------------|------------|------------|------------|


E|------------|------------|------------|------------|------------|------------|------------|
B|------------|------------|------------|------------|------------|------------|------------|
G|------------|------------|------------|------------|------------|------------|------------|
D|------------|------------|------------|------------|------------|------------|------------|
A|------------|------------|------------|------------|------------|------------|------------|
E|------------|------------|------------|------------|------------|------------|------------|


E|------------|------------|------------|------------|------------|------------|----------------|
B|------------|------------|------------|------------|------------|------------|-11---11---11---|
G|------------|------------|------------|------------|------------|------------|----------------|
D|------------|------------|------------|------------|------------|------------|----------------|
A|------------|------------|------------|------------|------------|------------|----------------|
E|------------|------------|------------|------------|------------|------------|----------------|


E|----------------|------------|--------|--------|--------|--------|--------|
B|-11---10---8----|-8----6-----|-6------|-6------|-6------|-6------|-6------|
G|----------------|------------|--------|--------|--------|--------|--------|
D|----------------|------------|--------|--------|--------|--------|--------|
A|----------------|------------|--------|--------|--------|--------|--------|
E|----------------|------------|--------|--------|--------|--------|--------|









Track 5: Violin
Back to top
E|------------|------------|------------|------------|------------|------------|------------|
B|------------|------------|------------|------------|------------|------------|------------|
G|------------|------------|------------|------------|------------|------------|------------|
D|------------|------------|------------|------------|------------|------------|------------|
A|------------|------------|------------|------------|------------|------------|------------|
E|------------|------------|------------|------------|------------|------------|------------|


E|------------|------------|------------|------------|------------|------------|------------|
B|------------|------------|------------|------------|------------|------------|------------|
G|------------|------------|------------|------------|------------|------------|------------|
D|------------|------------|------------|------------|------------|------------|------------|
A|------------|------------|------------|------------|------------|------------|------------|
E|------------|------------|------------|------------|------------|------------|------------|


E|------------|------------|------------|------------|------------|------------|------------|
B|------------|------------|------------|------------|------------|------------|------------|
G|------------|------------|------------|------------|------------|------------|------------|
D|------------|------------|------------|------------|------------|------------|------------|
A|------------|------------|------------|------------|------------|------------|------------|
E|------------|------------|------------|------------|------------|------------|------------|


E|------------|------------|------------|------------|------------|------------|------------|
B|------------|------------|------------|------------|------------|------------|------------|
G|------------|------------|------------|------------|------------|------------|------------|
D|------------|------------|------------|------------|------------|------------|------------|
A|------------|------------|------------|------------|------------|------------|------------|
E|------------|------------|------------|------------|------------|------------|------------|


E|------------|------------|------------|------------|------------|------------|------------|
B|------------|------------|------------|------------|------------|------------|------------|
G|------------|------------|------------|------------|------------|------------|------------|
D|------------|------------|------------|------------|------------|------------|------------|
A|------------|------------|------------|------------|------------|------------|------------|
E|------------|------------|------------|------------|------------|------------|------------|


E|------------|------------|------------|------------|------------|------------|------------|
B|------------|------------|------------|------------|------------|------------|------------|
G|------------|------------|------------|------------|------------|------------|------------|
D|------------|------------|------------|------------|------------|------------|------------|
A|------------|------------|------------|------------|------------|------------|------------|
E|------------|------------|------------|------------|------------|------------|------------|


E|------------|------------|------------|------------|------------|------------|------------|
B|------------|------------|------------|------------|------------|------------|------------|
G|------------|------------|------------|------------|------------|------------|------------|
D|------------|------------|------------|------------|------------|------------|------------|
A|------------|------------|------------|------------|------------|------------|------------|
E|------------|------------|------------|------------|------------|------------|------------|


E|------------|------------|------------|------------|------------|------------|------------|
B|------------|------------|------------|------------|------------|------------|------------|
G|------------|------------|------------|------------|------------|------------|------------|
D|------------|------------|------------|------------|------------|------------|------------|
A|------------|------------|------------|------------|------------|------------|------------|
E|------------|------------|------------|------------|------------|------------|------------|


E|------------|------------|------------|------------|------------|------------|------------|
B|------------|------------|------------|------------|------------|------------|------------|
G|------------|------------|------------|------------|------------|------------|------------|
D|------------|------------|------------|------------|------------|------------|------------|
A|------------|------------|------------|------------|------------|------------|------------|
E|------------|------------|------------|------------|------------|------------|------------|


E|------------|------------|------------|------------|------------|------------|------------|
B|------------|------------|------------|------------|------------|------------|------------|
G|------------|------------|------------|------------|------------|------------|------------|
D|------------|------------|------------|------------|------------|------------|------------|
A|------------|------------|------------|------------|------------|------------|------------|
E|------------|------------|------------|------------|------------|------------|------------|


E|------------|------------|------------|------------|------------|------------|------------|
B|------------|------------|------------|------------|------------|------------|------------|
G|------------|------------|------------|------------|------------|------------|------------|
D|------------|------------|------------|------------|------------|------------|------------|
A|------------|------------|------------|------------|------------|------------|------------|
E|------------|------------|------------|------------|------------|------------|------------|


E|------------|------------|------------|----------------|----------------|----------------|
B|------------|------------|------------|----------------|----------------|----------------|
G|------------|------------|------------|-3----3----5----|-7----5----3----|-2----2----3----|
D|------------|------------|------------|----------------|----------------|----------------|
A|------------|------------|------------|----------------|----------------|----------------|
E|------------|------------|------------|----------------|----------------|----------------|


E|----------------|----------------|----------------|------------|--------|----------------|
B|----------------|----------------|----------------|------------|--------|----------------|
G|-5----3----2----|-0----0----2----|-3----2----0----|------------|--------|-3----3----5----|
D|----------------|----------------|----------------|-1----0-----|-0------|----------------|
A|----------------|----------------|----------------|------------|--------|----------------|
E|----------------|----------------|----------------|------------|--------|----------------|


E|----------------|----------------|----------------|----------------|----------------|
B|----------------|----------------|----------------|----------------|----------------|
G|-7----5----3----|-2----2----3----|-5----3----2----|-0----0----2----|-3----2----0----|
D|----------------|----------------|----------------|----------------|----------------|
A|----------------|----------------|----------------|----------------|----------------|
E|----------------|----------------|----------------|----------------|----------------|


E|------------|--------|------------|------------|------------|------------|------------|
B|------------|--------|------------|------------|------------|------------|------------|
G|------------|--------|------------|------------|------------|------------|------------|
D|-1----0-----|-0------|------------|------------|------------|------------|------------|
A|------------|--------|------------|------------|------------|------------|------------|
E|------------|--------|------------|------------|------------|------------|------------|


E|------------|------------|------------|------------|------------|------------|------------|
B|------------|------------|------------|------------|------------|------------|------------|
G|------------|------------|------------|------------|------------|------------|------------|
D|------------|------------|------------|------------|------------|------------|------------|
A|------------|------------|------------|------------|------------|------------|------------|
E|------------|------------|------------|------------|------------|------------|------------|


E|------------|------------|------------|------------|------------|------------|------------|
B|------------|------------|------------|------------|------------|------------|------------|
G|------------|------------|------------|------------|------------|------------|------------|
D|------------|------------|------------|------------|------------|------------|------------|
A|------------|------------|------------|------------|------------|------------|------------|
E|------------|------------|------------|------------|------------|------------|------------|


E|------------|------------|------------|------------|------------|------------|------------|
B|------------|------------|------------|------------|------------|------------|------------|
G|------------|------------|------------|------------|------------|------------|------------|
D|------------|------------|------------|------------|------------|------------|------------|
A|------------|------------|------------|------------|------------|------------|------------|
E|------------|------------|------------|------------|------------|------------|------------|


E|------------|------------|------------|------------|------------|------------|------------|
B|------------|------------|------------|------------|------------|------------|------------|
G|------------|------------|------------|------------|------------|------------|------------|
D|------------|------------|------------|------------|------------|------------|------------|
A|------------|------------|------------|------------|------------|------------|------------|
E|------------|------------|------------|------------|------------|------------|------------|


E|------------|------------|------------|------------|------------|------------|------------|
B|------------|------------|------------|------------|------------|------------|------------|
G|------------|------------|------------|------------|------------|------------|------------|
D|------------|------------|------------|------------|------------|------------|------------|
A|------------|------------|------------|------------|------------|------------|------------|
E|------------|------------|------------|------------|------------|------------|------------|


E|------------|------------|------------|------------|------------|------------|----------------|
B|------------|------------|------------|------------|------------|------------|----------------|
G|------------|------------|------------|------------|------------|------------|-8----8----8----|
D|------------|------------|------------|------------|------------|------------|----------------|
A|------------|------------|------------|------------|------------|------------|----------------|
E|------------|------------|------------|------------|------------|------------|----------------|


E|----------------|------------|--------|--------|--------|--------|--------|
B|----------------|------------|--------|--------|--------|--------|--------|
G|-8--------------|------------|--------|--------|--------|--------|--------|
D|------1----1----|-1----0-----|-0------|-0------|-0------|-0------|-0------|
A|----------------|------------|--------|--------|--------|--------|--------|
E|----------------|------------|--------|--------|--------|--------|--------|



← Back to top