Ring Of Steel

by Nocturnal Rites

Guitar Pro Tab  |  v3.00  |  Posted on March 29, 2007, 11:06 a.m. ← Back

Guitar Pro Tab Summary

Album

Tales of Mysteries & Imaginations

Song Author

unknown

Tabbed by

bohman20@hotmail.com

Instruments

1st → Dist. Guitar 1
2nd → Keyboard 00
3rd → Dist. Guitar 2
4th → Keyboard 02
5th → Keyboard 01
6th → Bassk 4
7th → Keyboard 03
8th → Drumsssion

File Size

10 KB

Views

1,198

Notice

Tab made by: Simon Bohman bohman20@hotmail.com Note: This tab is not a ripp-off of someone elses tab. This is made 100% by me and tabbed 100% by my ear. It's not 100% correct either, this is my version only. If you want more tabs, visit www.arealtabone.org. Thank you, SB Copyright � 2003 By Simon Bohman All Rights Reserved






Related guitar pro tabs

Tablature Sheet

Title: Ring Of Steel
Artist: Nocturnal Rites
Album: Tales of Mysteries & Imaginations
Author: 






Track 1: Dist. Guitar 1
Back to top
E|-----------------0---------------|---------------------------------|---------------------------------|
B|---------2---------------2-------|-----------------0---------------|-----------------2---------------|
G|-------------2-------2-----------|---------1---------------1-------|---------2---------------2-------|
D|-----2-----------------------2---|-------------2-------2-----------|-------------4-------4-----------|
A|-0-------------------------------|-----2-----------------------2---|-----4-----------------------2---|
E|---------------------------------|-0-------------------------------|-2-------------------------------|


E|-----------------4---------------|-----------------5---------------|-----------------0---------------|
B|---------------------------------|---------------------------------|---------2---------------2-------|
G|---------6---------------6-------|---------7---------------7-------|-------------2-------2-----------|
D|-----6-------6-------6-------6---|-----7-------7-------7-------7---|-----2-----------------------2---|
A|-4-------------------------------|-5-------------------------------|-0-------------------------------|
E|---------------------------------|---------------------------------|---------------------------------|


E|-----------------5---------------|-----------------7---------------|-----------------0---------------|
B|---------------------------------|---------------------------------|---------2---------------2-------|
G|---------7---------------7-------|---------9---------------9-------|-------------2-------2-----------|
D|-----7-------7-------7-------7---|-----9-------9-------9-------9---|-----2-----------------------2---|
A|-5-------------------------------|-7-------------------------------|-0-------------------------------|
E|---------------------------------|---------------------------------|---------------------------------|


E|---------------------------------|---------------------------------|-----------------4---------------|
B|-----------------0---------------|-----------------2---------------|---------------------------------|
G|---------1---------------1-------|---------2---------------2-------|---------6---------------6-------|
D|-------------2-------2-----------|-------------4-------4-----------|-----6-------6-------6-------6---|
A|-----2-----------------------2---|-----4-----------------------2---|-4-------------------------------|
E|-0-------------------------------|-2-------------------------------|---------------------------------|


E|-----------------5---------------|-----------------0---------------|-----------------5---------------|
B|---------------------------------|---------2---------------2-------|---------------------------------|
G|---------7---------------7-------|-------------2-------2-----------|---------7---------------7-------|
D|-----7-------7-------7-------7---|-----2-----------------------2---|-----7-------7-------7-------7---|
A|-5-------------------------------|-0-------------------------------|-5-------------------------------|
E|---------------------------------|---------------------------------|---------------------------------|


E|-----------------7---------------|-----------------0---------------|---------------------------------|
B|---------------------------------|---------2---------------2-------|-----------------0---------------|
G|---------9---------------9-------|-------------2-------2-----------|---------1---------------1-------|
D|-----9-------9-------9-------9---|-----2-----------------------2---|-------------2-------2-----------|
A|-7-------------------------------|-0-------------------------------|-----2-----------------------2---|
E|---------------------------------|---------------------------------|-0-------------------------------|


E|---------------------------------|-----------------4---------------|-----------------5---------------|
B|-----------------2---------------|---------------------------------|---------------------------------|
G|---------2---------------2-------|---------6---------------6-------|---------7---------------7-------|
D|-------------4-------4-----------|-----6-------6-------6-------6---|-----7-------7-------7-------7---|
A|-----4-----------------------2---|-4-------------------------------|-5-------------------------------|
E|-2-------------------------------|---------------------------------|---------------------------------|


E|-----------------0---------------|-----------------5---------------|-----------------7---------------|
B|---------2---------------2-------|---------------------------------|---------------------------------|
G|-------------2-------2-----------|---------7---------------7-------|---------9---------------9-------|
D|-----2-----------------------2---|-----7-------7-------7-------7---|-----9-------9-------9-------9---|
A|-0-------------------------------|-5-------------------------------|-7-------------------------------|
E|---------------------------------|---------------------------------|---------------------------------|


E|-----------------0---------------|---------------------------------|---------------------------------|
B|---------2---------------2-------|-----------------0---------------|-----------------2---------------|
G|-------------2-------2-----------|---------1---------------1-------|---------2---------------2-------|
D|-----2-----------------------2---|-------------2-------2-----------|-------------4-------4-----------|
A|-0-------------------------------|-----2-----------------------2---|-----4-----------------------2---|
E|---------------------------------|-0-------------------------------|-2-------------------------------|


E|-----------------4---------------|-----------------5---------------|-----------------0---------------|
B|---------------------------------|---------------------------------|---------2---------------2-------|
G|---------6---------------6-------|---------7---------------7-------|-------------2-------2-----------|
D|-----6-------6-------6-------6---|-----7-------7-------7-------7---|-----2-----------------------2---|
A|-4-------------------------------|-5-------------------------------|-0-------------------------------|
E|---------------------------------|---------------------------------|---------------------------------|


E|-----------------5---------------|-----------------7---------------|-----------------0---------------|
B|---------------------------------|---------------------------------|---------2---------------2-------|
G|---------7---------------7-------|---------9---------------9-------|-------------2-------2-----------|
D|-----7-------7-------7-------7---|-----9-------9-------9-------9---|-----2-----------------------2---|
A|-5-------------------------------|-7-------------------------------|-0-------------------------------|
E|---------------------------------|---------------------------------|---------------------------------|


E|---------------------------------|---------------------------------|-----------------4---------------|
B|-----------------0---------------|-----------------2---------------|---------------------------------|
G|---------1---------------1-------|---------2---------------2-------|---------6---------------6-------|
D|-------------2-------2-----------|-------------4-------4-----------|-----6-------6-------6-------6---|
A|-----2-----------------------2---|-----4-----------------------2---|-4-------------------------------|
E|-0-------------------------------|-2-------------------------------|---------------------------------|


E|-----------------5---------------|-----------------0---------------|-----------------5---------------|
B|---------------------------------|---------2---------------2-------|---------------------------------|
G|---------7---------------7-------|-------------2-------2-----------|---------7---------------7-------|
D|-----7-------7-------7-------7---|-----2-----------------------2---|-----7-------7-------7-------7---|
A|-5-------------------------------|-0-------------------------------|-5-------------------------------|
E|---------------------------------|---------------------------------|---------------------------------|


E|-----------------7---------------|-----------------0---------------|---------------------------------|
B|---------------------------------|---------2---------------2-------|-----------------0---------------|
G|---------9---------------9-------|-------------2-------2-----------|---------1---------------1-------|
D|-----9-------9-------9-------9---|-----2-----------------------2---|-------------2-------2-----------|
A|-7-------------------------------|-0-------------------------------|-----2-----------------------2---|
E|---------------------------------|---------------------------------|-0-------------------------------|


E|---------------------------------|-----------------4---------------|-----------------5---------------|
B|-----------------2---------------|---------------------------------|---------------------------------|
G|---------2---------------2-------|---------6---------------6-------|---------7---------------7-------|
D|-------------4-------4-----------|-----6-------6-------6-------6---|-----7-------7-------7-------7---|
A|-----4-----------------------2---|-4-------------------------------|-5-------------------------------|
E|-2-------------------------------|---------------------------------|---------------------------------|


E|-----------------0---------------|-----------------5---------------|-----------------7---------------|
B|---------2---------------2-------|---------------------------------|---------------------------------|
G|-------------2-------2-----------|---------7---------------7-------|---------9---------------9-------|
D|-----2-----------------------2---|-----7-------7-------7-------7---|-----9-------9-------9-------9---|
A|-0-------------------------------|-5-------------------------------|-7-------------------------------|
E|---------------------------------|---------------------------------|---------------------------------|









Track 2: Dist. Guitar 2
Back to top
E|--------|-----------------|--------|-----------------|--------|--------|--------|
B|--------|-----------------|--------|-----------------|--------|--------|--------|
G|--------|-----------------|--------|-----------------|--------|--------|--------|
D|--------|-----------------|--------|-----------------|--------|--------|--------|
A|-0------|-----------------|--------|-4-----4-----4---|-5------|-0------|-5------|
D|--------|-2-----2-----2---|-4------|-----------------|--------|--------|--------|


E|--------|--------|-----------------|--------|-----------------|--------|--------|
B|--------|--------|-----------------|--------|-----------------|--------|--------|
G|--------|--------|-----------------|--------|-----------------|--------|--------|
D|--------|--------|-----------------|--------|-----------------|--------|--------|
A|-7------|-0------|-----------------|--------|-4-----4-----4---|-5------|-0------|
D|--------|--------|-2-----2-----2---|-4------|-----------------|--------|--------|


E|--------|--------|--------|-----------------|--------|-----------------|--------|
B|--------|--------|--------|-----------------|--------|-----------------|--------|
G|--------|--------|--------|-----------------|--------|-----------------|--------|
D|--------|--------|--------|-----------------|--------|-----------------|--------|
A|-5------|-7------|-0------|-----------------|--------|-4-----4-----4---|-5------|
D|--------|--------|--------|-2-----2-----2---|-4------|-----------------|--------|


E|--------|--------|--------|--------|-----------------|--------|-----------------|
B|--------|--------|--------|--------|-----------------|--------|-----------------|
G|--------|--------|--------|--------|-----------------|--------|-----------------|
D|--------|--------|--------|--------|-----------------|--------|-----------------|
A|-0------|-5------|-7------|-0------|-----------------|--------|-4-----4-----4---|
D|--------|--------|--------|--------|-2-----2-----2---|-4------|-----------------|


E|--------|--------|--------|--------|--------|-----------------|--------|-----------------|
B|--------|--------|--------|--------|--------|-----------------|--------|-----------------|
G|--------|--------|--------|--------|--------|-----------------|--------|-----------------|
D|--------|--------|--------|--------|--------|-----------------|--------|-----------------|
A|-5------|-0------|-5------|-7------|-0------|-----------------|--------|-4-----4-----4---|
D|--------|--------|--------|--------|--------|-2-----2-----2---|-4------|-----------------|


E|--------|--------|--------|--------|--------|-----------------|--------|-----------------|
B|--------|--------|--------|--------|--------|-----------------|--------|-----------------|
G|--------|--------|--------|--------|--------|-----------------|--------|-----------------|
D|--------|--------|--------|--------|--------|-----------------|--------|-----------------|
A|-5------|-0------|-5------|-7------|-0------|-----------------|--------|-4-----4-----4---|
D|--------|--------|--------|--------|--------|-2-----2-----2---|-4------|-----------------|


E|--------|--------|--------|--------|
B|--------|--------|--------|--------|
G|--------|--------|--------|--------|
D|--------|--------|--------|--------|
A|-5------|-0------|-5------|-7------|
D|--------|--------|--------|--------|









Track 3: Keyboard 00
Back to top
G|--------|--------|--------|--------|--------|--------|--------|--------|--------|
D|--------|--------|--------|--------|--------|--------|--------|--------|--------|
A|--------|--------|--------|--------|--------|--------|--------|--------|--------|
E|--------|--------|--------|--------|--------|--------|--------|--------|-5------|
B|--------|--------|--------|--------|--------|--------|--------|--------|--------|


G|------------------------|--------|------------------------|--------|--------|--------|
D|------------------------|--------|------------------------|--------|--------|--------|
A|------------------------|--------|------------------------|--------|--------|--------|
E|------------------------|--------|------------------------|--------|-5------|--------|
B|-5----5----5----5---5---|-7------|-2----2----2----2---2---|-3------|--------|-3------|


G|--------|--------|------------------------|--------|------------------------|--------|
D|--------|--------|------------------------|--------|------------------------|--------|
A|-7------|--------|------------------------|--------|------------------------|--------|
E|--------|-5------|------------------------|--------|------------------------|--------|
B|--------|--------|-5----5----5----5---5---|-7------|-2----2----2----2---2---|-3------|


G|--------|--------|--------|--------|------------------------|--------|------------------------|
D|--------|--------|--------|--------|------------------------|--------|------------------------|
A|--------|--------|-7------|--------|------------------------|--------|------------------------|
E|-5------|--------|--------|-5------|------------------------|--------|------------------------|
B|--------|-3------|--------|--------|-5----5----5----5---5---|-7------|-2----2----2----2---2---|


G|--------|--------|--------|--------|--------|------------------------|--------|------------------------|
D|--------|--------|--------|--------|--------|------------------------|--------|------------------------|
A|--------|--------|--------|-7------|--------|------------------------|--------|------------------------|
E|--------|-5------|--------|--------|-5------|------------------------|--------|------------------------|
B|-3------|--------|-3------|--------|--------|-5----5----5----5---5---|-7------|-2----2----2----2---2---|


G|--------|--------|--------|--------|--------|------------------------|--------|------------------------|
D|--------|--------|--------|--------|--------|------------------------|--------|------------------------|
A|--------|--------|--------|-7------|--------|------------------------|--------|------------------------|
E|--------|-5------|--------|--------|-5------|------------------------|--------|------------------------|
B|-3------|--------|-3------|--------|--------|-5----5----5----5---5---|-7------|-2----2----2----2---2---|


G|--------|--------|--------|--------|
D|--------|--------|--------|--------|
A|--------|--------|--------|-7------|
E|--------|-5------|--------|--------|
B|-3------|--------|-3------|--------|









Track 4: Keyboard 01
Back to top
E|--------|--------|--------|--------|--------|--------|---------------------|----------------5----|
B|--------|-5------|-7------|--------|--------|--------|---------------------|------7----9---------|
G|--------|--------|--------|-6------|-7------|-2------|-6----4----6----7----|-9--------------2----|
D|-7------|-2------|-4------|--------|--------|--------|---------------------|------4----6---------|
A|-0------|--------|--------|-4------|-5------|-0------|-4----2----4----5----|-7-------------------|
E|--------|--------|--------|--------|--------|--------|---------------------|---------------------|


E|--------|--------|--------|--------|--------|--------|--------|--------|--------|
B|--------|-5------|-7------|--------|--------|--------|--------|--------|--------|
G|--------|--------|--------|-6------|-7------|-2------|-7------|-9------|--------|
D|-7------|-2------|-4------|--------|--------|--------|--------|--------|-7------|
A|-0------|--------|--------|-4------|-5------|-0------|-5------|-7------|-0------|
E|--------|--------|--------|--------|--------|--------|--------|--------|--------|


E|--------|--------|--------|--------|--------|--------|--------|--------|--------|
B|-5------|-7------|--------|--------|--------|--------|--------|--------|-5------|
G|--------|--------|-6------|-7------|-2------|-7------|-9------|--------|--------|
D|-2------|-4------|--------|--------|--------|--------|--------|-7------|-2------|
A|--------|--------|-4------|-5------|-0------|-5------|-7------|-0------|--------|
E|--------|--------|--------|--------|--------|--------|--------|--------|--------|


E|--------|--------|--------|--------|--------|--------|--------|--------|--------|
B|-7------|--------|--------|--------|--------|--------|--------|-5------|-7------|
G|--------|-6------|-7------|-2------|-7------|-9------|--------|--------|--------|
D|-4------|--------|--------|--------|--------|--------|-7------|-2------|-4------|
A|--------|-4------|-5------|-0------|-5------|-7------|-0------|--------|--------|
E|--------|--------|--------|--------|--------|--------|--------|--------|--------|


E|--------|--------|--------|--------|--------|--------|--------|--------|--------|
B|--------|--------|--------|--------|--------|--------|-5------|-7------|--------|
G|-6------|-7------|-2------|-7------|-9------|--------|--------|--------|-6------|
D|--------|--------|--------|--------|--------|-7------|-2------|-4------|--------|
A|-4------|-5------|-0------|-5------|-7------|-0------|--------|--------|-4------|
E|--------|--------|--------|--------|--------|--------|--------|--------|--------|


E|--------|--------|--------|--------|
B|--------|--------|--------|--------|
G|-7------|-2------|-7------|-9------|
D|--------|--------|--------|--------|
A|-5------|-0------|-5------|-7------|
E|--------|--------|--------|--------|









Track 5: Keyboard 02
Back to top
E|--------|--------|--------|--------|--------|--------|---------------------|----------------5----|
B|--------|-5------|-7------|--------|--------|--------|---------------------|------7----9---------|
G|--------|--------|--------|-6------|-7------|-2------|-6----4----6----7----|-9--------------2----|
D|-7------|-2------|-4------|--------|--------|--------|---------------------|------4----6---------|
A|-0------|--------|--------|-4------|-5------|-0------|-4----2----4----5----|-7-------------------|
E|--------|--------|--------|--------|--------|--------|---------------------|---------------------|


E|-5------|-7------|-4-----5-----|-4-----------|---------------------|--------|-------------|
B|--------|--------|-------------|-------5-----|-7----7----7----5----|-5------|-3-----2-----|
G|--------|--------|-------------|-------------|---------------------|--------|-------------|
D|--------|--------|-------------|-------------|---------------------|--------|-------------|
A|--------|--------|-------------|-------------|---------------------|--------|-------------|
E|--------|--------|-------------|-------------|---------------------|--------|-------------|


E|-------------|--------|---------------------|-----------------|-------------|--------|
B|-------------|--------|-----------2----3----|-----------------|-------------|--------|
G|-2-----1-----|-2------|-2----4--------------|-2-----2----4----|-2-----1-----|--------|
D|-------------|--------|---------------------|-----------------|-------------|-4------|
A|-------------|--------|---------------------|-----------------|-------------|--------|
E|-------------|--------|---------------------|-----------------|-------------|--------|


E|--------|--------|-------------|--------|--------|--------|--------|--------|--------|
B|--------|--------|-------------|--------|--------|--------|--------|--------|--------|
G|--------|--------|-------------|--------|--------|--------|--------|--------|--------|
D|-7------|--------|-------7-----|--------|--------|--------|--------|--------|--------|
A|--------|-5------|-7-----------|--------|--------|--------|--------|--------|--------|
E|--------|--------|-------------|--------|--------|--------|--------|--------|--------|


E|--------|--------|--------|--------|--------|--------|--------|--------|--------|
B|--------|--------|--------|--------|--------|--------|--------|--------|--------|
G|--------|--------|--------|--------|--------|--------|--------|--------|--------|
D|--------|--------|--------|--------|--------|--------|--------|--------|--------|
A|--------|--------|--------|--------|--------|--------|--------|--------|--------|
E|--------|--------|--------|--------|--------|--------|--------|--------|--------|


E|--------|--------|--------|--------|--------|--------|--------|--------|--------|
B|--------|--------|--------|--------|--------|--------|--------|--------|--------|
G|--------|--------|--------|--------|--------|--------|--------|--------|--------|
D|--------|--------|--------|--------|--------|--------|--------|--------|--------|
A|--------|--------|--------|--------|--------|--------|--------|--------|--------|
E|--------|--------|--------|--------|--------|--------|--------|--------|--------|









Track 6: Keyboard 03
Back to top
E|--------|--------|--------|--------|--------|--------|--------|--------|-5-------7-------9-------10------|
B|--------|--------|--------|--------|--------|--------|--------|--------|---------------------------------|
G|--------|--------|--------|--------|--------|--------|--------|--------|-----2-------4-------6-------7---|
D|--------|--------|--------|--------|--------|--------|--------|--------|---------------------------------|
A|--------|--------|--------|--------|--------|--------|--------|--------|---------------------------------|
E|--------|--------|--------|--------|--------|--------|--------|--------|---------------------------------|


E|-12------12--10--9-------9-------|---------4-------5-------7-------|-9-------9---7---5-------5-------|
B|---------------------12------10--|-7-------------------------------|---------------------9-------7---|
G|-----9---------------------------|-------------1-------2-------4---|-----6---------------------------|
D|---------------------------------|-----4---------------------------|---------------------------------|
A|---------------------------------|---------------------------------|---------------------------------|
E|---------------------------------|---------------------------------|---------------------------------|


E|---------------------------------|---------------------------------|---------------------------------|
B|-------------------------5-------|-5-------5---3---2-------2-------|-------------------------5-------|
G|-4-------6-------7---------------|---------------------4-------2---|-4-------6-------7---------------|
D|-----------------------------2---|-----2---------------------------|-----------------------------2---|
A|-----2-------4-------5-----------|---------------------------------|-----2-------4-------5-----------|
E|---------------------------------|---------------------------------|---------------------------------|


E|---------4-------5-------7-------|-5-------7-------9-------10------|-12------12--10--9-------9-------|
B|-7-------------------------------|---------------------------------|---------------------12------10--|
G|-------------1-------2-------4---|-----2-------4-------6-------7---|-----9---------------------------|
D|-----4---------------------------|---------------------------------|---------------------------------|
A|---------------------------------|---------------------------------|---------------------------------|
E|---------------------------------|---------------------------------|---------------------------------|


E|---------4-------5-------7-------|-9-------9---7---5-------5-------|---------------------------------|
B|-7-------------------------------|---------------------9-------7---|-------------------------5-------|
G|-------------1-------2-------4---|-----6---------------------------|-4-------6-------7---------------|
D|-----4---------------------------|---------------------------------|-----------------------------2---|
A|---------------------------------|---------------------------------|-----2-------4-------5-----------|
E|---------------------------------|---------------------------------|---------------------------------|


E|---------------------------------|---------------------------------|---------4-------5-------7-------|
B|-5-------5---3---2-------2-------|-------------------------5-------|-7-------------------------------|
G|---------------------4-------2---|-4-------6-------7---------------|-------------1-------2-------4---|
D|-----2---------------------------|-----------------------------2---|-----4---------------------------|
A|---------------------------------|-----2-------4-------5-----------|---------------------------------|
E|---------------------------------|---------------------------------|---------------------------------|


E|-5-------7-------9-------10------|-12------12--10--9-------9-------|---------4-------5-------7-------|
B|---------------------------------|---------------------12------10--|-7-------------------------------|
G|-----2-------4-------6-------7---|-----9---------------------------|-------------1-------2-------4---|
D|---------------------------------|---------------------------------|-----4---------------------------|
A|---------------------------------|---------------------------------|---------------------------------|
E|---------------------------------|---------------------------------|---------------------------------|


E|-9-------9---7---5-------5-------|---------------------------------|---------------------------------|
B|---------------------9-------7---|-------------------------5-------|-5-------5---3---2-------2-------|
G|-----6---------------------------|-4-------6-------7---------------|---------------------4-------2---|
D|---------------------------------|-----------------------------2---|-----2---------------------------|
A|---------------------------------|-----2-------4-------5-----------|---------------------------------|
E|---------------------------------|---------------------------------|---------------------------------|


E|---------------------------------|---------4-------5-------7-------|-5-------7-------9-------10------|
B|-------------------------5-------|-7-------------------------------|---------------------------------|
G|-4-------6-------7---------------|-------------1-------2-------4---|-----2-------4-------6-------7---|
D|-----------------------------2---|-----4---------------------------|---------------------------------|
A|-----2-------4-------5-----------|---------------------------------|---------------------------------|
E|---------------------------------|---------------------------------|---------------------------------|


E|-12------12--10--9-------9-------|---------4-------5-------7-------|-9-------9---7---5-------5-------|
B|---------------------12------10--|-7-------------------------------|---------------------9-------7---|
G|-----9---------------------------|-------------1-------2-------4---|-----6---------------------------|
D|---------------------------------|-----4---------------------------|---------------------------------|
A|---------------------------------|---------------------------------|---------------------------------|
E|---------------------------------|---------------------------------|---------------------------------|


E|---------------------------------|---------------------------------|---------------------------------|
B|-------------------------5-------|-5-------5---3---2-------2-------|-------------------------5-------|
G|-4-------6-------7---------------|---------------------4-------2---|-4-------6-------7---------------|
D|-----------------------------2---|-----2---------------------------|-----------------------------2---|
A|-----2-------4-------5-----------|---------------------------------|-----2-------4-------5-----------|
E|---------------------------------|---------------------------------|---------------------------------|


E|---------4-------5-------7-------|-5-------7-------9-------10------|-12------12--10--9-------9-------|
B|-7-------------------------------|---------------------------------|---------------------12------10--|
G|-------------1-------2-------4---|-----2-------4-------6-------7---|-----9---------------------------|
D|-----4---------------------------|---------------------------------|---------------------------------|
A|---------------------------------|---------------------------------|---------------------------------|
E|---------------------------------|---------------------------------|---------------------------------|


E|---------4-------5-------7-------|-9-------9---7---5-------5-------|---------------------------------|
B|-7-------------------------------|---------------------9-------7---|-------------------------5-------|
G|-------------1-------2-------4---|-----6---------------------------|-4-------6-------7---------------|
D|-----4---------------------------|---------------------------------|-----------------------------2---|
A|---------------------------------|---------------------------------|-----2-------4-------5-----------|
E|---------------------------------|---------------------------------|---------------------------------|


E|---------------------------------|---------------------------------|---------4-------5-------7-------|
B|-5-------5---3---2-------2-------|-------------------------5-------|-7-------------------------------|
G|---------------------4-------2---|-4-------6-------7---------------|-------------1-------2-------4---|
D|-----2---------------------------|-----------------------------2---|-----4---------------------------|
A|---------------------------------|-----2-------4-------5-----------|---------------------------------|
E|---------------------------------|---------------------------------|---------------------------------|









Track 7: Bass
Back to top
G|--------|--------|--------|--------|--------|--------|--------|--------|--------|
D|--------|--------|--------|--------|--------|--------|--------|--------|--------|
A|--------|--------|--------|--------|--------|--------|--------|--------|--------|
E|--------|--------|--------|--------|--------|--------|--------|--------|--------|


G|--------|--------|--------|--------|--------|--------|--------|--------|--------|
D|--------|--------|--------|--------|--------|--------|--------|--------|--------|
A|--------|--------|--------|--------|--------|--------|--------|--------|--------|
E|--------|--------|--------|--------|--------|--------|--------|--------|--------|


G|--------|--------|--------|--------|--------|--------|--------|--------|--------|
D|--------|--------|--------|--------|--------|--------|--------|--------|--------|
A|--------|--------|--------|--------|--------|--------|--------|--------|--------|
E|--------|--------|--------|--------|--------|--------|--------|--------|--------|


G|--------|--------|--------|--------|--------|--------|--------|--------|--------|
D|--------|--------|--------|--------|--------|--------|--------|--------|--------|
A|--------|--------|--------|--------|--------|--------|--------|--------|--------|
E|--------|--------|--------|--------|--------|--------|--------|--------|--------|


G|--------|--------|--------|--------|--------|--------|--------|--------|--------|
D|--------|--------|--------|--------|--------|--------|--------|--------|--------|
A|--------|--------|--------|--------|--------|--------|--------|--------|--------|
E|--------|--------|--------|--------|--------|--------|--------|--------|--------|


G|--------|--------|--------|
D|--------|--------|--------|
A|--------|--------|--------|
E|--------|--------|--------|









Track 8: Drums
Back to top
C|--------|--------|--------|--------|--------|--------|--------|--------|--------|
C|--------|--------|--------|--------|--------|--------|--------|--------|--------|
C|--------|--------|--------|--------|--------|--------|--------|--------|--------|
C|--------|--------|--------|--------|--------|--------|--------|--------|--------|
C|--------|--------|--------|--------|--------|--------|--------|--------|--------|
C|--------|--------|--------|--------|--------|--------|--------|--------|--------|


C|--------|--------|--------|--------|--------|--------|--------|--------|--------|
C|--------|--------|--------|--------|--------|--------|--------|--------|--------|
C|--------|--------|--------|--------|--------|--------|--------|--------|--------|
C|--------|--------|--------|--------|--------|--------|--------|--------|--------|
C|--------|--------|--------|--------|--------|--------|--------|--------|--------|
C|--------|--------|--------|--------|--------|--------|--------|--------|--------|


C|--------|--------|--------|--------|--------|--------|--------|--------|--------|
C|--------|--------|--------|--------|--------|--------|--------|--------|--------|
C|--------|--------|--------|--------|--------|--------|--------|--------|--------|
C|--------|--------|--------|--------|--------|--------|--------|--------|--------|
C|--------|--------|--------|--------|--------|--------|--------|--------|--------|
C|--------|--------|--------|--------|--------|--------|--------|--------|--------|


C|--------|--------|--------|--------|--------|--------|--------|--------|--------|
C|--------|--------|--------|--------|--------|--------|--------|--------|--------|
C|--------|--------|--------|--------|--------|--------|--------|--------|--------|
C|--------|--------|--------|--------|--------|--------|--------|--------|--------|
C|--------|--------|--------|--------|--------|--------|--------|--------|--------|
C|--------|--------|--------|--------|--------|--------|--------|--------|--------|


C|--------|--------|--------|--------|--------|--------|--------|--------|--------|
C|--------|--------|--------|--------|--------|--------|--------|--------|--------|
C|--------|--------|--------|--------|--------|--------|--------|--------|--------|
C|--------|--------|--------|--------|--------|--------|--------|--------|--------|
C|--------|--------|--------|--------|--------|--------|--------|--------|--------|
C|--------|--------|--------|--------|--------|--------|--------|--------|--------|


C|--------|--------|--------|
C|--------|--------|--------|
C|--------|--------|--------|
C|--------|--------|--------|
C|--------|--------|--------|
C|--------|--------|--------|



← Back to top