Can't Stop Loving You -

by Phil Collins

Guitar Pro Tab  |  v4.00  |  Posted on March 29, 2007, 10:58 a.m. ← Back

Guitar Pro Tab Summary

Album

unknown

Song Author

unknown

Tabbed by

Jo´┐Żl Houchet

Instruments

1st → Guitar Standard

File Size

9 KB

Views

4,976






Tablature Sheet

Title: Can't Stop Loving You - 
Artist: Phil Collins
Album: 
Author: 






Track 1: Guitar Standard
Back to top
E|---------0---0---1-------0-------|-----------------0---------------|-----------------------------------|
B|---------1---1---1-------1-------|---------3---3---0-------3-------|-------------1--1--3-------1-------|
G|-----0---0---0---0-------0-------|-----0---0---0---0-------0-------|-----2-------------2-------2-------|
D|---------------------------------|---------------------------------|-3-------3-------------3-------3---|
A|-3-------------------3-------3---|-----------------------------2---|-----------------------------------|
E|---------------------------------|-3-------------------3-----------|-----------------------------------|


E|---------------------------------|-----------------------------1---|-0-----------0-------------------|
B|-0-------------------------------|-------------------------1-------|-1---1---------------3-----------|
G|-0---2---0-----------------------|-----2-------0---2---------------|-0-------0-----------------------|
D|-------------2-----------0---2---|-3-------3-----------3-----------|-------------------------3-------|
A|---------------------2-----------|---------------------------------|-3---------------3-----------0---|
E|-0---------------0---------------|---------------------------------|---------------------------------|


E|-----------------------------1---|-0-----------0-------------------|---------0-------1-------0-------|
B|-------------------------1-------|-0---0---------------3-----------|---------1---1---1-------1-------|
G|-------------0---2---------------|-0-------0-----------------------|-----0---0---0---0-------0-------|
D|---------3-----------3-----------|-------------------------3---0---|---------------------------------|
A|-----3---------------------------|---------------------------------|-3-------------------3-------3---|
E|-1-------------------------------|-3---------------3---------------|---------------------------------|


E|-----------------0---------------|-----------------------------------|---------------------------------|
B|---------3---3---0-------3-------|-------------1--1--3-------1-------|-0-------------------------------|
G|-----0---0---0---0-------0-------|-----2-------------2-------2-------|-0---2---0-----------------------|
D|---------------------------------|-3-------3-------------3-------3---|-------------2-----------0---2---|
A|-----------------------------2---|-----------------------------------|---------------------2-----------|
E|-3-------------------3-----------|-----------------------------------|-0---------------0---------------|


E|-----------------------------1---|-0-----------0-------------------|-----------------------------1---|
B|-------------------------1-------|-1---1---------------3-----------|-------------------------1-------|
G|-----2-------0---2---------------|-0-------0-----------------------|-------------0---2---------------|
D|-3-------3-----------3-----------|-------------------------3-------|---------3-----------3-----------|
A|---------------------------------|-3---------------3-----------0---|-----3---------------------------|
E|---------------------------------|---------------------------------|-1-------------------------------|


E|-0-----------0-------------------|-----------------------------0---|-0---------------------------------|
B|-1---1---------------3---3-------|-1-------------------1-----------|-1-------------1---3-----------0---|
G|-0-------0-----------------------|-----2-----------2---------------|-0---------0-------0-------0-------|
D|---------------------------------|---------2-------2---------------|-----0-2---------------0-----------|
A|-3---------------------------2---|-0-----------0-----------0-------|-3---------------------------------|
E|-----------------0---------------|---------------------------------|-------------------3---------------|


E|-------------------------------------|-0-----------------3---------------|-1---0-------------------1---------|
B|-0-------------0---------------1--3--|-1-------------1---0-----------0---|-1-------1---------------1---1--3--|
G|-----------0---------------0---------|-0---------0-------0-------0-------|-2-----------2-------2---2---------|
D|-----0-2---------------0-------------|-----0-2---------------0-----------|-3---------------3-----------------|
A|-------------------------------------|-3---------------------------------|-----------------------------------|
E|-0-----------------3-----------------|-------------------3---------------|-----------------------------------|


E|-0-----------------3---------------|-1---0-------------------1---------|-0-----------------3---------------|
B|-1-------------1---0-----------0---|-1-------1---------------1---1--3--|-1-------------1---0-----------0---|
G|-0---------0-------0-------0-------|-2-----------2-------2---2---------|-0---------0-------0-------0-------|
D|-----0-2---------------0-----------|-3---------------3-----------------|-----0-2---------------0-----------|
A|-3---------------------------------|-----------------------------------|-3---------------------------------|
E|-------------------3---------------|-----------------------------------|-------------------3---------------|


E|-1---0-------------------0-------|---------------------------------|---------------------------------|
B|-1-------1-------------------3---|-3-----------------------3---1---|---------------------------------|
G|-2-----------2-------2-----------|-----3-------3-------------------|-----2-------2-------------------|
D|-3---------------3---------------|---------0-----------0-----------|-3-------3-----------------------|
A|---------------------------------|-1---------------1---------------|---------------------0---2---3---|
E|---------------------------------|---------------------------------|-----------------3---------------|


E|---------0---0---1-------0-------|-----------------0---------------|-----------------------------------|
B|---------1---1---1-------1-------|---------3---3---0-------3-------|-------------1--1--3-------1-------|
G|-----0---0---0---0-------0-------|-----0---0---0---0-------0-------|-----2-------------2-------2-------|
D|---------------------------------|---------------------------------|-3-------3-------------3-------3---|
A|-3-------------------3-------3---|-----------------------------2---|-----------------------------------|
E|---------------------------------|-3-------------------3-----------|-----------------------------------|


E|---------------------------------|-----------------------------1---|-0-----------0-------------------|
B|-0-------------------------------|-------------------------1-------|-1---1---------------3-----------|
G|-0---2---0-----------------------|-----2-------0---2---------------|-0-------0-----------------------|
D|-------------2-----------0---2---|-3-------3-----------3-----------|-------------------------3-------|
A|---------------------2-----------|---------------------------------|-3---------------3-----------0---|
E|-0---------------0---------------|---------------------------------|---------------------------------|


E|-----------------------------1---|-0-----------0-------------------|---------0-------1-------0-------|
B|-------------------------1-------|-0---0---------------3-----------|---------1---1---1-------1-------|
G|-------------0---2---------------|-0-------0-----------------------|-----0---0---0---0-------0-------|
D|---------3-----------3-----------|-------------------------3---0---|---------------------------------|
A|-----3---------------------------|---------------------------------|-3-------------------3-------3---|
E|-1-------------------------------|-3---------------3---------------|---------------------------------|


E|-----------------0---------------|-----------------------------------|---------------------------------|
B|---------3---3---0-------3-------|-------------1--1--3-------1-------|-0-------------------------------|
G|-----0---0---0---0-------0-------|-----2-------------2-------2-------|-0---2---0-----------------------|
D|---------------------------------|-3-------3-------------3-------3---|-------------2-----------0---2---|
A|-----------------------------2---|-----------------------------------|---------------------2-----------|
E|-3-------------------3-----------|-----------------------------------|-0---------------0---------------|


E|-----------------------------1---|-0-----------0-------------------|-----------------------------1---|
B|-------------------------1-------|-1---1---------------3-----------|-------------------------1-------|
G|-----2-------0---2---------------|-0-------0-----------------------|-------------0---2---------------|
D|-3-------3-----------3-----------|-------------------------3-------|---------3-----------3-----------|
A|---------------------------------|-3---------------3-----------0---|-----3---------------------------|
E|---------------------------------|---------------------------------|-1-------------------------------|


E|-0-----------0-------------------|-----------------------------0---|-0---------------------------------|
B|-1---1---------------3---3-------|-1-------------------1-----------|-1-------------1---3-----------0---|
G|-0-------0-----------------------|-----2-----------2---------------|-0---------0-------0-------0-------|
D|---------------------------------|---------2-------2---------------|-----0-2---------------0-----------|
A|-3---------------------------2---|-0-----------0-----------0-------|-3---------------------------------|
E|-----------------0---------------|---------------------------------|-------------------3---------------|


E|-------------------------------------|-0-----------------3---------------|-1---0-------------------1---------|
B|-0-------------0---------------1--3--|-1-------------1---0-----------0---|-1-------1---------------1---1--3--|
G|-----------0---------------0---------|-0---------0-------0-------0-------|-2-----------2-------2---2---------|
D|-----0-2---------------0-------------|-----0-2---------------0-----------|-3---------------3-----------------|
A|-------------------------------------|-3---------------------------------|-----------------------------------|
E|-0-----------------3-----------------|-------------------3---------------|-----------------------------------|


E|-0-----------------3---------------|-1---0-------------------1---------|-0-----------------3---------------|
B|-1-------------1---0-----------0---|-1-------1---------------1---1--3--|-1-------------1---0-----------0---|
G|-0---------0-------0-------0-------|-2-----------2-------2---2---------|-0---------0-------0-------0-------|
D|-----0-2---------------0-----------|-3---------------3-----------------|-----0-2---------------0-----------|
A|-3---------------------------------|-----------------------------------|-3---------------------------------|
E|-------------------3---------------|-----------------------------------|-------------------3---------------|


E|-1---0-------------------0-------|---------------------------------|---------------------------------|
B|-1-------1-------------------3---|-3-----------------------3---1---|---------------------------------|
G|-2-----------2-------2-----------|-----3-------3-------------------|-----2-------2-------------------|
D|-3---------------3---------------|---------0-----------0-----------|-3-------3-----------------------|
A|---------------------------------|-1---------------1---------------|---------------------0---2---3---|
E|---------------------------------|---------------------------------|-----------------3---------------|


E|---------------------------------|-----3---3---1---1---------------|---------------------------------|
B|-3---------------3---------------|-1-------------------3---3---1---|-3---------------3---------------|
G|-2---------------0---------------|---------------------------------|-2---------------0---------------|
D|-0-------------------------------|-------------0---3-----------2---|-0-------------------------------|
A|-----3---2---0-------0---2-------|-3-------------------------------|-----3---2---0-------0---2-------|
E|-----------------3-----------3---|---------------------------------|-----------------3-----------3---|


E|-----3---3---1---0---0---1---3---|---------------------------------|-----3---3---1---1---------------|
B|-1-------------------------------|-----1---3-----------------------|-1-------------------3---3---1---|
G|---------------------------------|---------------------------------|---------------------------------|
D|-------------0-------------------|-0-------------------------------|-------------0---3-----------2---|
A|-3---------------3---0---2---3---|-------------0-------0---2-------|-3-------------------------------|
E|---------------------------------|-----------------3-----------3---|---------------------------------|


E|-------------------------0---1---|---------------------------------|-5-----------------3-----------------|
B|-3---------------3---------------|---------------------------------|-------------------------------------|
G|-----3-------3-------3-----------|---------0---2---3---2---0-------|-----------0---2-------------0---2---|
D|---------0-----------------------|-3---3-----------3-----------3---|-----0-2---------------0-2-----------|
A|-1---------------1---------------|---------------------------------|-0-----------------0-----------------|
E|---------------------------------|---------------------------------|-------------------------------------|


E|-2-----------------0-----------------|---------2---2---3-------2-------|---------0---0---2-------0-------|
B|-------------------------------------|---------3---3---3-------3-------|---------2---2---2---------------|
G|-----------0---2-------------0---2---|-----2---2---2---2-------2-------|-----2---2---2---2---------------|
D|-----0-2---------------0-2-----------|-0-------------------0-------0---|---------------------------------|
A|-0-----------------0-----------------|---------------------------------|-0-------------------0-------0---|
E|-------------------------------------|---------------------------------|---------------------------------|


E|-------------------0---------------|---------------------------------|-----------------------------3---|
B|-------------3--3--0-------3-------|-2---0---------------------------|-----------------0-------3-------|
G|---------0---------0-------0-------|---------2-----------------------|---------0---2-------------------|
D|-----0-----------------------------|-4-----------0-------------------|-----0---------------0-----------|
A|-----------------------------------|-----------------4---2---0---2---|---------------------------------|
E|-3---------------------3-------3---|---------------------------------|-3-------------------------------|


E|-2-----------2-------0-----------|-----------------------------3---|-2-----------2-------0---0-------|
B|-3-------------------------------|-----------------0-------3-------|-3---------------------------3---|
G|-2---2---2---------------0-------|---------0---2-------------------|-2---2---2-----------------------|
D|-0---------------0-----------0---|-----0---------------0-----------|-0---------------4---------------|
A|---------------------------------|---------------------------------|---------------------------------|
E|---------------------------------|-3-------------------------------|---------------------------------|


E|-----------------------------2---|-2---------------0---------------|-----------------0--------------0--|
B|-3---------------0---3-----------|-3---------------2---------------|-----------------2-----------3-----|
G|-----2-------2-------------------|---------------------------------|-----------------2-----------------|
D|---------0-----------------------|-0-----------------------0---2---|-4---2-----------------------------|
A|-2---------------2-------2-------|-----4---2---2---0---4-----------|---------4---2---0---0---2---4-----|
E|---------------------------------|---------------------------------|-----------------------------------|


E|-2-------------2---5---------------|-3---2--------------------------0--|-2-------------2---5---------------|
B|-3---------3-------------------2---|-0-------3-------------------3-----|-3---------3-------------------2---|
G|-2---0-2-----------6-------2-------|-0-----------0-----------0---------|-2---0-2-----------6-------2-------|
D|-0---------------------2-----------|---------------------0-------------|-0---------------------2-----------|
A|-------------------0---------------|-----------------------------------|-------------------0---------------|
E|-----------------------------------|-3---------------3-----------------|-----------------------------------|


E|-3---2--------------------------0--|-2-------------2---5---------------|-3---2-------------------2---0---|
B|-0-------3-------------------3-----|-3---------3-------------------2---|-0-------3-----------------------|
G|-0-----------0-----------0---------|-2---0-2-----------6-------2-------|-0-----------0-------------------|
D|---------------------0-------------|-0---------------------2-----------|---------------------0-----------|
A|-----------------------------------|-------------------0---------------|---------------------------------|
E|-3---------------3-----------------|-----------------------------------|-3---------------3---------------|


E|---------------------------------|---------------------------------|-------------------------|
B|-3-----------------------3---1---|-1---------------3-------1-------|-3-----------------------|
G|-----3-------3-------3-----------|-2---2-------2---2-------2-------|-------------------------|
D|---------0-----------------------|-3-------3-----------3-------3---|-2-0-----0---------------|
A|-1---------------1---------------|---------------------------------|-------------------------|
E|---------------------------------|---------------------------------|-------------------------|


E|--------|
B|--------|
G|--------|
D|--------|
A|--------|
E|--------|



← Back to top