La belle dame sans regrets

by Sting

Guitar Pro Tab  |  v4.06  |  Posted on March 29, 2007, 11:01 a.m. ← Back

Guitar Pro Tab Summary

Album

Mercury Falling

Song Author

Sting and Dominic Miller

Tabbed by

ARJ van den Berg

Instruments

1st → Sting (lyrics)
2nd → Strings
3rd → Piano (solo+coda)
4th → Jazz guitar (coda)
5th → Guitar
6th → Percussion
7th → Bass
8th → Solo transcr. (see F5)

File Size

59 KB

Views

580

Lyrics

[ Verse 1 ] 1.+Dan-sons tu dis Et moi, je suis Mes pas sont gauches Mes pieds tu fauches Je crains les sots Je cherche en vain les mots Pour m'ex-pli-quer ta vie, a-lors. [ Verse 2 & 4 ] 2.+Tu ments, [Verse 3] 3.+Je pleure, tu ris Je chante, tu cries Tu semes les graines D'un mau-vais ch´┐Żne Mon ble s'en-vole Tu en a ras le bol J'at-tends, tou-jours Mes cris sont sourds [ Verse 2 & 4 ] 4.+Tu ments,

Notice

Note that the vocals (track 1) and guitar (track 4) are highly syncopic, causing rythmic ambiguity. I tabbed the piano-solo (track 2) more or less as it sounds with 5-tuplets to achieve a mild shuffle or articulation. Use track 7 (muted) to print-out and learn the solo (by heart) while listening to the original. This transcription is somewhat simplified and fingered as I play it on guitar.






Related guitar pro tabs

Tablature Sheet

Title: La belle dame sans regrets
Artist: Sting
Album: Mercury Falling
Author: Sting and Dominic Miller






Track 1: Sting (lyrics)
Back to top
E|--------|--------|--------|--------|--------|--------|--------|--------|--------|
B|--------|--------|--------|--------|--------|--------|--------|--------|--------|
G|--------|--------|--------|--------|--------|--------|--------|--------|--------|
D|--------|--------|--------|--------|--------|--------|--------|--------|--------|
A|--------|--------|--------|--------|--------|--------|--------|--------|--------|
E|--------|--------|--------|--------|--------|--------|--------|--------|--------|


E|--------|--------|--------|--------|--------|--------|--------|--------|--------|
B|--------|--------|--------|--------|--------|--------|--------|--------|--------|
G|--------|--------|--------|--------|--------|--------|--------|--------|--------|
D|--------|--------|--------|--------|--------|--------|--------|--------|--------|
A|--------|--------|--------|--------|--------|--------|--------|--------|--------|
E|--------|--------|--------|--------|--------|--------|--------|--------|--------|


E|--------|--------|--------|--------|--------|--------|--------|--------|--------------------|
B|--------|--------|--------|--------|--------|--------|--------|--------|--------------------|
G|--------|--------|--------|--------|--------|--------|--------|--------|----------------3---|
D|--------|--------|--------|--------|--------|--------|--------|--------|-----------0--------|
A|--------|--------|--------|--------|--------|--------|--------|--------|--------------------|
E|--------|--------|--------|--------|--------|--------|--------|--------|--------------------|


E|---------------------|-------------|------------------------|-------------|------------------------|
B|---------------------|-------------|------------------------|-------------|------------------------|
G|-3---------------2---|-2-----------|----------2---------0---|-0-----------|-----0----0----0----3---|
D|------------0--------|-------------|-----0---------0--------|-------------|------------------------|
A|---------------------|-------------|------------------------|-------------|------------------------|
E|---------------------|-------------|------------------------|-------------|------------------------|


E|---------------------|---------------------|---------------------|---------------------|
B|-----------------1---|-1----------0----3---|-3----------3--------|---------------------|
G|-3----------2--------|---------------------|-----------------3---|-3----------3----2---|
D|---------------------|---------------------|---------------------|---------------------|
A|---------------------|---------------------|---------------------|---------------------|
E|---------------------|---------------------|---------------------|---------------------|


E|---------------------|------------------------|---------------------|--------------------|
B|---------------------|-----1------------------|---------------------|--------------------|
G|-2----------2----2---|-2--------3----2----0---|-0----------0--------|-----------0----0---|
D|---------------------|------------------------|-----------------3---|-3-----3------------|
A|---------------------|------------------------|---------------------|--------------------|
E|---------------------|------------------------|---------------------|--------------------|


E|---------------------|-----------------|---------------------------|---------------------|
B|---------------------|-----------------|---------------------------|---------------------|
G|-0----------0--------|-----------------|----------0-------0----3---|-3----------0----0---|
D|-----------------4---|-4---------------|-----4---------------------|---------------------|
A|---------------------|-----------------|---------------------------|---------------------|
E|---------------------|-----------------|---------------------------|---------------------|


E|---------------------|-------------|------------------------|---------------------|
B|---------------------|-------------|------------------------|---------------------|
G|-0---------------0---|-0-----------|---------------0----0---|-0----------0----0---|
D|------------4--------|-------------|------------------------|---------------------|
A|---------------------|-------------|------------------------|---------------------|
E|---------------------|-------------|------------------------|---------------------|


E|---------------------|-------------|--------|--------|--------|--------|--------|
B|---------------------|-------------|--------|--------|--------|--------|--------|
G|-0---------------0---|-0-----------|--------|--------|--------|--------|--------|
D|------------4--------|-------------|--------|--------|--------|--------|--------|
A|---------------------|-------------|--------|--------|--------|--------|--------|
E|---------------------|-------------|--------|--------|--------|--------|--------|


E|--------|--------|--------|--------|--------|--------|--------|--------|--------|
B|--------|--------|--------|--------|--------|--------|--------|--------|--------|
G|--------|--------|--------|--------|--------|--------|--------|--------|--------|
D|--------|--------|--------|--------|--------|--------|--------|--------|--------|
A|--------|--------|--------|--------|--------|--------|--------|--------|--------|
E|--------|--------|--------|--------|--------|--------|--------|--------|--------|


E|--------|--------|--------|--------|--------|--------|--------|--------|--------|
B|--------|--------|--------|--------|--------|--------|--------|--------|--------|
G|--------|--------|--------|--------|--------|--------|--------|--------|--------|
D|--------|--------|--------|--------|--------|--------|--------|--------|--------|
A|--------|--------|--------|--------|--------|--------|--------|--------|--------|
E|--------|--------|--------|--------|--------|--------|--------|--------|--------|


E|--------|--------|--------|--------|--------|--------|--------|--------|--------|
B|--------|--------|--------|--------|--------|--------|--------|--------|--------|
G|--------|--------|--------|--------|--------|--------|--------|--------|--------|
D|--------|--------|--------|--------|--------|--------|--------|--------|--------|
A|--------|--------|--------|--------|--------|--------|--------|--------|--------|
E|--------|--------|--------|--------|--------|--------|--------|--------|--------|


E|--------|--------|--------|--------|--------|-----------------------|------------------------|
B|--------|--------|--------|--------|--------|-----------------------|------------------------|
G|--------|--------|--------|--------|--------|-------------3---------|----------2--2----------|
D|--------|--------|--------|--------|--------|-----------------------|-----0------------------|
A|--------|--------|--------|--------|--------|-----3-----------------|------------------------|
E|--------|--------|--------|--------|--------|-----------------------|------------------------|


E|-----------------------------|-------------|------------------------|---------------------|
B|-----------------------------|-------------|------------------------|-----------------1---|
G|-------------2-----2---------|-0-----------|-----0----0----0----3---|-3----------2--------|
D|------0--0------------0--0---|-------------|------------------------|---------------------|
A|-----------------------------|-------------|------------------------|---------------------|
E|-----------------------------|-------------|------------------------|---------------------|


E|--------------------|---------------------|---------------------|---------------------|
B|-1-----1---0----3---|-3----------3--------|---------------------|---------------------|
G|--------------------|-----------------3---|-3----------3----2---|-2----------2----2---|
D|--------------------|---------------------|---------------------|---------------------|
A|--------------------|---------------------|---------------------|---------------------|
E|--------------------|---------------------|---------------------|---------------------|


E|------------------------|---------------------|--------------------|-------------|
B|-----1------------------|---------------------|--------------------|-------------|
G|-2--------3----2----0---|-0----------0--------|-----------0----0---|-0-----------|
D|------------------------|-----------------3---|-3-----3------------|-------------|
A|------------------------|---------------------|--------------------|-------------|
E|------------------------|---------------------|--------------------|-------------|


E|------------------------|---------------------|---------------------|---------------------|
B|------------------------|---------------------|---------------------|---------------------|
G|--------------------0---|-0----------0----3---|-3----------0----0---|-0---------------0---|
D|-----4----4----4--------|---------------------|---------------------|------------4--------|
A|------------------------|---------------------|---------------------|---------------------|
E|------------------------|---------------------|---------------------|---------------------|


E|-------------|------------------------|---------------------|---------------------|
B|-------------|------------------------|---------------------|---------------------|
G|-0-----------|---------------0----0---|-0----------0----0---|-0---------------0---|
D|-------------|------------------------|---------------------|------------4--------|
A|-------------|------------------------|---------------------|---------------------|
E|-------------|------------------------|---------------------|---------------------|


E|-------------|------------------------|-----------------------------------|-------------|
B|-------------|------------------------|-----------------------------------|-------------|
G|-0-----------|--------------------0---|-0---0-----0-------0---2---3---2---|-2-----2-----|
D|-------------|------------------------|-----------------------------------|-------------|
A|-------------|------------------------|-----------------------------------|-------------|
E|-------------|------------------------|-----------------------------------|-------------|


E|--------|-----------------------|--------|-------------|--------|--------|--------|
B|--------|-----------------------|--------|-------------|--------|--------|--------|
G|--------|------------1---1--0---|-0------|-0-----------|--------|--------|--------|
D|--------|-----------------------|--------|-------------|--------|--------|--------|
A|--------|-----------------------|--------|-------------|--------|--------|--------|
E|--------|-----------------------|--------|-------------|--------|--------|--------|


E|-----------------|---------------------------|--------------------|---------------------------|
B|-----------------|---------------------------|--------------------|---------------------------|
G|-----------------|-2----0---2---0---0----0---|-0------------------|-2----0---2---0---0----0---|
D|-----------------|---------------------------|--------------------|---------------------------|
A|-------------3---|---------------------------|----------------3---|---------------------------|
E|-----------------|---------------------------|--------------------|---------------------------|


E|-------------|-------------------------------------|--------------------|------------------------------|
B|-------------|-------------------------------------|--------------------|------------------------------|
G|-2-----------|---------2----0--0---2---2---0---2---|-2---0----2---------|---------2----0---2---0---2---|
D|-------------|-----0-------------------------------|--------------------|-----1------------------------|
A|-------------|-------------------------------------|--------------------|------------------------------|
E|-------------|-------------------------------------|--------------------|------------------------------|


E|-----------------------|---------------------------|--------------------|------------------------|
B|-----------------------|---------------------------|--------------------|------------------------|
G|-2---0---2-------------|-2----0---2---2---0---0----|-0---0--------------|-2---0----2----0---0----|
D|-----------------------|---------------------------|--------------------|------------------------|
A|-------------------3---|---------------------------|----------------3---|------------------------|
E|-----------------------|---------------------------|--------------------|------------------------|


E|-----------------------|------------------------------|-------------------------|
B|-----------------------|------------------------------|-------------------------|
G|-0---0---2-----2-------|-0----0--0---2---2---0---2----|-0----2--2---------------|
D|-------------------0---|------------------------------|------------------1------|
A|-----------------------|------------------------------|-------------------------|
E|-----------------------|------------------------------|-------------------------|


E|----------------------------------|---------------------------|---------------------------------|
B|----------------------------------|---------------------------|---------------------------------|
G|-2----0---2---2---0---0---2---0---|-0---2---2-----2---2---2---|-2---2---2---2---2---2---2---2---|
D|----------------------------------|---------------------------|---------------------------------|
A|----------------------------------|---------------------------|---------------------------------|
E|----------------------------------|---------------------------|---------------------------------|


E|---------------------------------|---------------------------------|---------------------------------|
B|---------------------------------|---------------------------------|---------------------------------|
G|-2---2---2---2---2---2---2---2---|-2---2---2---2---2---2---2---2---|-2---2---2---2---2---2---2---2---|
D|---------------------------------|---------------------------------|---------------------------------|
A|---------------------------------|---------------------------------|---------------------------------|
E|---------------------------------|---------------------------------|---------------------------------|


E|---------------------------------|--------|--------|-------------3---|-3-----3----3---------|
B|---------------------------------|--------|--------|-----------------|------------------1---|
G|-2---2---2---2---2---2---2---2---|--------|--------|-----------------|----------------------|
D|---------------------------------|--------|--------|-----------------|----------------------|
A|---------------------------------|--------|--------|-----------------|----------------------|
E|---------------------------------|--------|--------|-----------------|----------------------|


E|------------3---|-3-----3----3---------|-------------|-3---3-----3----3-------|-------------|
B|-1--------------|------------------1---|-1-----------|--------------------1---|-1-----------|
G|----------------|----------------------|-------------|------------------------|-------------|
D|----------------|----------------------|-------------|------------------------|-------------|
A|----------------|----------------------|-------------|------------------------|-------------|
E|----------------|----------------------|-------------|------------------------|-------------|


E|-3---3-----3----3-------|-------------|-3---3-----3----3-------|-------------|--------|
B|--------------------1---|-1-----------|--------------------1---|-1-----------|--------|
G|------------------------|-------------|------------------------|-------------|--------|
D|------------------------|-------------|------------------------|-------------|--------|
A|------------------------|-------------|------------------------|-------------|--------|
E|------------------------|-------------|------------------------|-------------|--------|


E|--------|--------|--------|--------|--------|
B|--------|--------|--------|--------|--------|
G|--------|--------|--------|--------|--------|
D|--------|--------|--------|--------|--------|
A|--------|--------|--------|--------|--------|
E|--------|--------|--------|--------|--------|









Track 2: Piano (solo+coda)
Back to top
E|--------|--------|--------|--------|--------|--------|--------|--------|--------|
B|--------|--------|--------|--------|--------|--------|--------|--------|--------|
G|--------|--------|--------|--------|--------|--------|--------|--------|--------|
D|--------|--------|--------|--------|--------|--------|--------|--------|--------|
A|--------|--------|--------|--------|--------|--------|--------|--------|--------|
E|--------|--------|--------|--------|--------|--------|--------|--------|--------|


E|--------|--------|--------|--------|--------|--------|--------|--------|--------|
B|--------|--------|--------|--------|--------|--------|--------|--------|--------|
G|--------|--------|--------|--------|--------|--------|--------|--------|--------|
D|--------|--------|--------|--------|--------|--------|--------|--------|--------|
A|--------|--------|--------|--------|--------|--------|--------|--------|--------|
E|--------|--------|--------|--------|--------|--------|--------|--------|--------|


E|--------|--------|--------|--------|--------|--------|--------|--------|--------|
B|--------|--------|--------|--------|--------|--------|--------|--------|--------|
G|--------|--------|--------|--------|--------|--------|--------|--------|--------|
D|--------|--------|--------|--------|--------|--------|--------|--------|--------|
A|--------|--------|--------|--------|--------|--------|--------|--------|--------|
E|--------|--------|--------|--------|--------|--------|--------|--------|--------|


E|--------|--------|--------|--------|--------|--------|--------|--------|--------|
B|--------|--------|--------|--------|--------|--------|--------|--------|--------|
G|--------|--------|--------|--------|--------|--------|--------|--------|--------|
D|--------|--------|--------|--------|--------|--------|--------|--------|--------|
A|--------|--------|--------|--------|--------|--------|--------|--------|--------|
E|--------|--------|--------|--------|--------|--------|--------|--------|--------|


E|--------|--------|--------|--------|--------|--------|--------|--------|--------|
B|--------|--------|--------|--------|--------|--------|--------|--------|--------|
G|--------|--------|--------|--------|--------|--------|--------|--------|--------|
D|--------|--------|--------|--------|--------|--------|--------|--------|--------|
A|--------|--------|--------|--------|--------|--------|--------|--------|--------|
E|--------|--------|--------|--------|--------|--------|--------|--------|--------|


E|--------|--------|--------|--------|--------|-----------15------17------|-18----------|
B|--------|--------|--------|--------|--------|-------15------------------|-------------|
G|--------|--------|--------|--------|--------|---------------------------|-------------|
D|--------|--------|--------|--------|--------|---------------------------|-------------|
A|--------|--------|--------|--------|--------|---------------------------|-------------|
E|--------|--------|--------|--------|--------|---------------------------|-------------|


E|-17--18--17--15--14----------13--|-12-------12--10--------------|---------------------------|
B|---------------------16--15------|------13----------11----------|-------------------6---8---|
G|---------------------------------|----------------------12--9---|-7---7-----7---8-----------|
D|---------------------------------|------------------------------|---------------------------|
A|---------------------------------|------------------------------|---------------------------|
E|---------------------------------|------------------------------|---------------------------|


E|-------------------10--|-----------------------------|------------------------|------3----5---7----5---3----|
B|---------------8-------|-9----9---7-7----7---6-------|---------------0--------|-0---------------------------|
G|-8-----7---8-----------|-------------------------8---|-7-----0-----------5----|-----------------------------|
D|-----------------------|-----------------------------|-----------7------------|-----------------------------|
A|-----------------------|-----------------------------|------------------------|-----------------------------|
E|-----------------------|-----------------------------|------------------------|-----------------------------|


E|-3----9---11--12---11--9---|-8----10--11---10--8-------|-8-----------10------------------|
B|---------------------------|-----------------------10--|-----10--11------8-------8---7---|
G|---------------------------|---------------------------|---------------------7-----------|
D|---------------------------|---------------------------|---------------------------------|
A|---------------------------|---------------------------|---------------------------------|
E|---------------------------|---------------------------|---------------------------------|


E|---------3--3---5----6----8----10---|-14---17---15---15--------|-20------20--18--20--18--17--15--|
B|-7--6-------------------------------|--------------------------|---------------------------------|
G|------------------------------------|--------------------------|---------------------------------|
D|------------------------------------|--------------------------|---------------------------------|
A|------------------------------------|--------------------------|---------------------------------|
E|------------------------------------|--------------------------|---------------------------------|


E|-14--18--------------------------|-------------------------15--17--|-18------18----------------------|
B|-------------19------19----------|---------------------15----------|-----------------16------16------|
G|---------18------20----------20--|-----19------17--16--------------|---------------------------------|
D|-------------------------20------|-21------19----------------------|---------------------------------|
A|---------------------------------|---------------------------------|---------------------------------|
E|---------------------------------|---------------------------------|---------------------------------|


E|---------------------22-22---20--|-----20------20------------------|-----------------18-------15--|
B|-15---161514--15-15--------------|---------------------------------|-17------17-------------------|
G|---------------------------------|-----------------19------19------|------------------------------|
D|---------------------------------|---------------------------------|------------------------------|
A|---------------------------------|---------------------------------|------------------------------|
E|---------------------------------|---------------------------------|------------------------------|


E|-----15----------13---11--15--|-15-14-----13-13--11--10---9---8--------|-7---10--------------5---8---6---|
B|-------------15---------------|------------------------------------10--|---------8---7---6---------------|
G|------------------------------|----------------------------------------|---------------------------------|
D|------------------------------|----------------------------------------|---------------------------------|
A|------------------------------|----------------------------------------|---------------------------------|
E|------------------------------|----------------------------------------|---------------------------------|


E|-7---10--15--14--13--------|-14------15------17------------|-------------------------------------|
B|---------------------------|----------------------17-------|-------------------------------------|
G|---------------------------|--------------------------18---|-17---15--14---12--11----------------|
D|---------------------------|-------------------------------|------------------------13--12---10--|
A|---------------------------|-------------------------------|-------------------------------------|
E|---------------------------|-------------------------------|-------------------------------------|


E|--------------------------------------|-------------0---0---3---3--6----8--8---10---|
B|----------------------------------1---|-1---3---3-----------------------------------|
G|------7-----------0---0---3---3-------|---------------------------------------------|
D|-8--------8---------------------------|---------------------------------------------|
A|--------------------------------------|---------------------------------------------|
E|--------------------------------------|---------------------------------------------|


E|-11----------------------|--------------10------8---6-------|-----14--17--14--15--17--18--20--22----------|
B|-------------------------|------------------10----------7---|-8-----------------------------------23------|
G|------8----8---7---8-----|-7----6---7-----------------------|-----------------------------------------24--|
D|-------------------------|----------------------------------|---------------------------------------------|
A|-------------------------|----------------------------------|---------------------------------------------|
E|-------------------------|----------------------------------|---------------------------------------------|


E|-------------------------------------------------|------------------------|-22--23-22-21--22------20--18------|
B|-----22------------------------------------------|------------------------|-------------------22----------19--|
G|---------24--20------22--20----------------------|------------------------|-----------------------------------|
D|-24--------------22----------22--19--17--15--14--|-12--13--13--13---------|-----------------------------------|
A|-------------------------------------------------|------------------------|-----------------------------------|
E|-------------------------------------------------|------------------------|-----------------------------------|


E|-17--15-----------------------|-------------|--------|--------|--------|--------|
B|---------15-------------------|-------------|--------|--------|--------|--------|
G|-------------15--12-----------|-------------|--------|--------|--------|--------|
D|-------------------------12---|-------------|--------|--------|--------|--------|
A|------------------------------|-13----10----|--------|--------|--------|--------|
E|------------------------------|-------------|--------|--------|--------|--------|


E|--------|--------|--------|--------|--------|--------|--------|--------|--------|
B|--------|--------|--------|--------|--------|--------|--------|--------|--------|
G|--------|--------|--------|--------|--------|--------|--------|--------|--------|
D|--------|--------|--------|--------|--------|--------|--------|--------|--------|
A|--------|--------|--------|--------|--------|--------|--------|--------|--------|
E|--------|--------|--------|--------|--------|--------|--------|--------|--------|


E|--------|--------|--------|--------|--------|--------|--------|--------|--------|
B|--------|--------|--------|--------|--------|--------|--------|--------|--------|
G|--------|--------|--------|--------|--------|--------|--------|--------|--------|
D|--------|--------|--------|--------|--------|--------|--------|--------|--------|
A|--------|--------|--------|--------|--------|--------|--------|--------|--------|
E|--------|--------|--------|--------|--------|--------|--------|--------|--------|


E|----------------|----14---17---15-15----|--------|--------|--------|-------15--18------22--22--20--|
B|------------15--|-15--------------------|--------|--------|--------|-------------------------------|
G|----------------|-----------------------|--------|--------|--------|-------------------------------|
D|----------------|-----------------------|--------|--------|--------|-------------------------------|
A|----------------|-----------------------|--------|--------|--------|-------------------------------|
E|----------------|-----------------------|--------|--------|--------|-------------------------------|


E|-20----------|-----------17------20--20--18--|-18----------|-------18------17--15--|
B|-------------|-------16----------------------|-------------|-----------------------|
G|-------------|-------------------------------|-------------|-----------------------|
D|-------------|-------------------------------|-------------|-----------------------|
A|-------------|-------------------------------|-------------|-----------------------|
E|-------------|-------------------------------|-------------|-----------------------|


E|-11--------5------------|-6--------8-------------------|-------------24--|-24--15--18--22--22--24--24--22--23--|
B|------------------------|------9-------8---------------|-----------------|-------------------------------------|
G|------------------------|------------------8-------8---|-7---------------|-------------------------------------|
D|------------------------|----------------------10------|-----------------|-------------------------------------|
A|------------------------|------------------------------|-----------------|-------------------------------------|
E|------------------------|------------------------------|-------------24--|-24--15--18--22--22--24--24--22--23--|


E|-23--15--17--20--20--23--23--20--22--|-22--17---22---23---24--|-24--15--18--22------22------24--|
B|-------------------------------------|------------------------|---------------------------------|
G|-------------------------------------|------------------------|---------------------------------|
D|-------------------------------------|------------------------|---------------------------------|
A|-------------------------------------|------------------------|---------------------------------|
E|-23--15--17--20--20--23--23--20--22--|-22--17---22---23---24--|-24--15--18--22------22------24--|


E|-24--15--18--22--22--24--24--22--23--|-23--15--17--20--20--23--23--20--22--|-22--17---22---23---22--|
B|-------------------------------------|-------------------------------------|------------------------|
G|-------------------------------------|-------------------------------------|------------------------|
D|-------------------------------------|-------------------------------------|------------------------|
A|-------------------------------------|-------------------------------------|------------------------|
E|-24--15--18--22--22--24--24--22--23--|-23--15--17--20--20--23--23--20--22--|-22--17---22---23---22--|


E|-22--15--18-------22------24--|-24--15--18--22--22--24--24--22--23--|-23--15--17--20--20--23--23--20--22--|
B|------------------------------|-------------------------------------|-------------------------------------|
G|------------------------------|-------------------------------------|-------------------------------------|
D|------------------------------|-------------------------------------|-------------------------------------|
A|------------------------------|-------------------------------------|-------------------------------------|
E|-22--15--18-------22------24--|-24--15--18--22--22--24--24--22--23--|-23--15--17--20--20--23--23--20--22--|


E|-22--17------22--------|-22--15--18-------22------24--|-24--15--18--22--22--24--24--22--23--|
B|-----------------------|------------------------------|-------------------------------------|
G|-----------------------|------------------------------|-------------------------------------|
D|-----------------------|------------------------------|-------------------------------------|
A|-----------------------|------------------------------|-------------------------------------|
E|-22--17------22--------|-22--15--18-------22------24--|-24--15--18--22--22--24--24--22--23--|


E|-23--15--17--20--20--23--23--20--22--|-22--17---22---23---24--|-24--15--18--22------22------24--|
B|-------------------------------------|------------------------|---------------------------------|
G|-------------------------------------|------------------------|---------------------------------|
D|-------------------------------------|------------------------|---------------------------------|
A|-------------------------------------|------------------------|---------------------------------|
E|-23--15--17--20--20--23--23--20--22--|-22--17---22---23---24--|-24--15--18--22------22------24--|


E|-24--15--18--22--22--24--24--22--23--|-23--15--17--20--20--23--23--20--22--|-22--17---22---23---24--|
B|-------------------------------------|-------------------------------------|------------------------|
G|-------------------------------------|-------------------------------------|------------------------|
D|-------------------------------------|-------------------------------------|------------------------|
A|-------------------------------------|-------------------------------------|------------------------|
E|-24--15--18--22--22--24--24--22--23--|-23--15--17--20--20--23--23--20--22--|-22--17---22---23---24--|


E|-24--15--18--22------22------24--|-24--15--18--22--22--24--24--22--23--|-23--15--17--20--20--23--23--20--22--|
B|---------------------------------|-------------------------------------|-------------------------------------|
G|---------------------------------|-------------------------------------|-------------------------------------|
D|---------------------------------|-------------------------------------|-------------------------------------|
A|---------------------------------|-------------------------------------|-------------------------------------|
E|-24--15--18--22------22------24--|-24--15--18--22--22--24--24--22--23--|-23--15--17--20--20--23--23--20--22--|


E|-22--17---22---23---24--|-24--15--18--22------22------24--|-24--15--18--22--22--24--24--22--23--|
B|------------------------|---------------------------------|-------------------------------------|
G|------------------------|---------------------------------|-------------------------------------|
D|------------------------|---------------------------------|-------------------------------------|
A|------------------------|---------------------------------|-------------------------------------|
E|-22--17---22---23---24--|-24--15--18--22------22------24--|-24--15--18--22--22--24--24--22--23--|


E|-23--15--17--20--20--23--23--20--22--|-22--17---22---23---24--|-24--15--18--22------22------24--|
B|-------------------------------------|------------------------|---------------------------------|
G|-------------------------------------|------------------------|---------------------------------|
D|-------------------------------------|------------------------|---------------------------------|
A|-------------------------------------|------------------------|---------------------------------|
E|-23--15--17--20--20--23--23--20--22--|-22--17---22---23---24--|-24--15--18--22------22------24--|


E|-24--15--18--22--22--24--24--22--23--|-23--15--17--20--20--23--23--20--22--|-22--17---22---23---24--|
B|-------------------------------------|-------------------------------------|------------------------|
G|-------------------------------------|-------------------------------------|------------------------|
D|-------------------------------------|-------------------------------------|------------------------|
A|-------------------------------------|-------------------------------------|------------------------|
E|-24--15--18--22--22--24--24--22--23--|-23--15--17--20--20--23--23--20--22--|-22--17---22---23---24--|


E|-24--15--18--22------22------24--|-24--15--18--22--22--24--24--22--23--|-23--15--17--20--20--23--23--20--22--|
B|---------------------------------|-------------------------------------|-------------------------------------|
G|---------------------------------|-------------------------------------|-------------------------------------|
D|---------------------------------|-------------------------------------|-------------------------------------|
A|---------------------------------|-------------------------------------|-------------------------------------|
E|-24--15--18--22------22------24--|-24--15--18--22--22--24--24--22--23--|-23--15--17--20--20--23--23--20--22--|


E|-22--17---22---23---24--|-24--15--18--22------22------24--|-24--15--18--22--22--24--24--22--23--|
B|------------------------|---------------------------------|-------------------------------------|
G|------------------------|---------------------------------|-------------------------------------|
D|------------------------|---------------------------------|-------------------------------------|
A|------------------------|---------------------------------|-------------------------------------|
E|-22--17---22---23---24--|-24--15--18--22------22------24--|-24--15--18--22--22--24--24--22--23--|


E|-23--15--17--20--20--23--23--20--22--|-22--17---22---23---24--|
B|-------------------------------------|------------------------|
G|-------------------------------------|------------------------|
D|-------------------------------------|------------------------|
A|-------------------------------------|------------------------|
E|-23--15--17--20--20--23--23--20--22--|-22--17---22---23---24--|









Track 3: Strings
Back to top
E|--------|--------|--------|--------|--------|--------|--------|--------|--------|
B|--------|--------|--------|--------|--------|--------|--------|--------|--------|
G|--------|--------|--------|--------|--------|--------|--------|--------|--------|
D|--------|--------|--------|--------|--------|--------|--------|--------|--------|
A|--------|--------|--------|--------|--------|--------|--------|--------|--------|
E|--------|--------|--------|--------|--------|--------|--------|--------|--------|


E|--------|--------|--------|--------|--------|--------|--------|--------|--------|
B|--------|--------|--------|--------|--------|--------|--------|--------|--------|
G|--------|--------|--------|--------|--------|--------|--------|--------|--------|
D|--------|--------|--------|--------|--------|--------|--------|--------|--------|
A|--------|--------|--------|--------|--------|--------|--------|--------|--------|
E|--------|--------|--------|--------|--------|--------|--------|--------|--------|


E|--------|--------|--------|--------|--------|--------|--------|--------|--------|
B|--------|--------|--------|--------|--------|--------|--------|--------|--------|
G|--------|--------|--------|--------|--------|--------|--------|--------|--------|
D|--------|--------|--------|--------|--------|--------|--------|--------|--------|
A|--------|--------|--------|--------|--------|--------|--------|--------|--------|
E|--------|--------|--------|--------|--------|--------|--------|--------|--------|


E|--------|--------|--------|--------|--------|--------|--------|--------|--------|
B|--------|--------|--------|--------|--------|--------|--------|--------|-5------|
G|--------|--------|--------|--------|--------|--------|--------|--------|--------|
D|-5------|-4------|-3------|-2------|-1------|-0------|-5------|-5------|-2------|
A|--------|--------|--------|--------|--------|--------|--------|-8------|--------|
E|--------|--------|--------|--------|--------|--------|--------|--------|--------|


E|--------|--------|--------|-3------|-3------|-2------|--------|-3------|-3------|
B|-4------|-3------|-3------|-3------|-3------|-2------|-3------|-3------|-3------|
G|--------|--------|--------|--------|--------|--------|--------|--------|--------|
D|-1------|-0------|-0------|--------|--------|--------|--------|-0------|-0------|
A|--------|--------|--------|--------|--------|--------|--------|--------|--------|
E|--------|--------|--------|--------|--------|--------|--------|--------|--------|


E|--------|--------|-3------|-3------|--------|--------|--------|--------|--------|
B|-3------|-3------|-3------|-3------|-3------|-3------|--------|--------|--------|
G|-0------|--------|--------|--------|--------|--------|--------|--------|--------|
D|--------|-2------|-1------|-0------|-5------|-5------|-5------|-4------|-3------|
A|--------|--------|--------|--------|--------|--------|--------|--------|--------|
E|--------|--------|--------|--------|--------|--------|--------|--------|--------|


E|--------|--------|--------|--------|--------|--------|--------|--------|--------|
B|--------|--------|--------|--------|--------|-5------|-4------|-3------|-3------|
G|--------|--------|--------|--------|--------|--------|--------|--------|--------|
D|-2------|-1------|-0------|-5------|-5------|-2------|-1------|-0------|-0------|
A|--------|--------|--------|--------|-8------|--------|--------|--------|--------|
E|--------|--------|--------|--------|--------|--------|--------|--------|--------|


E|-3------|-3------|-2------|--------|--------|--------|--------|--------|--------|
B|-3------|-3------|-2------|-3------|--------|--------|--------|--------|--------|
G|--------|--------|--------|--------|--------|--------|--------|--------|--------|
D|--------|--------|--------|--------|-5------|-4------|-3------|-2------|-1------|
A|--------|--------|--------|--------|--------|--------|--------|--------|--------|
E|--------|--------|--------|--------|--------|--------|--------|--------|--------|


E|--------|--------|--------|--------|--------|--------|--------|-3------|-3------|
B|--------|--------|--------|-5------|-4------|-3------|-3------|-3------|-3------|
G|--------|--------|--------|--------|--------|--------|--------|--------|--------|
D|-0------|-5------|-5------|-2------|-1------|-0------|-0------|-0------|-0------|
A|--------|--------|-8------|--------|--------|--------|--------|--------|--------|
E|--------|--------|--------|--------|--------|--------|--------|--------|--------|


E|-3------|-3------|-3------|-3------|-3------|-3-----------|--------|--------|--------|
B|-3------|-3------|-3------|-3------|-3------|-3-----------|--------|--------|--------|
G|-0------|--------|--------|--------|--------|-------------|--------|--------|--------|
D|--------|--------|-1------|-0------|-5------|-5-----------|-5------|-4------|-3------|
A|--------|--------|--------|--------|--------|-------------|--------|--------|--------|
E|--------|--------|--------|--------|--------|-------------|--------|--------|--------|


E|--------|--------|--------|--------|--------|--------|--------|--------|--------|
B|--------|--------|--------|--------|--------|-5------|-4------|-3------|-3------|
G|--------|--------|--------|--------|--------|--------|--------|--------|--------|
D|-2------|-1------|-0------|-5------|-5------|-2------|-1------|-0------|-0------|
A|--------|--------|--------|--------|-8------|--------|--------|--------|--------|
E|--------|--------|--------|--------|--------|--------|--------|--------|--------|


E|-3------|-3------|-2------|--------|-3------|-3------|--------|--------|-3------|
B|-3------|-3------|-2------|-3------|-3------|-3------|-3------|-3------|-3------|
G|--------|--------|--------|--------|--------|--------|-0------|--------|--------|
D|--------|--------|--------|--------|-0------|-0------|--------|-2------|-1------|
A|--------|--------|--------|--------|--------|--------|--------|--------|--------|
E|--------|--------|--------|--------|--------|--------|--------|--------|--------|


E|-3------|--------|-3------|-3------|-3------|-3------|-3------|-3------|--------|
B|-3------|-3------|-3------|-3------|-3------|-3------|-3------|-3------|--------|
G|--------|--------|--------|--------|--------|--------|--------|--------|--------|
D|-0------|-5------|-2------|-1------|-0------|-0------|-0------|-0------|--------|
A|--------|--------|--------|--------|--------|--------|--------|--------|--------|
E|--------|--------|--------|--------|--------|--------|--------|--------|--------|


E|--------|--------|--------|------------------------------|-------------------------------------------------|
B|--------|--------|--------|--------------8---------------|-------------------------------------------------|
G|--------|--------|--------|------------------8-------8---|-2--2--2--2--2--2--2--2--2--2--2--2--2--2--2--2--|
D|--------|--------|--------|----------------------10------|-3--3--3--3--3--3--3--3--3--3--3--3--3--3--3--3--|
A|--------|--------|--------|------------------------------|-------------------------------------------------|
E|--------|--------|--------|------------------------------|-------------------------------------------------|


E|-------------------------------------------------|-------------------------------------------------|
B|-------------------------------------------------|-------------------------------------------------|
G|-0--0--0--0--0--0--0--0--0--0--0--0--0--0--0--0--|-------------------------------------------------|
D|-2--2--2--2--2--2--2--2--2--2--2--2--2--2--2--2--|-1--1--1--1--1--1--1--1--1--1--1--1--1--1--1--1--|
A|-------------------------------------------------|-3--3--3--3--3--3--3--3--3--3--3--3--3--3--3--3--|
E|-------------------------------------------------|-------------------------------------------------|


E|-------------------------------------------------|-------------------------------------------------|
B|-6--6--6--6--6--6--6--6--6--6--6--6--6--6--6--6--|-------------------------------------------------|
G|-------------------------------------------------|-2--2--2--2--2--2--2--2--2--2--2--2--2--2--2--2--|
D|-4--4--4--4--4--4--4--4--4--4--4--4--4--4--4--4--|-3--3--3--3--3--3--3--3--3--3--3--3--3--3--3--3--|
A|-------------------------------------------------|-------------------------------------------------|
E|-------------------------------------------------|-------------------------------------------------|


E|-------------------------------------------------|-------------------------------------------------|
B|-------------------------------------------------|-------------------------------------------------|
G|-0--0--0--0--0--0--0--0--0--0--0--0--0--0--0--0--|-------------------------------------------------|
D|-2--2--2--2--2--2--2--2--2--2--2--2--2--2--2--2--|-1--1--1--1--1--1--1--1--1--1--1--1--1--1--1--1--|
A|-------------------------------------------------|-3--3--3--3--3--3--3--3--3--3--3--3--3--3--3--3--|
E|-------------------------------------------------|-------------------------------------------------|


E|-------------------------------------------------|-------------------------------------------------|
B|-6--6--6--6--6--6--6--6--6--6--6--6--6--6--6--6--|-------------------------------------------------|
G|-------------------------------------------------|-2--2--2--2--2--2--2--2--2--2--2--2--2--2--2--2--|
D|-4--4--4--4--4--4--4--4--4--4--4--4--4--4--4--4--|-3--3--3--3--3--3--3--3--3--3--3--3--3--3--3--3--|
A|-------------------------------------------------|-------------------------------------------------|
E|-------------------------------------------------|-------------------------------------------------|


E|-------------------------------------------------|-------------------------------------------------|
B|-------------------------------------------------|-------------------------------------------------|
G|-0--0--0--0--0--0--0--0--0--0--0--0--0--0--0--0--|-------------------------------------------------|
D|-2--2--2--2--2--2--2--2--2--2--2--2--2--2--2--2--|-1--1--1--1--1--1--1--1--1--1--1--1--1--1--1--1--|
A|-------------------------------------------------|-3--3--3--3--3--3--3--3--3--3--3--3--3--3--3--3--|
E|-------------------------------------------------|-------------------------------------------------|


E|-------------------------------------------------|-------------------------------------------------|
B|-6--6--6--6--6--6--6--6--6--6--6--6--6--6--6--6--|-------------------------------------------------|
G|-------------------------------------------------|-2--2--2--2--2--2--2--2--2--2--2--2--2--2--2--2--|
D|-4--4--4--4--4--4--4--4--4--4--4--4--4--4--4--4--|-3--3--3--3--3--3--3--3--3--3--3--3--3--3--3--3--|
A|-------------------------------------------------|-------------------------------------------------|
E|-------------------------------------------------|-------------------------------------------------|


E|-------------------------------------------------|-------------------------------------------------|
B|-------------------------------------------------|-------------------------------------------------|
G|-0--0--0--0--0--0--0--0--0--0--0--0--0--0--0--0--|-------------------------------------------------|
D|-2--2--2--2--2--2--2--2--2--2--2--2--2--2--2--2--|-1--1--1--1--1--1--1--1--1--1--1--1--1--1--1--1--|
A|-------------------------------------------------|-3--3--3--3--3--3--3--3--3--3--3--3--3--3--3--3--|
E|-------------------------------------------------|-------------------------------------------------|


E|-------------------------------------------------|-------------------------------------------------|
B|-6--6--6--6--6--6--6--6--6--6--6--6--6--6--6--6--|-------------------------------------------------|
G|-------------------------------------------------|-2--2--2--2--2--2--2--2--2--2--2--2--2--2--2--2--|
D|-4--4--4--4--4--4--4--4--4--4--4--4--4--4--4--4--|-3--3--3--3--3--3--3--3--3--3--3--3--3--3--3--3--|
A|-------------------------------------------------|-------------------------------------------------|
E|-------------------------------------------------|-------------------------------------------------|


E|-------------------------------------------------|-------------------------------------------------|
B|-------------------------------------------------|-------------------------------------------------|
G|-0--0--0--0--0--0--0--0--0--0--0--0--0--0--0--0--|-------------------------------------------------|
D|-2--2--2--2--2--2--2--2--2--2--2--2--2--2--2--2--|-1--1--1--1--1--1--1--1--1--1--1--1--1--1--1--1--|
A|-------------------------------------------------|-3--3--3--3--3--3--3--3--3--3--3--3--3--3--3--3--|
E|-------------------------------------------------|-------------------------------------------------|


E|-------------------------------------------------|-------------------------------------------------|
B|-6--6--6--6--6--6--6--6--6--6--6--6--6--6--6--6--|-------------------------------------------------|
G|-------------------------------------------------|-2--2--2--2--2--2--2--2--2--2--3--3--2--2--3--3--|
D|-4--4--4--4--4--4--4--4--4--4--4--4--4--4--4--4--|-3--3--3--3--3--3--3--3--3--3--3--3--3--3--3--3--|
A|-------------------------------------------------|-------------------------------------------------|
E|-------------------------------------------------|-------------------------------------------------|


E|-------------------------------------------------|-------------------------------------------------|
B|-------------------------------------------------|-------------------------------------------------|
G|-2--2--3--3--2--2--3--3--2--2--3--3--2--2--3--3--|-------------------------------------------------|
D|-2--2--2--2--2--2--2--2--2--2--2--2--2--2--2--2--|-1--1--1--1--1--1--1--1--1--1--1--1--1--1--1--1--|
A|-------------------------------------------------|-3--3--3--3--3--3--3--3--3--3--3--3--3--3--3--3--|
E|-------------------------------------------------|-------------------------------------------------|


E|-------------------------------------------------|-------------------------------------------------|
B|-6--6--6--6--6--6--6--6--6--6--6--6--6--6--6--6--|-------------------------------------------------|
G|-------------------------------------------------|-2--2--2--2--2--2--2--2--2--2--2--2--2--2--2--2--|
D|-4--4--4--4--4--4--4--4--4--4--4--4--4--4--4--4--|-3--3--3--3--3--3--3--3--3--3--3--3--3--3--3--3--|
A|-------------------------------------------------|-------------------------------------------------|
E|-------------------------------------------------|-------------------------------------------------|


E|-------------------------------------------------|-------------------------------------------------|
B|-------------------------------------------------|-------------------------------------------------|
G|-0--0--0--0--0--0--0--0--0--0--0--0--0--0--0--0--|-------------------------------------------------|
D|-2--2--2--2--2--2--2--2--2--2--2--2--2--2--2--2--|-1--1--1--1--1--1--1--1--1--1--1--1--1--1--1--1--|
A|-------------------------------------------------|-3--3--3--3--3--3--3--3--3--3--3--3--3--3--3--3--|
E|-------------------------------------------------|-------------------------------------------------|


E|-------------------------------------------------|-------------------------------------------------|
B|-6--6--6--6--6--6--6--6--6--6--6--6--6--6--6--6--|-------------------------------------------------|
G|-------------------------------------------------|-2--2--2--2--2--2--2--2--2--2--2--2--2--2--2--2--|
D|-4--4--4--4--4--4--4--4--4--4--4--4--4--4--4--4--|-3--3--3--3--3--3--3--3--3--3--3--3--3--3--3--3--|
A|-------------------------------------------------|-------------------------------------------------|
E|-------------------------------------------------|-------------------------------------------------|


E|-------------------------------------------------|-------------------------------------------------|
B|-------------------------------------------------|-------------------------------------------------|
G|-0--0--0--0--0--0--0--0--0--0--0--0--0--0--0--0--|-------------------------------------------------|
D|-2--2--2--2--2--2--2--2--2--2--2--2--2--2--2--2--|-1--1--1--1--1--1--1--1--1--1--1--1--1--1--1--1--|
A|-------------------------------------------------|-3--3--3--3--3--3--3--3--3--3--3--3--3--3--3--3--|
E|-------------------------------------------------|-------------------------------------------------|


E|-------------------------------------------------|-------------------------------------------------|
B|-6--6--6--6--6--6--6--6--6--6--6--6--6--6--6--6--|-------------------------------------------------|
G|-------------------------------------------------|-2--2--2--2--2--2--2--2--2--2--2--2--2--2--2--2--|
D|-4--4--4--4--4--4--4--4--4--4--4--4--4--4--4--4--|-3--3--3--3--3--3--3--3--3--3--3--3--3--3--3--3--|
A|-------------------------------------------------|-------------------------------------------------|
E|-------------------------------------------------|-------------------------------------------------|


E|-------------------------------------------------|-------------------------------------------------|
B|-------------------------------------------------|-------------------------------------------------|
G|-0--0--0--0--0--0--0--0--0--0--0--0--0--0--0--0--|-------------------------------------------------|
D|-2--2--2--2--2--2--2--2--2--2--2--2--2--2--2--2--|-1--1--1--1--1--1--1--1--1--1--1--1--1--1--1--1--|
A|-------------------------------------------------|-3--3--3--3--3--3--3--3--3--3--3--3--3--3--3--3--|
E|-------------------------------------------------|-------------------------------------------------|


E|-------------------------------------------------|-------------------------------------------------|
B|-6--6--6--6--6--6--6--6--6--6--6--6--6--6--6--6--|-------------------------------------------------|
G|-------------------------------------------------|-2--2--2--2--2--2--2--2--2--2--2--2--2--2--2--2--|
D|-4--4--4--4--4--4--4--4--4--4--4--4--4--4--4--4--|-3--3--3--3--3--3--3--3--3--3--3--3--3--3--3--3--|
A|-------------------------------------------------|-------------------------------------------------|
E|-------------------------------------------------|-------------------------------------------------|


E|-------------------------------------------------|-------------------------------------------------|
B|-------------------------------------------------|-------------------------------------------------|
G|-0--0--0--0--0--0--0--0--0--0--0--0--0--0--0--0--|-------------------------------------------------|
D|-2--2--2--2--2--2--2--2--2--2--2--2--2--2--2--2--|-1--1--1--1--1--1--1--1--1--1--1--1--1--1--1--1--|
A|-------------------------------------------------|-3--3--3--3--3--3--3--3--3--3--3--3--3--3--3--3--|
E|-------------------------------------------------|-------------------------------------------------|


E|-------------------------------------------------|
B|-6--6--6--6--6--6--6--6--6--6--6--6--6--6--6--6--|
G|-------------------------------------------------|
D|-4--4--4--4--4--4--4--4--4--4--4--4--4--4--4--4--|
A|-------------------------------------------------|
E|-------------------------------------------------|









Track 4: Guitar
Back to top
E|--------|--------|--------|--------|--------|--------|--------|--------|--------|
B|--------|--------|--------|--------|--------|--------|--------|--------|--------|
G|--------|--------|--------|--------|--------|--------|--------|--------|--------|
D|--------|--------|--------|--------|--------|--------|--------|--------|--------|
A|--------|--------|--------|--------|--------|--------|--------|--------|--------|
E|--------|--------|--------|--------|--------|--------|--------|--------|--------|


E|--------|--------|-6---6---------6----5---|-5-------------5----5---|-5-------------5----3---|
B|--------|--------|----------4-------------|-----4----4-------------|-----3----3-------------|
G|--------|--------|----------5-------------|-----5----5-------------|-----3----3-------------|
D|--------|--------|------------------------|------------------------|-3---3------------------|
A|--------|--------|------------------------|------------------------|------------------------|
E|--------|--------|------------------------|------------------------|------------------------|


E|-3-------------3----3---|-3-------------3----6---|-6-------------5----8---|-8-------------7----10--|
B|-----3----3-------------|-----4----4-------------|-----4----4-------------|------------------------|
G|-----3----3-------------|-----5----5-------------|-----5----5-------------|-----7----7-------------|
D|-0---0------------------|------------------------|------------------------|-----9----9-------------|
A|------------------------|------------------------|------------------------|------------------------|
E|------------------------|------------------------|------------------------|------------------------|


E|-10------------10---6---|-6-------------6----5---|-5-------------5----5---|-5---8----6----5----3---|
B|------------------------|-----5----5-------------|-----4----4---------3---|-3----------------------|
G|-----7----7-------------|-----6----6-------------|-----5----5---------3---|-3----------------------|
D|-----9----9-------------|------------------------|------------------------|------------------------|
A|------------------------|------------------------|------------------------|------------------------|
E|------------------------|------------------------|------------------------|------------------------|


E|-3-------------3----3---|-3-------------3----3---|-3-------------2----3---|-3-------------3----3---|
B|-----3----3-------------|-----3----3-------------|-----3----3-------------|-----3----3-------------|
G|-----3----3-------------|-----3----3-------------|-----3----3-------------|-----3----3-------------|
D|------------------------|-2----------------------|-1----------------------|-0----------------------|
A|------------------------|------------------------|------------------------|------------------------|
E|------------------------|------------------------|------------------------|------------------------|


E|-3--------------6---|-6-------------6----5---|-5-------------5----5---|-5-------------5----3---|
B|-----------3--------|-----4----4-------------|-----4----4-------------|-----3----3-------------|
G|--------------------|-----5----5-------------|-----5----5-------------|-----3----3-------------|
D|--------------------|------------------------|------------------------|------------------------|
A|--------------------|------------------------|------------------------|------------------------|
E|--------------------|------------------------|------------------------|------------------------|


E|-3-------------3----3---|-3-------------3----6---|-6-------------5----8---|-8-------------7----10--|
B|-----3----3-------------|-----4----4-------------|-----4----4-------------|------------------------|
G|-----3----3-------------|-----5----5-------------|-----5----5-------------|-----7----7-------------|
D|------------------------|------------------------|------------------------|-----9----9-------------|
A|------------------------|------------------------|------------------------|------------------------|
E|------------------------|------------------------|------------------------|------------------------|


E|-10------------10---6---|-6-------------6----5---|-5-------------5----5---|-5---8----6----5----3---|
B|------------------------|-----5----5-------------|-----4----4---------3---|-3----------------------|
G|-----7----7-------------|-----6----6-------------|-----5----5---------3---|-3----------------------|
D|-----9----9-------------|------------------------|------------------------|------------------------|
A|------------------------|------------------------|------------------------|------------------------|
E|------------------------|------------------------|------------------------|------------------------|


E|-3-------------3----3---|-3-------------3----3---|-3-------------3----2---|-2-------------2----3---|
B|-----3----3-------------|-----3----3-------------|-----4----4-------------|-----2----2-------------|
G|-----3----3-------------|-----3----3-------------|-----3----3-------------|-----3----3-------------|
D|------------------------|------------------------|------------------------|------------------------|
A|------------------------|------------------------|------------------------|------------------------|
E|------------------------|------------------------|------------------------|------------------------|


E|-3-------------3----6---|-6-------------3----3---|-3-------------2----3---|-3-------------3----3---|
B|-----3----3-------------|-----3----3-------------|-----3----3-------------|-----3----3-------------|
G|-----3----3-------------|-----3----3-------------|-----3----3-------------|-----3----3-------------|
D|------------------------|------------------------|------------------------|------------------------|
A|------------------------|------------------------|------------------------|------------------------|
E|------------------------|------------------------|------------------------|------------------------|


E|-3-------------3----3---|-3-------------3----3---|-3-------------2----3---|-3-------------3----3---|
B|-----3----3-------------|-----3----3-------------|-----3----3-------------|-----3----3-------------|
G|-----3----3-------------|-----3----3-------------|-----3----3-------------|-----3----3-------------|
D|------------------------|------------------------|------------------------|------------------------|
A|------------------------|------------------------|------------------------|------------------------|
E|------------------------|------------------------|------------------------|------------------------|


E|-3------|------------------------|------------------------|------------------------|
B|--------|-----4----4----4----4---|-4---4----4----4----4---|-4---3----3----3----3---|
G|--------|-----5----5----5----5---|-5---5----5----5----5---|-5---3----3----3----3---|
D|--------|------------------------|------------------------|------------------------|
A|--------|------------------------|------------------------|------------------------|
E|--------|------------------------|------------------------|------------------------|


E|------------------------|------------------------|------------------------|------------------------|
B|-3---3----3----3----3---|-3---4----4----4----4---|-4---4----4----4----4---|-4---3----3----3----3---|
G|-3---3----3----3----3---|-3---5----5----5----5---|-5---5----5----5----5---|-5---4----4----4----4---|
D|------------------------|------------------------|------------------------|------------------------|
A|------------------------|------------------------|------------------------|------------------------|
E|------------------------|------------------------|------------------------|------------------------|


E|------------------------|------------------------|------------------------|------------------------|
B|-3---3----3----3----3---|-3---2----2----2----4---|-4---4----4----4----4---|-4---3----3----3----3---|
G|-4---4----4----4----4---|-4---3----3----3----5---|-5---5----5----5----5---|-5---3----3----3----3---|
D|------------------------|------------------------|------------------------|------------------------|
A|------------------------|------------------------|------------------------|------------------------|
E|------------------------|------------------------|------------------------|------------------------|


E|------------------------|------------------------|------------------------|------------------------|
B|-3---3----3----3----3---|-3---3----3----3----3---|-3---4----4----4----4---|-4---2----2----2----2---|
G|-3---3----3----3----3---|-3---3----3----3----3---|-3---3----3----3----3---|-3---3----3----3----3---|
D|------------------------|------------------------|------------------------|------------------------|
A|------------------------|------------------------|------------------------|------------------------|
E|------------------------|------------------------|------------------------|------------------------|


E|------------------------|------------------------|------------------------|------------------------|
B|-2----------------------|------------------------|------------------------|------------------------|
G|-3---2----2----2--------|-----5----5----5----5---|-5---5----5----5----5---|-5---3----3----3----3---|
D|-----4----4----4--------|-----5----5----5----4---|-4---4----4----4----4---|-4---3----3----3----2---|
A|------------------------|------------------------|------------------------|------------------------|
E|------------------------|------------------------|------------------------|------------------------|


E|------------------------|------------------------|------------------------|------------------------|
B|------------------------|------------------------|------------------------|------------------------|
G|-3---3----3----3----3---|-3----------------------|------------------------|-----4----4----4----4---|
D|-2---2----2----2----2---|-2---5----5----5----5---|-5---5----5----5----5---|-5---5----5----5----3---|
A|------------------------|-----6----6----6----5---|-5---5----5----5----5---|-5----------------------|
E|------------------------|------------------------|------------------------|------------------------|


E|------------------------|--------|--------|--------|--------|--------|--------|------------------------|
B|------------------------|--------|--------|--------|--------|--------|--------|------------------------|
G|-4---4----4----4--------|--------|--------|--------|--------|--------|--------|------------------------|
D|-3---3----3----3--------|--------|--------|--------|--------|--------|--------|-----5----5----5----5---|
A|------------------------|--------|--------|--------|--------|--------|--------|-----5----5----5----5---|
E|------------------------|--------|--------|--------|--------|--------|--------|------------------------|


E|------------------------|------------------------|------------------------|------------------------|
B|------------------------|------------------------|------------------------|------------------------|
G|------------------------|------------------------|------------------------|-----3----3----3----3---|
D|-5---5----5----5----5---|-5---5----5----5----5---|-5---5----5----5----5---|-5---5----5----5----5---|
A|-5---5----5----5----5---|-5---6----6----6----6---|-6---5----5----5----5---|-5----------------------|
E|------------------------|------------------------|------------------------|------------------------|


E|------------6---|-6-------------6----5---|-5-------------5----5---|-5-------------5----3---|
B|----------------|-----4----4-------------|-----4----4-------------|-----3----3-------------|
G|-3--------------|-----5----5-------------|-----5----5-------------|-----3----3-------------|
D|-5--------------|------------------------|------------------------|------------------------|
A|----------------|------------------------|------------------------|------------------------|
E|----------------|------------------------|------------------------|------------------------|


E|-3-------------3----3---|-3-------------3----6---|-6-------------5----8---|-8-------------7----10--|
B|-----3----3-------------|-----4----4-------------|-----4----4-------------|------------------------|
G|-----3----3-------------|-----5----5-------------|-----5----5-------------|-----7----7-------------|
D|------------------------|------------------------|------------------------|-----9----9-------------|
A|------------------------|------------------------|------------------------|------------------------|
E|------------------------|------------------------|------------------------|------------------------|


E|-10------------10---6---|-6-------------6----5---|-5-------------5----5---|-5---8----6----5----3---|
B|------------------------|-----5----5-------------|-----4----4---------3---|-3----------------------|
G|-----7----7-------------|-----6----6-------------|-----5----5---------3---|-3----------------------|
D|-----9----9-------------|------------------------|------------------------|------------------------|
A|------------------------|------------------------|------------------------|------------------------|
E|------------------------|------------------------|------------------------|------------------------|


E|-3-------------3----3---|-3-------------3----3---|-3-------------3----2---|-2-------------2----3---|
B|-----3----3-------------|-----3----3-------------|-----4----4-------------|-----2----2-------------|
G|-----3----3-------------|-----3----3-------------|-----3----3-------------|-----3----3-------------|
D|------------------------|------------------------|------------------------|------------------------|
A|------------------------|------------------------|------------------------|------------------------|
E|------------------------|------------------------|------------------------|------------------------|


E|-3-------------3----6---|-6-------------3----3---|-3-------------2----3---|-3-------------3----3---|
B|-----3----3-------------|-----3----3-------------|-----3----3-------------|-----3----3-------------|
G|-----3----3-------------|-----3----3-------------|-----3----3-------------|-----3----3-------------|
D|------------------------|------------------------|------------------------|------------------------|
A|------------------------|------------------------|------------------------|------------------------|
E|------------------------|------------------------|------------------------|------------------------|


E|-3-------------3----3---|-3-------------3----3---|-3-------------2----3---|-3-------------3----3---|
B|-----3----3-------------|-----3----3-------------|-----3----3-------------|-----3----3-------------|
G|-----3----3-------------|-----3----3-------------|-----3----3-------------|-----3----3-------------|
D|------------------------|------------------------|------------------------|------------------------|
A|------------------------|------------------------|------------------------|------------------------|
E|------------------------|------------------------|------------------------|------------------------|


E|-3-------------3----3---|-3------|--------|---------------------------|------------------------------|
B|-----3----3-------------|--------|--------|---------------------------|------------------------------|
G|-----3----3-------------|--------|--------|-3----3--------3-------3---|-----3-------3--------3-------|
D|------------------------|--------|--------|-3----3--------3-------2---|-----2-------2--------2-------|
A|------------------------|--------|--------|---------------------------|------------------------------|
E|------------------------|--------|--------|-----------3---------------|-3---------------3------------|


E|---------------------------|------------------------------|---------------------------------|
B|-4----4--------4-------6---|-----6-------6--------6-------|---------------------------------|
G|-3----3--------3-------5---|-----5-------5--------5-------|-3---3---3-------3---3-------3---|
D|-5----5--------5-------4---|-----4-------4--------4-------|-3---3---3-------3---3-------2---|
A|-----------3---------------|-5---------------5------------|-------------5-------------------|
E|---------------------------|------------------------------|---------------------------------|


E|------------------------|---------------------------------|------------------------------|
B|------------------------|-4---4---4-------4---4-------4---|-6---6---6-------6---6----6---|
G|-3---3----3---3----3----|-3---3---3-------3---3-------3---|-5---5---5-------5---5----5---|
D|-2---2----2---2----2----|-------------5-------------------|-4---4---4-------4---4----4---|
A|------------------------|---------------------------------|-------------5----------------|
E|------------------------|---------------------------------|------------------------------|


E|---------------------------------|------------------------|---------------------------------|
B|---------------------------------|------------------------|-4---4---4-------4---4-------4---|
G|-3---3---3-------3---3-------3---|-3---3----3---3----3----|-3---3---3-------3---3-------3---|
D|-3---3---3-------3---3-------2---|-2---2----2---2----2----|-------------5-------------------|
A|-------------5-------------------|------------------------|---------------------------------|
E|---------------------------------|------------------------|---------------------------------|


E|------------------------------|---------------------------------|------------------------|
B|-6---6---6-------6---6----6---|---------------------------------|------------------------|
G|-5---5---5-------5---5----5---|-3---3---3-------3---3-------3---|-3---3----3---3----3----|
D|-4---4---4-------4---4----4---|-3---3---3-------3---3-------2---|-2---2----2---2----2----|
A|-------------5----------------|-------------5-------------------|------------------------|
E|------------------------------|---------------------------------|------------------------|


E|---------------------------------|------------------------------|---------------------------------|
B|-4---4---4-------4---4-------4---|-6---6---6-------6---6----6---|---------------------------------|
G|-3---3---3-------3---3-------3---|-5---5---5-------5---5----5---|-3---3---3-------3---3-------3---|
D|-------------5-------------------|-4---4---4-------4---4----4---|-3---3---3-------3---3-------2---|
A|---------------------------------|-------------5----------------|-------------5-------------------|
E|---------------------------------|------------------------------|---------------------------------|


E|------------------------|---------------------------------|------------------------------|
B|------------------------|-4---4---4-------4---4-------4---|-6---6---6-------6---6----6---|
G|-3---3----3---3----3----|-3---3---3-------3---3-------3---|-5---5---5-------5---5----5---|
D|-2---2----2---2----2----|-------------5-------------------|-4---4---4-------4---4----4---|
A|------------------------|---------------------------------|-------------5----------------|
E|------------------------|---------------------------------|------------------------------|


E|---------------------------------|------------------------|---------------------------------|
B|---------------------------------|------------------------|-4---4---4-------4---4-------4---|
G|-3---3---3-------3---3-------3---|-3---3----3---3----3----|-3---3---3-------3---3-------3---|
D|-3---3---3-------3---3-------2---|-2---2----2---2----2----|-------------5-------------------|
A|-------------5-------------------|------------------------|---------------------------------|
E|---------------------------------|------------------------|---------------------------------|


E|------------------------------|---------------------------------|------------------------|
B|-6---6---6-------6---6----6---|---------------------------------|------------------------|
G|-5---5---5-------5---5----5---|-3---3---3-------3---3-------3---|-3---3----3---3----3----|
D|-4---4---4-------4---4----4---|-3---3---3-------3---3-------2---|-2---2----2---2----2----|
A|-------------5----------------|-------------5-------------------|------------------------|
E|------------------------------|---------------------------------|------------------------|


E|---------------------------------|------------------------------|---------------------------------|
B|-4---4---4-------4---4-------4---|-6---6---6-------6---6----6---|---------------------------------|
G|-3---3---3-------3---3-------3---|-5---5---5-------5---5----5---|-3---3---3-------3---3-------3---|
D|-------------5-------------------|-4---4---4-------4---4----4---|-3---3---3-------3---3-------2---|
A|---------------------------------|-------------5----------------|-------------5-------------------|
E|---------------------------------|------------------------------|---------------------------------|


E|------------------------|---------------------------------|------------------------------|
B|------------------------|-4---4---4-------4---4-------4---|-6---6---6-------6---6----6---|
G|-3---3----3---3----3----|-3---3---3-------3---3-------3---|-5---5---5-------5---5----5---|
D|-2---2----2---2----2----|-------------5-------------------|-4---4---4-------4---4----4---|
A|------------------------|---------------------------------|-------------5----------------|
E|------------------------|---------------------------------|------------------------------|


E|---------------------------------|------------------------|---------------------------------|
B|---------------------------------|------------------------|-4---4---4-------4---4-------4---|
G|-3---3---3-------3---3-------3---|-3---3----3---3----3----|-3---3---3-------3---3-------3---|
D|-3---3---3-------3---3-------2---|-2---2----2---2----2----|-------------5-------------------|
A|-------------5-------------------|------------------------|---------------------------------|
E|---------------------------------|------------------------|---------------------------------|


E|------------------------------|---------------------------------|------------------------|
B|-6---6---6-------6---6----6---|---------------------------------|------------------------|
G|-5---5---5-------5---5----5---|-3---3---3-------3---3-------3---|-3---3----3---3----3----|
D|-4---4---4-------4---4----4---|-3---3---3-------3---3-------2---|-2---2----2---2----2----|
A|-------------5----------------|-------------5-------------------|------------------------|
E|------------------------------|---------------------------------|------------------------|


E|---------------------------------|------------------------------|---------------------------------|
B|-4---4---4-------4---4-------4---|-6---6---6-------6---6----6---|---------------------------------|
G|-3---3---3-------3---3-------3---|-5---5---5-------5---5----5---|-3---3---3-------3---3-------3---|
D|-------------5-------------------|-4---4---4-------4---4----4---|-3---3---3-------3---3-------2---|
A|---------------------------------|-------------5----------------|-------------5-------------------|
E|---------------------------------|------------------------------|---------------------------------|


E|------------------------|---------------------------------|------------------------------|
B|------------------------|-4---4---4-------4---4-------4---|-6---6---6-------6---6----6---|
G|-3---3----3---3----3----|-3---3---3-------3---3-------3---|-5---5---5-------5---5----5---|
D|-2---2----2---2----2----|-------------5-------------------|-4---4---4-------4---4----4---|
A|------------------------|---------------------------------|-------------5----------------|
E|------------------------|---------------------------------|------------------------------|


E|---------------------------------|------------------------|---------------------------------|
B|---------------------------------|------------------------|-4---4---4-------4---4-------4---|
G|-3---3---3-------3---3-------3---|-3---3----3---3----3----|-3---3---3-------3---3-------3---|
D|-3---3---3-------3---3-------2---|-2---2----2---2----2----|-------------5-------------------|
A|-------------5-------------------|------------------------|---------------------------------|
E|---------------------------------|------------------------|---------------------------------|


E|------------------------------|
B|-6---6---6-------6---6----6---|
G|-5---5---5-------5---5----5---|
D|-4---4---4-------4---4----4---|
A|-------------5----------------|
E|------------------------------|









Track 5: Jazz guitar (coda)
Back to top
E|--------|--------|--------|--------|--------|--------|--------|--------|--------|
B|--------|--------|--------|--------|--------|--------|--------|--------|--------|
G|--------|--------|--------|--------|--------|--------|--------|--------|--------|
D|--------|--------|--------|--------|--------|--------|--------|--------|--------|
A|--------|--------|--------|--------|--------|--------|--------|--------|--------|
E|--------|--------|--------|--------|--------|--------|--------|--------|--------|


E|--------|--------|--------|--------|--------|--------|--------|--------|--------|
B|--------|--------|--------|--------|--------|--------|--------|--------|--------|
G|--------|--------|--------|--------|--------|--------|--------|--------|--------|
D|--------|--------|--------|--------|--------|--------|--------|--------|--------|
A|--------|--------|--------|--------|--------|--------|--------|--------|--------|
E|--------|--------|--------|--------|--------|--------|--------|--------|--------|


E|--------|--------|--------|--------|--------|--------|--------|--------|--------|
B|--------|--------|--------|--------|--------|--------|--------|--------|--------|
G|--------|--------|--------|--------|--------|--------|--------|--------|--------|
D|--------|--------|--------|--------|--------|--------|--------|--------|--------|
A|--------|--------|--------|--------|--------|--------|--------|--------|--------|
E|--------|--------|--------|--------|--------|--------|--------|--------|--------|


E|--------|--------|--------|--------|--------|--------|--------|--------|--------|
B|--------|--------|--------|--------|--------|--------|--------|--------|--------|
G|--------|--------|--------|--------|--------|--------|--------|--------|--------|
D|--------|--------|--------|--------|--------|--------|--------|--------|--------|
A|--------|--------|--------|--------|--------|--------|--------|--------|--------|
E|--------|--------|--------|--------|--------|--------|--------|--------|--------|


E|--------|--------|--------|--------|--------|--------|--------|--------|--------|
B|--------|--------|--------|--------|--------|--------|--------|--------|--------|
G|--------|--------|--------|--------|--------|--------|--------|--------|--------|
D|--------|--------|--------|--------|--------|--------|--------|--------|--------|
A|--------|--------|--------|--------|--------|--------|--------|--------|--------|
E|--------|--------|--------|--------|--------|--------|--------|--------|--------|


E|--------|--------|--------|--------|--------|--------|--------|--------|--------|
B|--------|--------|--------|--------|--------|--------|--------|--------|--------|
G|--------|--------|--------|--------|--------|--------|--------|--------|--------|
D|--------|--------|--------|--------|--------|--------|--------|--------|--------|
A|--------|--------|--------|--------|--------|--------|--------|--------|--------|
E|--------|--------|--------|--------|--------|--------|--------|--------|--------|


E|--------|--------|--------|--------|--------|--------|--------|--------|--------|
B|--------|--------|--------|--------|--------|--------|--------|--------|--------|
G|--------|--------|--------|--------|--------|--------|--------|--------|--------|
D|--------|--------|--------|--------|--------|--------|--------|--------|--------|
A|--------|--------|--------|--------|--------|--------|--------|--------|--------|
E|--------|--------|--------|--------|--------|--------|--------|--------|--------|


E|--------|--------|--------|--------|--------|--------|--------|--------|--------|
B|--------|--------|--------|--------|--------|--------|--------|--------|--------|
G|--------|--------|--------|--------|--------|--------|--------|--------|--------|
D|--------|--------|--------|--------|--------|--------|--------|--------|--------|
A|--------|--------|--------|--------|--------|--------|--------|--------|--------|
E|--------|--------|--------|--------|--------|--------|--------|--------|--------|


E|--------|--------|--------|--------|--------|--------|--------|--------|--------|
B|--------|--------|--------|--------|--------|--------|--------|--------|--------|
G|--------|--------|--------|--------|--------|--------|--------|--------|--------|
D|--------|--------|--------|--------|--------|--------|--------|--------|--------|
A|--------|--------|--------|--------|--------|--------|--------|--------|--------|
E|--------|--------|--------|--------|--------|--------|--------|--------|--------|


E|--------|--------|--------|--------|--------|--------|--------|--------|--------|
B|--------|--------|--------|--------|--------|--------|--------|--------|--------|
G|--------|--------|--------|--------|--------|--------|--------|--------|--------|
D|--------|--------|--------|--------|--------|--------|--------|--------|--------|
A|--------|--------|--------|--------|--------|--------|--------|--------|--------|
E|--------|--------|--------|--------|--------|--------|--------|--------|--------|


E|--------|--------|--------|--------|--------|--------|--------|--------|--------|
B|--------|--------|--------|--------|--------|--------|--------|--------|--------|
G|--------|--------|--------|--------|--------|--------|--------|--------|--------|
D|--------|--------|--------|--------|--------|--------|--------|--------|--------|
A|--------|--------|--------|--------|--------|--------|--------|--------|--------|
E|--------|--------|--------|--------|--------|--------|--------|--------|--------|


E|--------|--------|--------|--------|--------|--------|--------|--------|--------|
B|--------|--------|--------|--------|--------|--------|--------|--------|--------|
G|--------|--------|--------|--------|--------|--------|--------|--------|--------|
D|--------|--------|--------|--------|--------|--------|--------|--------|--------|
A|--------|--------|--------|--------|--------|--------|--------|--------|--------|
E|--------|--------|--------|--------|--------|--------|--------|--------|--------|


E|--------|--------|--------|--------|--------|--------|--------------------|--------------------|
B|--------|--------|--------|--------|--------|--------|-------8------------|-------8--------6---|
G|--------|--------|--------|--------|--------|--------|--------------------|--------------------|
D|--------|--------|--------|--------|--------|--------|--------------------|-------5------------|
A|--------|--------|--------|--------|--------|--------|--------------------|--------------------|
E|--------|--------|--------|--------|--------|--------|--------------------|--------------------|


E|------------------------|--------------------|--------------------|--------------------|
B|-6----6----8------------|-------8------------|-------8------------|-------8------------|
G|------------------------|--------------------|--------------------|--------------------|
D|-----------5------------|-------5------------|-------5------------|-------5------------|
A|------------------------|--------------------|--------------------|--------------------|
E|------------------------|--------------------|--------------------|--------------------|


E|--------------------|--------------------|--------------------|--------------------|
B|-------8------------|-------8------------|-------8------------|-------8------------|
G|--------------------|--------------------|--------------------|--------------------|
D|-------5------------|-------5------------|-------5------------|-------5------------|
A|--------------------|--------------------|--------------------|--------------------|
E|--------------------|--------------------|--------------------|--------------------|


E|--------------------|---------------------------|------------------------------|
B|-------8------------|--------------8------------|-----------------8------------|
G|-----------8--------|------------------7--------|------------------------------|
D|-------5------------|------8-------5------------|-----8-------8---5------------|
A|--------------------|---------------------------|------------------------------|
E|--------------------|---------------------------|------------------------------|


E|--------------------|--------------------|---------------------------------|----------------------------------|
B|-------8------------|-------8------------|-----------------8---------------|-----------------8----------------|
G|--------------------|--------------------|-7-----------7-------7-------9---|-------------7-------9------------|
D|-------5------------|-------5------------|-----5---8-------5---------------|-----5---8-------5----------------|
A|--------------------|--------------------|---------------------------------|----------------------------------|
E|--------------------|--------------------|---------------------------------|----------------------------------|


E|-------------------------------------|------------------------|------------------------------|
B|-----------------8-------------------|-----------8------------|-------------8----------------|
G|-8-----------5-------8-------5---7---|-------7----------------|-7---------------7--------9---|
D|-----5-----------5-------------------|-----------5------------|---------8---5----------------|
A|-------------------------------------|------------------------|------------------------------|
E|-------------------------------------|------------------------|------------------------------|


E|----------------------------------|-------------------------------------|------------------------|
B|-----------------8---5------------|-----------------8-------------------|-----------8------------|
G|-------------7--------------------|-8-------5---8-------8-------5---7---|-------7-------8--------|
D|-----5---8-------5----------------|-----5-----------5-------------------|-----------5------------|
A|----------------------------------|-------------------------------------|------------------------|
E|----------------------------------|-------------------------------------|------------------------|


E|---------------------------|----------------------------------|-------------------------------------|
B|--------------8------------|-----------------8---5------------|-----------------8-------------------|
G|------------------7--------|-------------7--------------------|-8-------5---8-------8-------5---7---|
D|------8-------5------------|-----5---8-------5----------------|-----5-----------5-------------------|
A|---------------------------|----------------------------------|-------------------------------------|
E|---------------------------|----------------------------------|-------------------------------------|


E|------------------------|---------------------------|----------------------------------|
B|-----------8------------|--------------8------------|-----------------8---5------------|
G|-------7-------8--------|------------------7--------|-------------7--------------------|
D|-----------5------------|------8-------5------------|-----5---8-------5----------------|
A|------------------------|---------------------------|----------------------------------|
E|------------------------|---------------------------|----------------------------------|


E|-------------------------------------|------------------------|---------------------------|
B|-----------------8-------------------|-----------8------------|--------------8------------|
G|-8-------5---8-------8-------5---7---|-------7-------8--------|------------------7--------|
D|-----5-----------5-------------------|-----------5------------|------8-------5------------|
A|-------------------------------------|------------------------|---------------------------|
E|-------------------------------------|------------------------|---------------------------|


E|----------------------------------|-------------------------------------|------------------------|
B|-----------------8---5------------|-----------------8-------------------|-----------8------------|
G|-------------7--------------------|-8-------5---8-------8-------5---7---|-------7-------8--------|
D|-----5---8-------5----------------|-----5-----------5-------------------|-----------5------------|
A|----------------------------------|-------------------------------------|------------------------|
E|----------------------------------|-------------------------------------|------------------------|


E|---------------------------|----------------------------------|-------------------------------------|
B|--------------8------------|-----------------8---5------------|-----------------8-------------------|
G|------------------7--------|-------------7--------------------|-8-------5---8-------8-------5---7---|
D|------8-------5------------|-----5---8-------5----------------|-----5-----------5-------------------|
A|---------------------------|----------------------------------|-------------------------------------|
E|---------------------------|----------------------------------|-------------------------------------|


E|------------------------|---------------------------|----------------------------------|
B|-----------8------------|--------------8------------|-----------------8---5------------|
G|-------7-------8--------|------------------7--------|-------------7--------------------|
D|-----------5------------|------8-------5------------|-----5---8-------5----------------|
A|------------------------|---------------------------|----------------------------------|
E|------------------------|---------------------------|----------------------------------|


E|-------------------------------------|------------------------|---------------------------|
B|-----------------8-------------------|-----------8------------|--------------8------------|
G|-8-------5---8-------8-------5---7---|-------7-------8--------|------------------7--------|
D|-----5-----------5-------------------|-----------5------------|------8-------5------------|
A|-------------------------------------|------------------------|---------------------------|
E|-------------------------------------|------------------------|---------------------------|


E|----------------------------------|-------------------------------------|------------------------|
B|-----------------8---5------------|-----------------8-------------------|-----------8------------|
G|-------------7--------------------|-8-------5---8-------8-------5---7---|-------7-------8--------|
D|-----5---8-------5----------------|-----5-----------5-------------------|-----------5------------|
A|----------------------------------|-------------------------------------|------------------------|
E|----------------------------------|-------------------------------------|------------------------|









Track 6: Bass
Back to top
G|--------|--------|--------|--------|--------|--------|--------|--------|--------|
D|--------|--------|--------|--------|--------|--------|--------|--------|--------|
A|--------|--------|--------|--------|--------|--------|--------|--------|--------|
E|--------|--------|--------|--------|--------|--------|--------|--------|--------|


G|--------|--------|-----------------|-----------------|-----------------|-----------------|
D|--------|--------|-------5---5-----|-------7---7-----|-----------------|-5---------------|
A|--------|--------|-3---------------|-5---------------|-------5---5-----|-------5---5-----|
E|--------|--------|-----------------|-----------------|-3---------------|-----------------|


G|-----------------|-----------------|-----------------|-----------------|-----------------|
D|-----------------|-----------------|-5-----5---5-----|-3-----3---3-----|-2-----2---2-----|
A|-6-----6---6-----|-5-----5---5-----|-----------------|-----------------|-----------------|
E|-----------------|-----------------|-----------------|-----------------|-----------------|


G|-----------------|-----------------|-----------------|-----------------|-----------------|
D|-1-----1---1-----|-----------------|-5-----5---5-----|-----------------|-----------------|
A|-----------------|-5-----5---5-----|-----------------|-3-----3---3-----|-5-----5---5-----|
E|-----------------|-----------------|-----------------|-----------------|-----------------|


G|---------------------|--------|-----------------|-----------------|-----------------|
D|-5-----5---5----5----|--------|-------5---5-----|-------7---7-----|-----------------|
A|---------------------|--------|-3---------------|-5---------------|-------5---5-----|
E|---------------------|-3------|-----------------|-----------------|-3---------------|


G|-----------------|-----------------|-----------------|-----------------|-----------------|
D|-5---------------|-----------------|-----------------|-5-----5---5-----|-3-----3---3-----|
A|-------5---5-----|-6-----6---6-----|-5-----5---5-----|-----------------|-----------------|
E|-----------------|-----------------|-----------------|-----------------|-----------------|


G|-----------------|-----------------|-----------------|-----------------|-----------------|
D|-2-----2---2-----|-1-----1---1-----|-----------------|-5-----5---5-----|-2-----2---2-----|
A|-----------------|-----------------|-5-----5---5-----|-----------------|-----------------|
E|-----------------|-----------------|-----------------|-----------------|-----------------|


G|-----------------|-----------------|-----------------|-----------------|-----------------|
D|-4-----4---4-----|-----------------|-3-----3---3-----|-----------------|-----------------|
A|-----------------|-2-----2---2-----|-----------------|-3-----3---3-----|-5-----5---5-----|
E|-----------------|-----------------|-----------------|-----------------|-----------------|


G|-----------------|-----------------|-----------------|-----------------|-----------------|
D|-5-----5---5-----|-2-----2---2-----|-1-----1---1-----|-----------------|-5-----5---5-----|
A|-----------------|-----------------|-----------------|-5-----5---5-----|-----------------|
E|-----------------|-----------------|-----------------|-----------------|-----------------|


G|-------------|-----------------|-----------------|-----------------|-----------------|
D|-5-----------|-------5---5-----|-------7---7-----|-----------------|-5---------------|
A|-------------|-3---------------|-5---------------|-------5---5-----|-------5---5-----|
E|-------------|-----------------|-----------------|-3---------------|-----------------|


G|-----------------|-----------------|-----------------|-----------------|-----------------|
D|-----------------|-----------------|-5-----5---5-----|-3-----3---3-----|-2-----2---2-----|
A|-6-----6---6-----|-5-----5---5-----|-----------------|-----------------|-----------------|
E|-----------------|-----------------|-----------------|-----------------|-----------------|


G|-----------------|-----------------|-----------------|-----------------|-----------------|
D|-1-----1---1-----|-----------------|-5-----5---5-----|-2-----2---2-----|-4-----4---4-----|
A|-----------------|-5-----5---5-----|-----------------|-----------------|-----------------|
E|-----------------|-----------------|-----------------|-----------------|-----------------|


G|-----------------|-----------------|-----------------|-----------------|-------7---7-----|
D|-----------------|-3-----3---3-----|-------5---5-----|-------7---7-----|-5---------------|
A|-2-----2---2-----|-----------------|-3---------------|-5---------------|-----------------|
E|-----------------|-----------------|-----------------|-----------------|-----------------|


G|-----------------|-----------------|-----------------|-----------------|-----------------|
D|-5---------------|-----------------|-----------------|-5-----5---5-----|-3-----3---3-----|
A|-----------------|-6-----6---6-----|-5-----5---5-----|-----------------|-----------------|
E|-------3---3-----|-----------------|-----------------|-----------------|-----------------|


G|-----------------|-----------------|-----------------|-----------------|-----------------|
D|-2-----2---2-----|-1-----1---1-----|-----------------|-5-----5---5-----|-----------------|
A|-----------------|-----------------|-5-----5---5-----|-----------------|-3-----3---3-----|
E|-----------------|-----------------|-----------------|-----------------|-----------------|


G|-----------------|-----------------|-----------------|-----------------|-----------------|
D|-----------------|-5-----5---5-----|-2-----2---2-----|-1-----1---1-----|-----------------|
A|-5-----5---5-----|-----------------|-----------------|-----------------|-5-----5---5-----|
E|-----------------|-----------------|-----------------|-----------------|-----------------|


G|-----------------|-------------|-----------------|-----------------|-----------------|
D|-5-----5---5-----|-------------|-------5---5-----|-------7---7-----|-----------------|
A|-----------------|-------------|-3---------------|-5---------------|-------5---5-----|
E|-----------------|-3-----------|-----------------|-----------------|-3---------------|


G|-----------------|-----------------|-----------------|-----------------|-----------------|
D|-5---------------|-----------------|-----------------|-5-----5---5-----|-3-----3---3-----|
A|-------5---5-----|-6-----6---6-----|-5-----5---5-----|-----------------|-----------------|
E|-----------------|-----------------|-----------------|-----------------|-----------------|


G|-----------------|-----------------|-----------------|-----------------|-----------------|
D|-2-----2---2-----|-1-----1---1-----|-----------------|-5-----5---5-----|-2-----2---2-----|
A|-----------------|-----------------|-5-----5---5-----|-----------------|-----------------|
E|-----------------|-----------------|-----------------|-----------------|-----------------|


G|-----------------|-----------------|-----------------|-----------------|-----------------|
D|-4-----4---4-----|-----------------|-3-----3---3-----|-----------------|-----------------|
A|-----------------|-2-----2---2-----|-----------------|-3-----3---3-----|-5-----5---5-----|
E|-----------------|-----------------|-----------------|-----------------|-----------------|


G|-----------------|-----------------|-----------------|-----------------|-----------------|
D|-5-----5---5-----|-2-----2---2-----|-1-----1---1-----|-----------------|-5-----5---5-----|
A|-----------------|-----------------|-----------------|-5-----5---5-----|-----------------|
E|-----------------|-----------------|-----------------|-----------------|-----------------|


G|-----------------|--------|--------|--------|--------|--------|-------------|---------------------|
D|-2-----2---2-----|-1------|-0------|--------|--------|--------|-------------|-----------------7---|
A|-----------------|--------|--------|--------|--------|--------|-------------|-------5---5---------|
E|-----------------|--------|--------|--------|--------|--------|-------8-----|-3-------------------|


G|---------------------|------------------------|--------------------|---------------------|
D|-7-----5---5---------|-------5---5------------|-------7----5-------|-----------------7---|
A|-----------------5---|-3--------------3---4---|-5--------------5---|-------5---5---------|
E|---------------------|------------------------|--------------------|-3-------------------|


G|---------------------|------------------------|------------------------|---------------------|
D|-7-----5---5---------|-------5---5------------|-------7---7----5-------|-----------------7---|
A|-----------------5---|-3--------------3---4---|-5------------------5---|-------5---5---------|
E|---------------------|------------------------|------------------------|-3-------------------|


G|---------------------|------------------------|---------------------|---------------------|
D|-7-----5---5---------|-------5---5------------|-------7---7---------|-----------------7---|
A|-----------------5---|-3--------------3---4---|-5--------------5----|-------5---5---------|
E|---------------------|------------------------|---------------------|-3-------------------|


G|---------------------|------------------------|---------------------|---------------------|
D|-7-----5---5---------|-------5---5------------|-------7---7---------|-----------------7---|
A|-----------------5---|-3--------------3---4---|-5--------------5----|-------5---5---------|
E|---------------------|------------------------|---------------------|-3-------------------|


G|---------------------|------------------------|---------------------|---------------------|
D|-7-----5---5---------|-------5---5------------|-------7---7---------|-----------------7---|
A|-----------------5---|-3--------------3---4---|-5--------------5----|-------5---5---------|
E|---------------------|------------------------|---------------------|-3-------------------|


G|---------------------|------------------------|---------------------|---------------------|
D|-7-----5---5---------|-------5---5------------|-------7---7---------|-----------------7---|
A|-----------------5---|-3--------------3---4---|-5--------------5----|-------5---5---------|
E|---------------------|------------------------|---------------------|-3-------------------|


G|---------------------|------------------------|---------------------|---------------------|
D|-7-----5---5---------|-------5---5------------|-------7---7---------|-----------------7---|
A|-----------------5---|-3--------------3---4---|-5--------------5----|-------5---5---------|
E|---------------------|------------------------|---------------------|-3-------------------|


G|---------------------|------------------------|---------------------|---------------------|
D|-7-----5---5---------|-------5---5------------|-------7---7---------|-----------------7---|
A|-----------------5---|-3--------------3---4---|-5--------------5----|-------5---5---------|
E|---------------------|------------------------|---------------------|-3-------------------|


G|---------------------|------------------------|---------------------|---------------------|
D|-7-----5---5---------|-------5---5------------|-------7---7---------|-----------------7---|
A|-----------------5---|-3--------------3---4---|-5--------------5----|-------5---5---------|
E|---------------------|------------------------|---------------------|-3-------------------|


G|---------------------|------------------------|---------------------|---------------------|
D|-7-----5---5---------|-------5---5------------|-------7---7---------|-----------------7---|
A|-----------------5---|-3--------------3---4---|-5--------------5----|-------5---5---------|
E|---------------------|------------------------|---------------------|-3-------------------|


G|---------------------|------------------------|---------------------|
D|-7-----5---5---------|-------5---5------------|-------7---7---------|
A|-----------------5---|-3--------------3---4---|-5--------------5----|
E|---------------------|------------------------|---------------------|









Track 7: Percussion
Back to top
C|-----------------|-----78------78--38--78--79--78--|-----78------78--38--78--79--78--|
C|-----------------|-37--------------37--------------|-----------------37--------------|
C|-----------------|-----77--77------38--------------|-----77--77------38--------------|
C|-----------------|---------------------59------59--|-----59--59--59------59------59--|
C|-----------------|-40----------40------------------|---------------------------------|
C|-------------35--|-35----------35----------35--35--|-35----------35--35------35--35--|


C|-----78------78--38--78--79----78----|--------78----------78----------78----79----78----|
C|-----------------37------66-66-65-65-|-65-----65-65-66----65-65-65-------66-48-66-65-65-|
C|-----77--77------38------------------|---48---------47----48----47----------------------|
C|-----59--59--59------59--------59----|--------59----------59-59-59----59----------59----|
C|-------------------------------------|--------------------------------------------------|
C|-35----------35--35------35----------|-----35-------------------------------------------|


C|-------78--------78--------78--79--78--|-----78------78----38--78--79--78--|-----78------78--38--78--79--78--|
C|-48----65-65-66--65--65--------48------|-------------65-65-37--------------|-----------------37--------------|
C|-------------47--48--47----------------|-----77--77--------38--------------|-----77--77------38--------------|
C|-------59--------59--------59------59--|-----59--59--59----66--59------59--|-----59--59--59------59------59--|
C|---------------------------------------|-----------------------------------|---------------------------------|
C|----35------------------35---------35--|-35----------35----35------35--35--|-35----------35--35------35--35--|


C|-38--78--38--78------78--79--78--|-----78------78--38--78--79--78--|-----78------78----38--78--79--78--|
C|-37------37----------------------|-----77----------37------37------|-------------37-37-37--37----------|
C|-38--77--38------------------40--|-40--40----------38------38------|-----77--77--38-38-38--38----------|
C|-----59--59--59------59------59--|-----59------59------59------59--|-----59--59--59--------59--49--59--|
C|---------------------------------|---------------------------------|-----------------------------------|
C|-35----------35--35------35--35--|-35------35--35--35------35--35--|-35------35--35----35------35--35--|


C|-----78------78--38--78--79--78--|-----78------78--38--78--79--78--|-----78------78--38--78--79--78--|
C|-----------------37--------------|-----------------37--------------|-----------------37--------------|
C|-----77--77------38--------------|-----77--77------38--------------|-----77--77------38--------------|
C|-----59--59--59------59------59--|-----59--59--59------59------59--|-----59--59--59------59------59--|
C|---------------------------------|---------------------------------|---------------------------------|
C|-35----------35--35----------35--|-35----------35--35----------35--|-35----------35--35----------35--|


C|-----78------78--38--78--79--78--|-----78------78--38--78--79--78--|-----78------78--38--78--79--78--|
C|-----------------37--------------|-----------------37--------------|-----------------37--------------|
C|-----77--77------38--------------|-----77--77------38--------------|-----77--77------38--------------|
C|-----59--59--59------59------59--|-----59--59--59------59------59--|-----59--59--59------59------59--|
C|---------------------------------|---------------------------------|---------------------------------|
C|-35----------35--35----------35--|-35----------35--35----------35--|-35----------35--35----------35--|


C|-----78------78--38--78--79--78--|-----78------78--38--78--79--78--|-----78------78--38--78--79--78--|
C|-----------------37--------------|-----------------37--------------|-----------------37--------------|
C|-----77--77------38--------------|-----77--77------38--------------|-----77--77------38--------------|
C|-----59--59--59------59------59--|-----59--59--59------59------59--|-----59--59--59------59------59--|
C|---------------------------------|---------------------------------|---------------------------------|
C|-35----------35--35----------35--|-35----------35--35----------35--|-35----------35--35----------35--|


C|-----78------78--38--78--79--78--|-----78------78--38--78--79--78--|-----78------78--38--78--79--78--|
C|-----------------37--------------|-----------------37--------------|-----------------37--------------|
C|-----77--77------38--------------|-----77--77------38--------------|-----77--77------38--------------|
C|-----59--59--59------59------59--|-----59--59--59------59------59--|-----59--59--59------59------59--|
C|---------------------------------|---------------------------------|-----46--------------46----------|
C|-35----------35--35----------35--|-35----------35--35----------35--|-35----------35--35----------35--|


C|-----78------78--38--78--79--78--|-----78------78--38--78--79--78--|-----78------78--38--78--79--78--|
C|-----------------37--------------|-57--------------37--------------|-40--------------37--------------|
C|-----77--77------38--------------|-----77--77------38--------------|-37--77--77------38--------------|
C|-----59--59--59------59------59--|-----59--59--59------59------59--|-----59--59--59------59------59--|
C|---------------------------------|-49------------------------------|---------------------------------|
C|-35----------35--35----------35--|-35----------35--35----------35--|-35----------35--35----------35--|


C|-----78------78--38--78--79--78--|-----78------78--38--78--79--78--|-----78------78--38--78--79--78--|
C|-----37----------37--------------|-----------------37--------------|-----------------37--------------|
C|-----38--38------38--------------|-----77--77------38--------------|-----77--77------38--------------|
C|-----59--59--59------59------59--|-59--59--59--59------59------59--|-59--59--59--59------59------59--|
C|-----38--------------------------|---------------------------------|---------------------------------|
C|-35----------35--35----------35--|-35----------35--35----------35--|-35----------35--35----------35--|


C|-----78------78--38--78--79--78--|-----78------78--38--78--79--78--|-----78------78--38--78--79--78--|
C|-----------------37--------------|-----------------37--------------|-----------------37--------------|
C|-----77--77------38--------------|-----77--77------38--------------|-----77--77------38--------------|
C|-59--59--59--59------59------59--|-59--59--59--59------59------59--|-59--59--59--59------59------59--|
C|---------------------------------|---------------------------------|---------------------------------|
C|-35----------35--35----------35--|-35----------35--35----------35--|-35----------35--35----------35--|


C|-----78------78--38--78--79--78--|-----78------78--38--78--79--78--|-----78------78--38--78--79--78--|
C|-----------------37--------------|-----------------37--------------|-----------------37--------------|
C|-----77--77------38--------------|-----77--77------38--------------|-----77--77------38--------------|
C|-59--59--59--59------59------59--|-59--59--59--59------59------59--|-59--59--59--59------59------59--|
C|---------------------------------|---------------------------------|---------------------------------|
C|-35----------35--35----------35--|-35----------35--35----------35--|-35----------35--35----------35--|


C|-----78------78--38--78--79--78--|-----78------78--38--78--79--78--|-----78------78--38--78--79--78--|
C|-----------------37--------------|-----------------37--------------|-----------------37--------------|
C|-----77--77------38--------------|-----77--77------38--------------|-----77--77------38--------------|
C|-59--59--59--59------59------59--|-59--59--59--59------59------59--|-59--59--59--59------59------59--|
C|---------------------------------|---------------------------------|---------------------------------|
C|-35----------35--35----------35--|-35----------35--35----------35--|-35----------35--35----------35--|


C|-----78------78--38--78--79--78--|-----78------78--38--78--79--78--|-----78------78--38--78--79--78--|
C|-----------------37--------------|-----------------37--------------|-----------------37--------------|
C|-----77--77------38--------------|-----77--77------38--------------|-----77--77------38--------------|
C|-59--59--59--59------59------59--|-59--59--59--59------59------59--|-59--59--59--59------59------59--|
C|---------------------------------|---------------------------------|---------------------------------|
C|-35----------35--35----------35--|-35----------35--35----------35--|-35----------35--35----------35--|


C|-----78------78--38--78--79--78--|-----78------78--38--78--79--78--|-----78------78--38--78--79--78--|
C|-----------------37--------------|-----------------37--------------|-----------------37--------------|
C|-----77--77------38--------------|-----77--77------38--------------|-----77--77------38--------------|
C|-59--59--59--59------59------59--|-59--59--59--59------59------59--|-59--59--59--59------59------59--|
C|---------------------------------|---------------------------------|---------------------------------|
C|-35----------35--35----------35--|-35----------35--35----------35--|-35----------35--35----------35--|


C|-----78------78--38--78--79--78--|-----78------78--38--78--79--78--|-----78------78--38--78--79--78--|
C|-----------------37--------------|-----------------37--------------|-----------------37--------------|
C|-----77--77------38--------------|-----77--77------38--------------|-----77--77------38--------------|
C|-59--59--59--59------59------59--|-59--59--59--59------59------59--|-59--59--59--59------59------59--|
C|---------------------------------|---------------------------------|---------------------------------|
C|-35----------35--35----------35--|-35----------35--35----------35--|-35----------35--35----------35--|


C|-----78------78--38--78--79--78--|-----78------78--38--78--79--78--|-----78------78--38--78--79--78--|
C|-----------------37--------------|-----------------37--------------|-----------------37--------------|
C|-----77--77------38--------------|-----77--77------38--------------|-----77--77------38--------------|
C|-59--59--59--59------59------59--|-59--59--59--59------59------59--|-59--59--59--59------59------59--|
C|---------------------------------|---------------------------------|---------------------------------|
C|-35----------35--35----------35--|-35----------35--35----------35--|-35----------35--35----------35--|


C|-----78------78--38--78----------|-----78------78--38--78------78--|-----78------78--38--78------78--|
C|-----37----------37--------------|-57--57--57------37--------------|-----------------37--------------|
C|-----38--38------38----------65--|-----77--77------38--------------|-----77--77------38--------------|
C|-59--59------59------59----------|-----51--51--51------51------51--|-51--51--51--51------51------51--|
C|-----38--------------------------|-------------------------42------|-------------------------42------|
C|-35----------35--35--------------|-35--35------35--35----------35--|-35--35------35--35----------35--|


C|-----78------78--38--78------78--|-----78------78--38--78----------|-----78------78--38--78------78--|
C|-55--------------37--------------|-----------------37--------------|-57--57--57------37--------------|
C|-----77--77------38--------------|-----77--77------38----------48--|-----77--77------38--------------|
C|-51--51--51--51------51------51--|-----51--51--51------51----------|-----51--51--51------51------51--|
C|-------------------------42------|-------------------------42------|-------------------------42------|
C|-35--35------35--35----------35--|-35--35------35--35--------------|-35--35------35--35----------35--|


C|-----78------78--38--78------78--|-----78------78--38--78------78--|-----78------78--38--78----------|
C|-----------------37----------38--|-----------------37----------37--|-----------------37------57------|
C|-----77--77------38----------48--|-----77--77------38----------47--|-----77--47--47--38----------65--|
C|-51--51--51--51------51------51--|-51--51--51--51------51------51--|-----51--51--51--45--51--42------|
C|-------------------------42------|-------------------------42------|---------------------------------|
C|-35--35------35--35----------35--|-35--35------35--35----------35--|-35--35------35--35----------35--|


C|-----78------78--38--78------78--|-----78------78--38--78------78--|-----78------78--38--78------78--|
C|-----------------37--------------|-----------------37--------------|-----------------37--------------|
C|-----77--77------38--------------|-----77--77------38----------45--|-----77--76--77--38--------------|
C|-----51--51--51------51------51--|-----51--51--51------51------51--|-----51--51--51------51------51--|
C|-------------------------42------|-------------------------42------|-------------------------42------|
C|-35--35------35--35----------35--|-35--35------35--35----------35--|-35--35------35--35----------35--|


C|-----78------78--38--78------78--|-----78------78--38--78------78--|-----78------78--38--78------78--|
C|-----50----------37----------57--|-57--------------37--------------|-----------------37--------------|
C|-----77--77------38--------------|-----77--77------38--------------|-----77--77------38--------------|
C|-----51--51--51------51------51--|-----51--51--51------51------51--|-----51--51--51------51------51--|
C|-------------------------42------|-------------------------42------|-------------------------42------|
C|-35--35------35--35----------35--|-35--35------35--35----------35--|-35--35------35--35----------35--|


C|-----78------78--38--78------78--|-----78-----------78--38--78----------|-----78------78--38--78------78--|
C|-----------------37--------------|-----50-50----50--50--37--------------|-57--57--57------37--------------|
C|-----77--77------38--------------|-----77-77-77-77------38----------65--|-----77--77------38--------------|
C|-----51--51--51------51------51--|-----51-51-51-51--51------51--42------|-----51--51--51------51------51--|
C|-------------------------42------|--------------------------------------|-49--49--49--------------42------|
C|-35--35------35--35----------35--|-35--35-----------35--35--------------|-35--35------35--35----------35--|


C|-----78------78--38--78------78--|-----78------78--38--78--38--78--|-----78------78------78------78--|
C|-----------------37--------------|-----48----------37------37------|-----------------------------57--|
C|-----77--77------38--------------|-----77--77------38------38------|-----77--77------------------49--|
C|-51--51--51--51------51------51--|-----51--51--51------51------51--|-----51--51--51------51------51--|
C|-------------------------42------|-------------------------42------|-------------------------42------|
C|-35--35------35--35----------35--|-35--35------35--35----------35--|-35------35------35----------35--|


C|-----78------78--38--78------78--|-----78------78--38--78------78--|-----78------78--38--78------78--|
C|-----------------37--------------|-----------------37--------------|-----------------37--------------|
C|-----77--77------38--------------|-----77--77------38--------------|-----77--77------38--------------|
C|-----51--51--51------51------51--|-----51--51--51------51------51--|-----51--51--51------51------51--|
C|-------------------------42------|-------------------------42------|-------------------------42------|
C|-35--35------35--35----------35--|-35--35------35--35----------35--|-35--35------35--35----------35--|


C|-----78------78------78------78--|-----78------78--38--78------78--|-----78------78--38--78------78--|
C|-------------37--37--------------|-----------------37----------39--|-----------------37--------------|
C|-----77--77--38--38--51----------|-----77--77------38----------70--|-----77--77------38--------------|
C|-----51--51--57--------------51--|-----51--51--51------51------51--|-----51--51--51------51------51--|
C|-------------38----------42------|-------------------------42------|-------------50--50------42------|
C|-35--35------35--35----------35--|-35--35------35--35----------35--|-35--35------35--35----------35--|


C|-----78------78--38--78--------------|--------78---------78--38--78------78--|-----78------78--38--78------78--|
C|-----------------37------------------|-----------------------37--------------|-----------------37--------------|
C|-----77--77------38------------------|--------77-------------38----------57--|-----77--77------38--------------|
C|-----51--51--51------51--------------|-------------------51------51------51--|-----51--51--51------51------51--|
C|-------------------------42------45--|-----47--------47--------------42--47--|-------------------------42------|
C|-35--35------35--35--------------35--|-----35--------35------35----------35--|-35--35------35--35----------35--|


C|-----78------78--38--78--38--78--|-----78------78--38--78------78--|-----78------78--38--78-----------78-------|
C|-----------------37------37------|-----------------37--------------|-----------------37------------------------|
C|-----77--77------38------38------|-----77--77------38--------------|-----77--77------38---------47-47-47-47----|
C|-----51--51--51------51------51--|-----51--51--51------51------51--|-----51--51--51------51-----------51-51-51-|
C|-------------------------42------|-------------------------42------|-------------------------42----------------|
C|-35--35------35--35----------35--|-35--35------35--35----------35--|-35--35------35--35---------------35-------|


C|----------78----------------78-------38--78------78--|-----78------78--38--78------78--|
C|-37----37----37----------37----37----37--------------|-----------------37--------------|
C|-65----65-77-65----------65----65----38--------------|-----77--77------38--------------|
C|----------51----------------51-------65--51------51--|-----51--51--51------51------51--|
C|---------------------------------------------42------|-------------------------42------|
C|-35-------35----------------35-------35----------35--|-35--35------35--35----------35--|


C|-----78------78--38--78------78--|-----78------78--38--78------78--|-----78------78--38--78--79--78--|
C|-40--------------37--------------|-57--------------37--------------|-----------------37--------------|
C|-37--77--77------38--------------|-----77--77------38--------------|-----77--77------38--------------|
C|-----51--51--51------51------51--|-60----------51------51------51--|-51--59--59--59------59------59--|
C|-------------------------42------|-59--------------60------42------|---------------------------------|
C|-35--35------35--35----------35--|-35--35------35--35----------35--|-35----------35--35----------35--|


C|-----78------78--38--78--79--78--|-----78------78--38--78--79--78--|-----78------78--38--78--79--78--|
C|-----------------37--------------|-----------------37--------------|-----------------37--------------|
C|-----77--77------38--------------|-----77--77------38--------------|-----77--77------38--------------|
C|-59--59--59--59------59------59--|-59--59--59--59------59------59--|-59--59--59--59------59------59--|
C|---------------------------------|---------------------------------|---------------------------------|
C|-35----------35--35----------35--|-35----------35--35----------35--|-35----------35--35----------35--|


C|-----78------78--38--78--79--78--|-----78------78--38--78--79--78--|-----78------78--38--78--79--78--|
C|-----------------37--------------|-----------------37--------------|-----------------37--------------|
C|-----77--77------38--------------|-----77--77------38--------------|-----77--77------38--------------|
C|-59--59--59--59------59------59--|-59--59--59--59------59------59--|-59--59--59--59------59------59--|
C|---------------------------------|---------------------------------|---------------------------------|
C|-35----------35--35----------35--|-35----------35--35----------35--|-35----------35--35----------35--|


C|-----78------78--38--78--79--78--|-----78------78--38--78--79--78--|-----78------78--38--78--79--78--|
C|-----------------37--------------|-----------------37--------------|-----------------37--------------|
C|-----77--77------38--------------|-----77--77------38--------------|-----77--77------38--------------|
C|-59--59--59--59------59------59--|-59--59--59--59------59------59--|-59--59--59--59------59------59--|
C|---------------------------------|---------------------------------|---------------------------------|
C|-35----------35--35----------35--|-35----------35--35----------35--|-35----------35--35----------35--|


C|-----78------78--38--78--79--78--|-----78------78--38--78--79--78--|-----78------78--38--78--79--78--|
C|-----------------37--------------|-----------------37--------------|-----------------37--------------|
C|-----77--77------38--------------|-----77--77------38--------------|-----77--77------38--------------|
C|-59--59--59--59------59------59--|-59--59--59--59------59------59--|-59--59--59--59------59------59--|
C|---------------------------------|---------------------------------|---------------------------------|
C|-35----------35--35----------35--|-35----------35--35----------35--|-35----------35--35----------35--|


C|-----78------78--38--78--79--78--|-----78------78--38--78--79--78--|-----78------78--38--78--79--78--|
C|-----------------37--------------|-----------------37--------------|-----------------37--------------|
C|-----77--77------38--------------|-----77--77------38--------------|-----77--77------38--------------|
C|-59--59--59--59------59------59--|-59--59--59--59------59------59--|-59--59--59--59------59------59--|
C|---------------------------------|---------------------------------|---------------------------------|
C|-35----------35--35----------35--|-35----------35--35----------35--|-35----------35--35----------35--|


C|-----78------78--38--78--79--78--|-----78------78--38--78--79--78--|-----78------78--38--78--79--78--|
C|-----------------37--------------|-----------------37--------------|-----------------37--------------|
C|-----77--77------38--------------|-----77--77------38--------------|-----77--77------38--------------|
C|-59--59--59--59------59------59--|-59--59--59--59------59------59--|-59--59--59--59------59------59--|
C|---------------------------------|---------------------------------|---------------------------------|
C|-35----------35--35----------35--|-35----------35--35----------35--|-35----------35--35----------35--|


C|-----78------78--38--78--79--78--|-----78------78--38--78--79--78--|-----78------78--38--78--79--78--|
C|-----------------37--------------|-----------------37--------------|-----------------37--------------|
C|-----77--77------38--------------|-----77--77------38--------------|-----77--77------38--------------|
C|-59--59--59--59------59------59--|-59--59--59--59------59------59--|-59--59--59--59------59------59--|
C|---------------------------------|---------------------------------|---------------------------------|
C|-35----------35--35----------35--|-35----------35--35----------35--|-35----------35--35----------35--|


C|-----78------78--38--78--79--78--|-----78------78--38--78--79--78--|----------------|
C|-----------------37--------------|-------------37--37--------------|----------------|
C|-----77--77------38--------------|-----77--77--38--38--------------|----------------|
C|-59--59--59--59------59------59--|-59--59--59--59------59------59--|-59-------------|
C|---------------------------------|---------------------------------|----------------|
C|-35----------35--35----------35--|-35----------35--35----------35--|-35-------------|


C|--------|--------|--------|-------------38--|-38-------------------38------|-----78------78--38--78--79--78--|
C|--------|--------|--------|-------------37--|-37-------------------37------|-55------37------37--------------|
C|--------|--------|--------|-------------38--|-38-------------------38------|-57--------------38--------------|
C|--------|--------|--------|-------------37--|-37---48--48--47------55--55--|-46--42--59--42--59--59------59--|
C|--------|--------|--------|-------------65--|-65-------------------57--57--|-60--44------44------------------|
C|--------|--------|--------|-----------------|------------------------------|---------------------------------|


C|-----78------78--38--78--79--78--|-----78------78--38--78--79--78--|-----78------78--38--78--79--78--|
C|---------37------37--------------|---------37------37--------------|-----------------37--------------|
C|-----------------38--------------|-----------------38------43--43--|-----------------38------43--43--|
C|-----59------59------59------59--|-----59------59------59------59--|-----46----------60--46------46--|
C|-60------62--------------62------|-65--62--62--62----------62------|-65--62--45--48--48------62------|
C|-35--------------------------35--|-35--------------------------35--|-35--------------------------35--|


C|-----78------78------78--79--78--|-----78------78--38--78--79--78--|-----78------78--38--78--79--78--|
C|-------------------------38------|-----------------37--------------|-----------------37--------------|
C|-47--47----------37------37------|---------47--47--38------64--64--|-----------------38------64--64--|
C|-----46----------38--46--38--46--|-----46------46------46----------|-----46------46------46----------|
C|-60------61------60--------------|-60--60--61----------------------|-60------61------60--------------|
C|-35------------------------------|---------------------------------|---------------------------------|


C|-----78------78--38-38-78--79--78--|-----78------78--38--78--79--78--|-----78------78---------78-----79--78--|
C|-----------------37-28---------28--|-----------------37--------------|-----38--------------------------------|
C|-------------50--38----46--64--37--|-------------45--38----------64--|-----37--48--48--48--47--------45--45--|
C|-----46------46--50------------46--|-----46------46--45--46----------|-----38----------46-----46-46------46--|
C|-60------61------60------------57--|-60--61--61------60--------------|-60------61------60--------------------|
C|---------------------------35------|---------------------------------|---------------------------------------|


C|-----78------78--38--78--79--78--|-----78------78--38--78--79--78--|-----78------78--38--78--79--78--|
C|-----------------37--------------|-----------------37--38------49--|-----------------37--------------|
C|---------48--48--38------45--45--|-------------48--38--37------65--|-65--------------38------38--64--|
C|-----46------46------46------46--|-----46------46--65--46------57--|-----46------46------46------46--|
C|-60------61------60--------------|-60------61------60--38----------|-60--61--60------60--61----------|
C|-----------------48--------------|---------------------65----------|---------------------------------|


C|-----78------78--38--78--79--78--|-----78------78--38--78--79--78--|-----78----38--78----38--78----79----78----|
C|-----------------37------37------|-----------------37--------------|-----------37--38----37--------------------|
C|-----------------38------38--38--|-----------------38--------------|-----46----38--48-38-38--------------------|
C|-----46------46------46------46--|-----46------46------46------46--|---------------46--------46----------46----|
C|-60--------------60------60------|-60--61--56------60--61----------|-60--61-61-47--61-61-60--60-60----60-60-60-|
C|-----63--63--63--63------43--43--|---------------------------------|-------------------------------------------|


C|-----78------78--38--78--79--78--|-----78------78--38--78--79--78--|-----78------78--38-----78-----79--78--|
C|-----37----------37----------48--|-----------------37------38------|-----------------37--------------------|
C|-----38----------38----------55--|-----------------38------37------|-----38----------38--------------------|
C|-----46------44------46------46--|-48--46----------60--46--38--46--|-----46------46---------46-46----------|
C|-60------61------60----------60--|-60--60--48--48--48------45--45--|-60------61------65--65-65-65--60--60--|
C|---------------------------------|---------------------------------|---------------------------------------|


C|-------78------78--38--78--79-------78--|-------78------78--38--78--79-------78--|
C|-------------------37-------------------|-------------------37-------------------|
C|-------------------38-------------------|-38--------38------38-------------------|
C|-------46------46------46-----------46--|-------59------59------59-----------59--|
C|-65-65-65--66--66--60------65-65-65-65--|-60-65-65--61--------------65-65-65-65--|
C|-----------47--47-----------------------|----------------------------------------|


C|-----78------78--38--78--79--78--|-----78------78--38--78--79--78--|-----78------78--------78--79--78--|
C|-----------------37--------------|-49--------------37--------------|---------38------------------------|
C|---------38------38------38------|-------------48--38------45--45--|-------------50--50-48-----47--47--|
C|-----59------59------59------59--|-57--------------48--59------59--|-----59----------------59--38------|
C|-60------61------60--------------|-60------61------60--------------|-60--------------60----------------|
C|---------------------------------|---------------------------------|-----------------------------------|


C|-----78------78--38--78--79--78--|-----78------78--38--78--79--78----|-----78------78--38--78--79--78--|
C|-----------------37--------------|-----------------37----------------|-----------------37--------------|
C|---------38------38------38------|---------38------38------38--50-50-|---------38--48--38------48--48--|
C|-----59------59------59------57--|-----59------59------59------59----|-----59------59--48--59------59--|
C|-60--61--60------60--------------|-60------61------60----------------|-60--61------61--60--------------|
C|---------------------------------|-------------63--63----------------|---------------------------------|


C|----------78------78--38--78--79--78--|-----78-78--------78--38----78--79--78--|
C|----------------------37--------------|-----62-62-61-62------37----------------|
C|-------65-----38--50--38----------49--|-----37-37-37-37------38-37-----37------|
C|----------59------59--50--59------59--|-----38-38-38-38------62-62-----62--63--|
C|-60-60----------------60----------57--|-60-----------61------------------------|
C|----------------------65------65------|-----59-------57------------59----------|


C|-----78------78--38--78--79--78--|-----78------78--38--78--79--78--|-38--78------78--38--78--79--78----|
C|-----------------37----------37--|-----------------37--------------|-37------38------37------46--------|
C|---------38--50--38------38--38--|---------38------38------38------|-38--------------38------47--47----|
C|-----59------59--50--59------59--|-----59--------------59------59--|-----59--48--50--50--59--38--62-62-|
C|-60------61------60----------57--|-60--60--61--61--60--60--61--61--|-60--------------60----------65-65-|
C|-------------------------48--48--|---------------------------------|-----------------------------------|


C|-------78------78--38--78--79--78--|-----78------78--38--78--79--78--|-----78------78--38----78-78----79-------78----|
C|-------------------37--50------50--|-----50------50--37--------------|-----------------37----------------------------|
C|-------50--50--50--38------38------|---------38------38------38------|---------38------38----------65----65-65----65-|
C|-62-62-59------59------59------49--|-----59----------50--59------46--|-----59----------50----59-59-63----63-63-59-63-|
C|-65-65-----60------60--------------|-60--------------60--------------|-60------47--47--60----------------------------|
C|-60------------57------------------|-----------------48------48--48--|-------------48--48-48-48-48-48-48-48-48-48----|


C|-------78--------78----38----78----79--78-38-|-----78------78--38--78--79--78--|
C|-------62-62-62--62-62-37-62-62-62-62-----37-|-----38----------37----------63--|
C|-66-66-65-65-65--65-65-38-65-65-65-65-----38-|-----37----------38------38------|
C|-63-63-59--------------------59--------62-62-|-----38------46------59----------|
C|-60----61--------------60--------------65-65-|-60------61------60--------------|
C|---------------------------------------------|-57------------------------------|


C|-----78------78--38--78--79--78--|-----78------78--38--78--79--78--|-----78------78------78--79--78--|
C|-----------------37----------63--|-----------------37--------------|-------------38------------------|
C|---------38------38------38------|-----------------38------38------|-------------37----------38--38--|
C|-----59------46------59----------|-----59------46------59------59--|-----38------38------59--37--37--|
C|-60--------------60--------------|-60------61------60--------------|-60------61------60------38--38--|
C|-63--63------63--63----------63--|---------------------------------|---------------------------------|


C|-----78------78--38--78--79--78--|-----78------78--38--78--79--78--|-----78------78--38--78--79--78--|
C|-----45--45------37----------63--|-----57----------37--------------|-----------------37--------------|
C|---------38------38------38------|---------38------38--------------|-----------------38------38------|
C|-----55--------------59----------|-----59------50--50--59--47--47--|-----59------46------59------59--|
C|-60------61------60--------------|-60----------60--60--------------|-60------61------60--------------|
C|---------------------------------|---------------------------------|---------------------------------|


C|-----78------78--38--78--79--78--|
C|-----------------37--------------|
C|-----------------38------38------|
C|-----59------46------59------59--|
C|-60------61------60--------------|
C|---------------------------------|









Track 8: Solo transcr. (see F5)
Back to top
E|--------|--------|--------|--------|--------|--------|--------|--------|--------|
B|--------|--------|--------|--------|--------|--------|--------|--------|--------|
G|--------|--------|--------|--------|--------|--------|--------|--------|--------|
D|--------|--------|--------|--------|--------|--------|--------|--------|--------|
A|--------|--------|--------|--------|--------|--------|--------|--------|--------|
E|--------|--------|--------|--------|--------|--------|--------|--------|--------|


E|--------|--------|--------|--------|--------|--------|--------|--------|--------|
B|--------|--------|--------|--------|--------|--------|--------|--------|--------|
G|--------|--------|--------|--------|--------|--------|--------|--------|--------|
D|--------|--------|--------|--------|--------|--------|--------|--------|--------|
A|--------|--------|--------|--------|--------|--------|--------|--------|--------|
E|--------|--------|--------|--------|--------|--------|--------|--------|--------|


E|--------|--------|--------|--------|--------|--------|--------|--------|--------|
B|--------|--------|--------|--------|--------|--------|--------|--------|--------|
G|--------|--------|--------|--------|--------|--------|--------|--------|--------|
D|--------|--------|--------|--------|--------|--------|--------|--------|--------|
A|--------|--------|--------|--------|--------|--------|--------|--------|--------|
E|--------|--------|--------|--------|--------|--------|--------|--------|--------|


E|--------|--------|--------|--------|--------|--------|--------|--------|--------|
B|--------|--------|--------|--------|--------|--------|--------|--------|--------|
G|--------|--------|--------|--------|--------|--------|--------|--------|--------|
D|--------|--------|--------|--------|--------|--------|--------|--------|--------|
A|--------|--------|--------|--------|--------|--------|--------|--------|--------|
E|--------|--------|--------|--------|--------|--------|--------|--------|--------|


E|--------|--------|--------|--------|--------|--------|--------|--------|--------|
B|--------|--------|--------|--------|--------|--------|--------|--------|--------|
G|--------|--------|--------|--------|--------|--------|--------|--------|--------|
D|--------|--------|--------|--------|--------|--------|--------|--------|--------|
A|--------|--------|--------|--------|--------|--------|--------|--------|--------|
E|--------|--------|--------|--------|--------|--------|--------|--------|--------|


E|--------|--------|--------|--------|--------|-----------3-------5-------|-6-----------|
B|--------|--------|--------|--------|--------|-------3-------------------|-------------|
G|--------|--------|--------|--------|--------|---------------------------|-------------|
D|--------|--------|--------|--------|--------|---------------------------|-------------|
A|--------|--------|--------|--------|--------|---------------------------|-------------|
E|--------|--------|--------|--------|--------|---------------------------|-------------|


E|-5---6---5---3---2-----------1---|-0--------0-------------------|---------------------------|
B|---------------------4---3-------|------1-------3---------------|---------------------------|
G|---------------------------------|------------------3---0-------|-----------------------0---|
D|---------------------------------|--------------------------2---|-0---0-----0---1---3-------|
A|---------------------------------|------------------------------|---------------------------|
E|---------------------------------|------------------------------|---------------------------|


E|-----------------------|------------------------------|------------------------|
B|-------------------3---|------------------------------|------------------------|
G|---------------0-------|-1----1-----------------------|------------------------|
D|-1-----0---1-----------|----------4---4---4---3---1---|-0----------------------|
A|-----------------------|------------------------------|-----------0---2---3----|
E|-----------------------|------------------------------|-------3----------------|


E|---------------------------|--------------0------------|---------------------------|
B|--------------0------------|------2---4--------4---2---|-1----3---4----3---1-------|
G|------0---2-------2---0----|-0-------------------------|-----------------------2---|
D|---------------------------|---------------------------|---------------------------|
A|-2-------------------------|---------------------------|---------------------------|
E|---------------------------|---------------------------|---------------------------|


E|---------------------------------|-------------------------------|-2----5----3----3---------|
B|-1-----------3-------------------|---------------------1----3----|--------------------------|
G|-----2---3-------0-------0-------|------0----2----3--------------|--------------------------|
D|---------------------0-------4---|-3-----------------------------|--------------------------|
A|---------------------------------|-------------------------------|--------------------------|
E|---------------------------------|-------------------------------|--------------------------|


E|-8-------8---6---8---6---5---3---|-2---6---------------------------|-------------------------3---5---|
B|---------------------------------|-------------7-------7-----------|---------------------3-----------|
G|---------------------------------|---------6-------8-----------8---|-----7-------5---4---------------|
D|---------------------------------|-------------------------8-------|-9-------7-----------------------|
A|---------------------------------|---------------------------------|---------------------------------|
E|---------------------------------|---------------------------------|---------------------------------|


E|-6-------6-----------------------|---------------------10-10---8---|-----8-------8-------------------|
B|-----------------4-------4-------|-3----4-3-2---3--3---------------|---------------------------------|
G|---------------------------------|---------------------------------|-----------------7-------7-------|
D|---------------------------------|---------------------------------|---------------------------------|
A|---------------------------------|---------------------------------|---------------------------------|
E|---------------------------------|---------------------------------|---------------------------------|


E|-----------------6--------3---|-----3-----------1--------3---|-2----1------------------------|
B|-5-------5--------------------|-------------3--------4-------|-----------4---3---2---1-------|
G|------------------------------|------------------------------|---------------------------2---|
D|------------------------------|------------------------------|-------------------------------|
A|------------------------------|------------------------------|-------------------------------|
E|------------------------------|------------------------------|-------------------------------|


E|---------------------------------|---------3---2---1---------|-2-------3-------5------------|
B|-0---3-------------------1-------|-0---3---------------------|---------------------5--------|
G|---------0-----------2-------3---|---------------------------|-------------------------6----|
D|-------------4---3---------------|---------------------------|------------------------------|
A|---------------------------------|---------------------------|------------------------------|
E|---------------------------------|---------------------------|------------------------------|


E|---------------------------------|-----------------------------|-------------------------------|
B|-1-------------------------------|-----------------------------|---------------------1----3----|
G|-----3---2---0-------------------|-----------------------------|-----------0----3--------------|
D|-----------------4---1---0-------|------0----------------------|-0----2------------------------|
A|-----------------------------3---|-1--------1--------1----3----|-------------------------------|
E|---------------------------------|--------------3--------------|-------------------------------|


E|-------------------------|----------------------------------|---------------------------------10----------|
B|-4-----------------------|--------------3-------1-----------|---------10----------10--11--13------11------|
G|-------------------------|------------------2-------3-------|-0---11------11--12----------------------12--|
D|------1----1---0---1-----|-0--------0-------------------4---|---------------------------------------------|
A|-------------------------|------4---------------------------|---------------------------------------------|
E|-------------------------|----------------------------------|---------------------------------------------|


E|-------------------------------------------------|------------------------|-10--11-10-9---10------------------|
B|-----10------------------------------------------|------------------------|-------------------10--13--11------|
G|---------12----------10--8-----------------------|------------------------|-------------------------------11--|
D|-12----------13--10----------10------------------|------------------------|-----------------------------------|
A|---------------------------------12--10----------|------------------------|-----------------------------------|
E|-----------------------------------------13--12--|-10--11--11--11---------|-----------------------------------|


E|------------------------------|-------------|--------|--------|--------|--------|
B|-10--8------------------------|-------------|--------|--------|--------|--------|
G|---------7-------0------------|-------------|--------|--------|--------|--------|
D|-------------8-----------0----|-------------|--------|--------|--------|--------|
A|------------------------------|-1-----------|--------|--------|--------|--------|
E|------------------------------|-------3-----|--------|--------|--------|--------|


E|--------|--------|--------|--------|--------|--------|--------|--------|--------|
B|--------|--------|--------|--------|--------|--------|--------|--------|--------|
G|--------|--------|--------|--------|--------|--------|--------|--------|--------|
D|--------|--------|--------|--------|--------|--------|--------|--------|--------|
A|--------|--------|--------|--------|--------|--------|--------|--------|--------|
E|--------|--------|--------|--------|--------|--------|--------|--------|--------|


E|--------|--------|--------|--------|--------|--------|--------|--------|--------|
B|--------|--------|--------|--------|--------|--------|--------|--------|--------|
G|--------|--------|--------|--------|--------|--------|--------|--------|--------|
D|--------|--------|--------|--------|--------|--------|--------|--------|--------|
A|--------|--------|--------|--------|--------|--------|--------|--------|--------|
E|--------|--------|--------|--------|--------|--------|--------|--------|--------|


E|--------|--------|--------|--------|--------|--------|--------|--------|--------|
B|--------|--------|--------|--------|--------|--------|--------|--------|--------|
G|--------|--------|--------|--------|--------|--------|--------|--------|--------|
D|--------|--------|--------|--------|--------|--------|--------|--------|--------|
A|--------|--------|--------|--------|--------|--------|--------|--------|--------|
E|--------|--------|--------|--------|--------|--------|--------|--------|--------|


E|--------|--------|--------|--------|--------|--------|--------|--------|--------|
B|--------|--------|--------|--------|--------|--------|--------|--------|--------|
G|--------|--------|--------|--------|--------|--------|--------|--------|--------|
D|--------|--------|--------|--------|--------|--------|--------|--------|--------|
A|--------|--------|--------|--------|--------|--------|--------|--------|--------|
E|--------|--------|--------|--------|--------|--------|--------|--------|--------|


E|--------|--------|--------|--------|--------|--------|--------|--------|--------|
B|--------|--------|--------|--------|--------|--------|--------|--------|--------|
G|--------|--------|--------|--------|--------|--------|--------|--------|--------|
D|--------|--------|--------|--------|--------|--------|--------|--------|--------|
A|--------|--------|--------|--------|--------|--------|--------|--------|--------|
E|--------|--------|--------|--------|--------|--------|--------|--------|--------|


E|--------|--------|--------|--------|--------|--------|--------|--------|--------|
B|--------|--------|--------|--------|--------|--------|--------|--------|--------|
G|--------|--------|--------|--------|--------|--------|--------|--------|--------|
D|--------|--------|--------|--------|--------|--------|--------|--------|--------|
A|--------|--------|--------|--------|--------|--------|--------|--------|--------|
E|--------|--------|--------|--------|--------|--------|--------|--------|--------|


E|--------|--------|--------|--------|--------|--------|--------|--------|--------|
B|--------|--------|--------|--------|--------|--------|--------|--------|--------|
G|--------|--------|--------|--------|--------|--------|--------|--------|--------|
D|--------|--------|--------|--------|--------|--------|--------|--------|--------|
A|--------|--------|--------|--------|--------|--------|--------|--------|--------|
E|--------|--------|--------|--------|--------|--------|--------|--------|--------|


E|--------|--------|--------|--------|--------|--------|--------|
B|--------|--------|--------|--------|--------|--------|--------|
G|--------|--------|--------|--------|--------|--------|--------|
D|--------|--------|--------|--------|--------|--------|--------|
A|--------|--------|--------|--------|--------|--------|--------|
E|--------|--------|--------|--------|--------|--------|--------|



← Back to top