Plush

by Stone Temple Pilots

Guitar Pro Tab  |  v3.00  |  Posted on March 29, 2007, 10:56 a.m. ← Back

Guitar Pro Tab Summary

Album

Core

Song Author

unknown

Tabbed by

Evandro Poianas

Instruments

1st → Guitarra
2nd → Bateria´┐Żo
3rd → Contrabaixo

File Size

15 KB

Views

10,190






Tablature Sheet

Title: Plush
Artist: Stone Temple Pilots
Album: Core
Author: 






Track 1: Guitarra
Back to top
E|-3----3----0----3-----3----0----3----3----3----3----3-----3----3---3---3---3---|
B|-3----3----0----2-----2----0----2----1----1----0----0-----0----0---1---2---3---|
G|-0----0----0----3-----3----0----3----2----2----0----0-----0----0---0---0---0---|
D|-0----0----0----0-----0----0----0----0----0----0----------0--------------------|
A|-2----2----0---------------0-------------------0----------0--------------------|
E|-3----3----0---------------0-------------------0----------0--------------------|


E|-3----3----0----3-----3----0----3----3----3----3----3--------------------------|
B|-3----3----0----2-----2----0----2----1----1----0----0--------------------------|
G|-0----0----0----3-----3----0----3----2----2----0----0--------------------------|
D|-0----0----0----0-----0----0----0----0----0----0-------------------------------|
A|-2----2----0---------------0-------------------0-------------------------------|
E|-3----3----0---------------0-------------------0-------------------------------|


E|-------------------------|-3----3----0---------------1-----1----1----0-----0----0----0-----|
B|-------------------------|-3----3----3-----3----3----1-----1----1----1-----1----1----0-----|
G|-------------------------|-0----0----2-----2----2----2-----2----2----0-----0----0----0-----|
D|-------------------------|-0----0----0-----0----0----3-----3----3----2-----2----2----0-----|
A|-------------------------|-2----2----0-----0----3----3-----3----3----3-----3----3----0-----|
E|-------------------------|-3----3----2-----2----2----1-----1----1----0---------------0-----|


E|-3----3----0-----3----3----5---5--------|-2----2-------------------------------------------|
B|-3----3----0-----3----3----5---5--------|-3----3----3---3----3---3----3---3----3---3---3---|
G|-3----3----0-----3----3----5---5--------|-2----2----0---0----0---0----0---0----0---0---0---|
D|-5----5----0-----5----5----7---7--------|-0----0----2---2----0---0----0---2----2---2---2---|
A|-6----6----0-----6----6----8---8--------|-----------3---3----2---2----2---3----3---3---3---|
E|-----------0----------------------------|--------------------------------------------------|


E|-2----2-------------------------------------------|-3----3----3-----3----3----3---3---5---1---1----1----1-----1----1----1---1---1---0---|
B|-3----3----3---3----3---3----3---3----3---3---3---|-3----3----3-----3----3----3---3---5---1---1----1----1-----1----1----1---1---1---0---|
G|-2----2----0---0----0---0----0---0----0---0---0---|-3----3----3-----3----3----3---3---5---2---2----2----2-----2----2----2---2---2---0---|
D|-0----0----2---2----0---0----0---2----2---2---2---|-5----5----5-----5----5----5---5---7---3---3----3----3-----3----3----3---3---3---0---|
A|-----------3---3----2---2----2---3----3---3---3---|-6----6----6-----6----6----6---6---8---3---3----3----3-----3----3----3---3---3---0---|
E|--------------------------------------------------|-----------0---------------------------1---1----1----1-----1----1----1---1---1---0---|


E|-3----3----0----3-----3----0----3----3----3----3----3-----3----3---3---3---3---|
B|-3----3----0----2-----2----0----2----1----1----0----0-----0----0---1---2---3---|
G|-0----0----0----3-----3----0----3----2----2----0----0-----0----0---0---0---0---|
D|-0----0----0----0-----0----0----0----0----0----0----------0--------------------|
A|-2----2----0---------------0-------------------0----------0--------------------|
E|-3----3----0---------------0-------------------0----------0--------------------|


E|-3----3----0----3-----3----0----3----3----3----3----3--------------------------|
B|-3----3----0----2-----2----0----2----1----1----0----0--------------------------|
G|-0----0----0----3-----3----0----3----2----2----0----0--------------------------|
D|-0----0----0----0-----0----0----0----0----0----0-------------------------------|
A|-2----2----0---------------0-------------------0-------------------------------|
E|-3----3----0---------------0-------------------0-------------------------------|


E|-------------------------|-3----3----0---------------1-----1----1----0-----0----0----0-----|
B|-------------------------|-3----3----3-----3----3----1-----1----1----1-----1----1----0-----|
G|-------------------------|-0----0----2-----2----2----2-----2----2----0-----0----0----0-----|
D|-------------------------|-0----0----0-----0----0----3-----3----3----2-----2----2----0-----|
A|-------------------------|-2----2----0-----0----3----3-----3----3----3-----3----3----0-----|
E|-------------------------|-3----3----2-----2----2----1-----1----1----0---------------0-----|


E|-3----3----0-----3----3----5---5--------|-2----2-------------------------------------------|
B|-3----3----0-----3----3----5---5--------|-3----3----3---3----3---3----3---3----3---3---3---|
G|-3----3----0-----3----3----5---5--------|-2----2----0---0----0---0----0---0----0---0---0---|
D|-5----5----0-----5----5----7---7--------|-0----0----2---2----0---0----0---2----2---2---2---|
A|-6----6----0-----6----6----8---8--------|-----------3---3----2---2----2---3----3---3---3---|
E|-----------0----------------------------|--------------------------------------------------|


E|-2----2-------------------------------------------|-3----3----3-----3----3----3---3---5---1---1----1----1-----1----1----1---1---1---0---|
B|-3----3----3---3----3---3----3---3----3---3---3---|-3----3----3-----3----3----3---3---5---1---1----1----1-----1----1----1---1---1---0---|
G|-2----2----0---0----0---0----0---0----0---0---0---|-3----3----3-----3----3----3---3---5---2---2----2----2-----2----2----2---2---2---0---|
D|-0----0----2---2----0---0----0---2----2---2---2---|-5----5----5-----5----5----5---5---7---3---3----3----3-----3----3----3---3---3---0---|
A|-----------3---3----2---2----2---3----3---3---3---|-6----6----6-----6----6----6---6---8---3---3----3----3-----3----3----3---3---3---0---|
E|--------------------------------------------------|-----------0---------------------------1---1----1----1-----1----1----1---1---1---0---|


E|------------------------------------------------------------------------------------|
B|------------------------------------------------------------------------------------|
G|------------------------------------------------------------------------------------|
D|------------------------------------------------------------------------------------|
A|-5---5---5---5---5---5----5---3---3---3---3---3---3----3---3---3---3---3---3---3----|
E|-3---3---3---3---3---3----3---1---1---1---1---1---1----1---0---0---0---0---0---0----|


E|----------------------------------|------------------------------------------------------------------------------------|
B|----------------------------------|------------------------------------------------------------------------------------|
G|----------------------------------|------------------------------------------------------------------------------------|
D|-----8---8---8---7---7---7---7----|------------------------------------------------------------------------------------|
A|-----6---6---6---5---5---5---5----|-5---5---5---5---5---5----5---3---3---3---3---3---3----3---3---3---3---3---3---3----|
E|----------------------------------|-3---3---3---3---3---3----3---1---1---1---1---1---1----1---0---0---0---0---0---0----|


E|-------------------------|------------------------------------------------------------------------------------|
B|-------------------------|------------------------------------------------------------------------------------|
G|-------------------------|------------------------------------------------------------------------------------|
D|-----8----8----7----7----|------------------------------------------------------------------------------------|
A|-----6----6----5----5----|-5---5---5---5---5---5----5---3---3---3---3---3---3----3---3---3---3---3---3---3----|
E|-------------------------|-3---3---3---3---3---3----3---1---1---1---1---1---1----1---0---0---0---0---0---0----|


E|----------------------------------|------------------------------------------------------------------------------------|
B|----------------------------------|------------------------------------------------------------------------------------|
G|----------------------------------|------------------------------------------------------------------------------------|
D|-----8---8---8---7---7---7---7----|------------------------------------------------------------------------------------|
A|-----6---6---6---5---5---5---5----|-5---5---5---5---5---5----5---3---3---3---3---3---3----3---3---3---3---3---3---3----|
E|----------------------------------|-3---3---3---3---3---3----3---1---1---1---1---1---1----1---0---0---0---0---0---0----|


E|-------------------------|-3----3----0----3-----3----0----3----3----3----3----3-----3----3---3---3---3---|
B|-------------------------|-3----3----0----2-----2----0----2----1----1----0----0-----0----0---1---2---3---|
G|-------------------------|-0----0----0----3-----3----0----3----2----2----0----0-----0----0---0---0---0---|
D|-----8----8----7----7----|-0----0----0----0-----0----0----0----0----0----0----------0--------------------|
A|-----6----6----5----5----|-2----2----0---------------0-------------------0----------0--------------------|
E|-------------------------|-3----3----0---------------0-------------------0----------0--------------------|


E|-3----3----0----3-----3----0----3----3----3----3----3--------------------------|
B|-3----3----0----2-----2----0----2----1----1----0----0--------------------------|
G|-0----0----0----3-----3----0----3----2----2----0----0--------------------------|
D|-0----0----0----0-----0----0----0----0----0----0-------------------------------|
A|-2----2----0---------------0-------------------0-------------------------------|
E|-3----3----0---------------0-------------------0-------------------------------|


E|-------------------------|-3----3----3-----3----3----3---3---5---1---1----1----1-----1----1----1---1---1---0---|
B|-------------------------|-3----3----3-----3----3----3---3---5---1---1----1----1-----1----1----1---1---1---0---|
G|-------------------------|-3----3----3-----3----3----3---3---5---2---2----2----2-----2----2----2---2---2---0---|
D|-------------------------|-5----5----5-----5----5----5---5---7---3---3----3----3-----3----3----3---3---3---0---|
A|-------------------------|-6----6----6-----6----6----6---6---8---3---3----3----3-----3----3----3---3---3---0---|
E|-------------------------|-----------0---------------------------1---1----1----1-----1----1----1---1---1---0---|


E|------------------------------------------------------------------------------------|
B|------------------------------------------------------------------------------------|
G|------------------------------------------------------------------------------------|
D|------------------------------------------------------------------------------------|
A|-5---5---5---5---5---5----5---3---3---3---3---3---3----3---3---3---3---3---3---3----|
E|-3---3---3---3---3---3----3---1---1---1---1---1---1----1---0---0---0---0---0---0----|


E|----------------------------------|------------------------------------------------------------------------------------|
B|----------------------------------|------------------------------------------------------------------------------------|
G|----------------------------------|------------------------------------------------------------------------------------|
D|-----8---8---8---7---7---7---7----|------------------------------------------------------------------------------------|
A|-----6---6---6---5---5---5---5----|-5---5---5---5---5---5----5---3---3---3---3---3---3----3---3---3---3---3---3---3----|
E|----------------------------------|-3---3---3---3---3---3----3---1---1---1---1---1---1----1---0---0---0---0---0---0----|


E|-------------------------|------------------------------------------------------------------------------------|
B|-------------------------|------------------------------------------------------------------------------------|
G|-------------------------|------------------------------------------------------------------------------------|
D|-----8----8----7----7----|------------------------------------------------------------------------------------|
A|-----6----6----5----5----|-5---5---5---5---5---5----5---3---3---3---3---3---3----3---3---3---3---3---3---3----|
E|-------------------------|-3---3---3---3---3---3----3---1---1---1---1---1---1----1---0---0---0---0---0---0----|


E|----------------------------------|------------------------------------------------------------------------------------|
B|----------------------------------|------------------------------------------------------------------------------------|
G|----------------------------------|------------------------------------------------------------------------------------|
D|-----8---8---8---7---7---7---7----|------------------------------------------------------------------------------------|
A|-----6---6---6---5---5---5---5----|-5---5---5---5---5---5----5---3---3---3---3---3---3----3---3---3---3---3---3---3----|
E|----------------------------------|-3---3---3---3---3---3----3---1---1---1---1---1---1----1---0---0---0---0---0---0----|


E|-------------------------|-3----3----0----3-----3----0----3----3----3----3----3-----3----3---3---3---3---|
B|-------------------------|-3----3----0----2-----2----0----2----1----1----0----0-----0----0---1---2---3---|
G|-------------------------|-0----0----0----3-----3----0----3----2----2----0----0-----0----0---0---0---0---|
D|-----8----8----7----7----|-0----0----0----0-----0----0----0----0----0----0----------0--------------------|
A|-----6----6----5----5----|-2----2----0---------------0-------------------0----------0--------------------|
E|-------------------------|-3----3----0---------------0-------------------0----------0--------------------|


E|-3----3----0----3-----3----0----3----3----3----3----3----------------------3---|
B|-3----3----0----2-----2----0----2----1----1----0----0----------------------0---|
G|-0----0----0----3-----3----0----3----2----2----0----0----------------------0---|
D|-0----0----0----0-----0----0----0----0----0----0-------------------------------|
A|-2----2----0---------------0-------------------0-------------------------------|
E|-3----3----0---------------0-------------------0-------------------------------|









Track 2: Contrabaixo
Back to top
G|-------------------------------------------------------------------------------------|
D|-------------------------------------------------------------------------------------|
A|----------------1-----1----1-------1---2---3----3----0---------------1---3---4---5---|
E|-3----3----0-------------------3--------------------------3-----3--------------------|


G|-------------------------------------------------------------------------------------|
D|-------------------------------------------------------------------------------------|
A|----------------1-----1----1-------1---2---3----3----0-------------------------------|
E|-3----3----0-------------------3--------------------------3----------------------3---|


G|----------------|-----------------------------------------------------------------------------|
D|----------------|-----------------4--------------2----3----3----3----3----2-------------------|
A|----------------|-----------5----------5----5----------------------------------3----3----5----|
E|----------------|-3----3----------------------------------------------------------------------|


G|-----------------------------------------------------|-----------------------------------------------------|
D|-----------------------------------------------------|-----------------------------------------4---2-------|
A|-6----6----6----5----6---6---6---6---6---8---8---0---|-5----5---5---3---3----2---2----3---3------------3---|
E|-----------------------------------------------------|-----------------------------------------------------|


G|-----------------------------------------------------|-------------------------------------------------------------------------------------|
D|-----------------------------------------------------|--------------------------------10--8---7--------------------------------------------|
A|-5----5---5---3---3----2---2----3------------2---3---|-6----6----0-----6----6----6-----------------8----8-----8----8---8---8---10--8-------|
E|------------------------------------3----5-----------|---------------------------------------------------------------------------------8---|


G|-------------------------------------------------------------------------------------|
D|-------------------------------------------------------------------------------------|
A|----------------1-----1----1-------1---2---3----3----0---------------1---3---4---5---|
E|-3----3----0-------------------3--------------------------3-----3--------------------|


G|-------------------------------------------------------------------------------------|
D|-------------------------------------------------------------------------------------|
A|----------------1-----1----1-------1---2---3----3----0-------------------------------|
E|-3----3----0-------------------3--------------------------3----------------------3---|


G|----------------|-----------------------------------------------------------------------------|
D|----------------|-----------------4--------------2----3----3----3----3----2-------------------|
A|----------------|-----------5----------5----5----------------------------------3----3----5----|
E|----------------|-3----3----------------------------------------------------------------------|


G|-----------------------------------------------------|-----------------------------------------------------|
D|-----------------------------------------------------|-----------------------------------------4---2-------|
A|-6----6----6----5----6---6---6---6---6---8---8---0---|-5----5---5---3---3----2---2----3---3------------3---|
E|-----------------------------------------------------|-----------------------------------------------------|


G|-----------------------------------------------------|-------------------------------------------------------------------------------------|
D|-----------------------------------------------------|--------------------------------10--8---7--------------------------------------------|
A|-5----5---5---3---3----2---2----3------------2---3---|-6----6----0-----6----6----6-----------------8----8-----8----8---8---8---10--8-------|
E|------------------------------------3----5-----------|---------------------------------------------------------------------------------8---|


G|------------------------------------------------------------------------------------|
D|---------------------5----------------------------3----------------------------2----|
A|------------------------------------------------------------------------------------|
E|-3---3---3---3---3--------3---1---1---1---1---1--------1---0---0---0---0---0--------|


G|----------------------------------|------------------------------------------------------------------------------------|
D|----------------------------------|---------------------5----------------------------3----------------------------2----|
A|-----6---6---6---5---5---5---5----|------------------------------------------------------------------------------------|
E|----------------------------------|-3---3---3---3---3--------3---1---1---1---1---1--------1---0---0---0---0---0--------|


G|-------------------------|------------------------------------------------------------------------------------|
D|-------------------------|---------------------5----------------------------3----------------------------2----|
A|-----6----6----5----5----|------------------------------------------------------------------------------------|
E|-------------------------|-3---3---3---3---3--------3---1---1---1---1---1--------1---0---0---0---0---0--------|


G|----------------------------------|------------------------------------------------------------------------------------|
D|----------------------------------|---------------------5----------------------------3----------------------------2----|
A|-----6---6---6---5---5---5---5----|------------------------------------------------------------------------------------|
E|----------------------------------|-3---3---3---3---3--------3---1---1---1---1---1--------1---0---0---0---0---0--------|


G|-------------------------|-------------------------------------------------------------------------------------|
D|-------------------------|-------------------------------------------------------------------------------------|
A|-----6----6----5----5----|----------------1-----1----1-------1---2---3----3----0---------------1---3---4---5---|
E|-------------------------|-3----3----0-------------------3--------------------------3-----3--------------------|


G|-------------------------------------------------------------------------------------|
D|-------------------------------------------------------------------------------------|
A|----------------1-----1----1-------1---2---3----3----0-------------------------------|
E|-3----3----0-------------------3--------------------------3----------------------3---|


G|----------------|-------------------------------------------------------------------------------------|
D|----------------|--------------------------------10--8---7--------------------------------------------|
A|----------------|-6----6----0-----6----6----6-----------------8----8-----8----8---8---8---10--8-------|
E|----------------|---------------------------------------------------------------------------------8---|


G|------------------------------------------------------------------------------------|
D|------------------------------------------------------------------------------------|
A|------------------------------------------------------------------------------------|
E|-3---3---3---3---3---3----3---1---1---1---1---1---1----1---0---0---0---0---0---0----|


G|----------------------------------|------------------------------------------------------------------------------------|
D|----------------------------------|------------------------------------------------------------------------------------|
A|-----6---6---6---5---5---5---5----|------------------------------------------------------------------------------------|
E|----------------------------------|-3---3---3---3---3---3----3---1---1---1---1---1---1----1---0---0---0---0---0---0----|


G|-------------------------|------------------------------------------------------------------------------------|
D|-------------------------|------------------------------------------------------------------------------------|
A|-----6----6----5----5----|------------------------------------------------------------------------------------|
E|-------------------------|-3---3---3---3---3---3----3---1---1---1---1---1---1----1---0---0---0---0---0---0----|


G|----------------------------------|------------------------------------------------------------------------------------|
D|----------------------------------|------------------------------------------------------------------------------------|
A|-----6---6---6---5---5---5---5----|------------------------------------------------------------------------------------|
E|----------------------------------|-3---3---3---3---3---3----3---1---1---1---1---1---1----1---0---0---0---0---0---0----|


G|-------------------------|-------------------------------------------------------------------------------------|
D|-------------------------|-------------------------------------------------------------------------------------|
A|-----6----6----5----5----|----------------1-----1----1-------1---2---3----3----0---------------1---3---4---5---|
E|-------------------------|-3----3----0-------------------3--------------------------3-----3--------------------|


G|-------------------------------------------------------------------------------------|
D|-------------------------------------------------------------------------------------|
A|----------------1-----1----1-------1---2---3----3----0-------------------------------|
E|-3----3----0-------------------3--------------------------3----------------------3---|









Track 3: Bateria
Back to top
C|----------------------------------------------------------------------------------|
C|-42---42---42---35----42---42---42---42---42---42---35----36------36------36------|
C|-36---36---38---49----36---38---36---36---36---38---49----38--38--41--41--43--49--|
C|----------------------------------------------------------------------------------|
C|----------------------------------------------------------------------------------|
C|----------------------------------------------------------------------------------|


C|------------------------------------------------------------------------------------------|
C|-42---42---42---35----42---42---42---42---42---42---35------------------------------------|
C|-36---36---38---49----36---38---36---36---36---38---49------------------------------38-38-|
C|------------------------------------------------------------------------------------------|
C|------------------------------------------------------------------------------------------|
C|------------------------------------------------------------------------------------------|


C|-------------------------|-42---42---42---42---42---42---42---42---42---42---42---42---42---42---42---42---|
C|-36------36------36------|-36---36---38---36---36---36---38---36---36---36---38---36---36---36---38---36---|
C|-38--38--41--41--43--43--|---------------------------------------------------------------------------------|
C|-------------------------|---------------------------------------------------------------------------------|
C|-------------------------|---------------------------------------------------------------------------------|
C|-------------------------|---------------------------------------------------------------------------------|


C|-42---42---42---42---42---42---42---49---|-----------------------------------------------------------------|
C|-36---36---38---36---36---36---38---38---|-38--38--38--38--41--41--41--41--43--43--43--43--38--38--41--41--|
C|-----------------------------------------|-36------36------36------36------36------36------36------36------|
C|-----------------------------------------|-----------------------------------------------------------------|
C|-----------------------------------------|-----------------------------------------------------------------|
C|-----------------------------------------|-----------------------------------------------------------------|


C|-----------------------------------------------------------------|-42---42---42---42---42---42---42---42---42---42---42---42---42---42---42---42---|
C|-38--38--38--38--41--41--41--41--43--43--43--43--38--38--41--41--|-36---36---38---36---36---36---38---36---36---36---38---36---36---36---38---36---|
C|-36------36------36------36------36------36------36------36------|---------------------------------------------------------------------------------|
C|-----------------------------------------------------------------|---------------------------------------------------------------------------------|
C|-----------------------------------------------------------------|---------------------------------------------------------------------------------|
C|-----------------------------------------------------------------|---------------------------------------------------------------------------------|


C|----------------------------------------------------------------------------------|
C|-42---42---42---35----42---42---42---42---42---42---35----36------36------36------|
C|-36---36---38---49----36---38---36---36---36---38---49----38--38--41--41--43--49--|
C|----------------------------------------------------------------------------------|
C|----------------------------------------------------------------------------------|
C|----------------------------------------------------------------------------------|


C|------------------------------------------------------------------------------------------|
C|-42---42---42---35----42---42---42---42---42---42---35------------------------------------|
C|-36---36---38---49----36---38---36---36---36---38---49------------------------------38-38-|
C|------------------------------------------------------------------------------------------|
C|------------------------------------------------------------------------------------------|
C|------------------------------------------------------------------------------------------|


C|-------------------------|-42---42---42---42---42---42---42---42---42---42---42---42---42---42---42---42---|
C|-36------36------36------|-36---36---38---36---36---36---38---36---36---36---38---36---36---36---38---36---|
C|-38--38--41--41--43--43--|---------------------------------------------------------------------------------|
C|-------------------------|---------------------------------------------------------------------------------|
C|-------------------------|---------------------------------------------------------------------------------|
C|-------------------------|---------------------------------------------------------------------------------|


C|-42---42---42---42---42---42---42---49---|-----------------------------------------------------------------|
C|-36---36---38---36---36---36---38---38---|-38--38--38--38--41--41--41--41--43--43--43--43--38--38--41--41--|
C|-----------------------------------------|-36------36------36------36------36------36------36------36------|
C|-----------------------------------------|-----------------------------------------------------------------|
C|-----------------------------------------|-----------------------------------------------------------------|
C|-----------------------------------------|-----------------------------------------------------------------|


C|-----------------------------------------------------------------|-42---42---42---42---42---42---42---42---42---42---42---42---42---42---42---42---|
C|-38--38--38--38--41--41--41--41--43--43--43--43--38--38--41--41--|-36---36---38---36---36---36---38---36---36---36---38---36---36---36---38---36---|
C|-36------36------36------36------36------36------36------36------|---------------------------------------------------------------------------------|
C|-----------------------------------------------------------------|---------------------------------------------------------------------------------|
C|-----------------------------------------------------------------|---------------------------------------------------------------------------------|
C|-----------------------------------------------------------------|---------------------------------------------------------------------------------|


C|-42---42---42---42---42---42---42---42---42---42---42---36--|-----38--38--38--41--41--43--43--43--|
C|-36---38---36---38---36---38---36---38---36---38---36---46--|-----36------36------36------36------|
C|------------------------------------------------------------|-------------------------------------|
C|------------------------------------------------------------|-------------------------------------|
C|------------------------------------------------------------|-------------------------------------|
C|------------------------------------------------------------|-------------------------------------|


C|-42---42---42---42---42---42---42---42---42---42---42---36--|-----38--38--38--41--41--43--43--43--|
C|-36---38---36---38---36---38---36---38---36---38---36---46--|-----36------36------36------36------|
C|------------------------------------------------------------|-------------------------------------|
C|------------------------------------------------------------|-------------------------------------|
C|------------------------------------------------------------|-------------------------------------|
C|------------------------------------------------------------|-------------------------------------|


C|-42---42---42---42---42---42---42---42---42---42---42---36--|-----38--38--38--41--41--43--43--43--|
C|-36---38---36---38---36---38---36---38---36---38---36---46--|-----36------36------36------36------|
C|------------------------------------------------------------|-------------------------------------|
C|------------------------------------------------------------|-------------------------------------|
C|------------------------------------------------------------|-------------------------------------|
C|------------------------------------------------------------|-------------------------------------|


C|-42---42---42---42---42---42---42---42---42---42---42---36--|-----38--38--38--41--41--43--43--43--|
C|-36---38---36---38---36---38---36---38---36---38---36---46--|-----36------36------36------36------|
C|------------------------------------------------------------|-------------------------------------|
C|------------------------------------------------------------|-------------------------------------|
C|------------------------------------------------------------|-------------------------------------|
C|------------------------------------------------------------|-------------------------------------|


C|----------------------------------------------------------------------------------|
C|-42---42---42---35----42---42---42---42---42---42---35----36------36------36------|
C|-36---36---38---49----36---38---36---36---36---38---49----38--38--41--41--43--49--|
C|----------------------------------------------------------------------------------|
C|----------------------------------------------------------------------------------|
C|----------------------------------------------------------------------------------|


C|------------------------------------------------------------------------------------------|
C|-42---42---42---35----42---42---42---42---42---42---35------------------------------------|
C|-36---36---38---49----36---38---36---36---36---38---49------------------------------------|
C|------------------------------------------------------------------------------------------|
C|------------------------------------------------------------------------------------------|
C|------------------------------------------------------------------------------------------|


C|-------------------------------------|-42---42---42---42---42---42---42---42---42---42---42---42---42---42---42---42---|
C|-------------------------------------|-36---36---38---36---36---36---38---36---36---36---38---36---36---36---38---36---|
C|-------------------------------------|---------------------------------------------------------------------------------|
C|-------------------------------------|---------------------------------------------------------------------------------|
C|-------------------------------------|---------------------------------------------------------------------------------|
C|-------------------------------------|---------------------------------------------------------------------------------|


C|-42---42---42---42---42---42---42---42---42---42---42---36--|-----38--38--38--41--41--43--43--43--|
C|-36---38---36---38---36---38---36---38---36---38---36---46--|-----36------36------36------36------|
C|------------------------------------------------------------|-------------------------------------|
C|------------------------------------------------------------|-------------------------------------|
C|------------------------------------------------------------|-------------------------------------|
C|------------------------------------------------------------|-------------------------------------|


C|-42---42---42---42---42---42---42---42---42---42---42---36--|-----38--38--38--41--41--43--43--43--|
C|-36---38---36---38---36---38---36---38---36---38---36---46--|-----36------36------36------36------|
C|------------------------------------------------------------|-------------------------------------|
C|------------------------------------------------------------|-------------------------------------|
C|------------------------------------------------------------|-------------------------------------|
C|------------------------------------------------------------|-------------------------------------|


C|-42---42---42---42---42---42---42---42---42---42---42---36--|-----38--38--38--41--41--43--43--43--|
C|-36---38---36---38---36---38---36---38---36---38---36---46--|-----36------36------36------36------|
C|------------------------------------------------------------|-------------------------------------|
C|------------------------------------------------------------|-------------------------------------|
C|------------------------------------------------------------|-------------------------------------|
C|------------------------------------------------------------|-------------------------------------|


C|-42---42---42---42---42---42---42---42---42---42---42---36--|-----38--38--38--41--41--43--43--43--|
C|-36---38---36---38---36---38---36---38---36---38---36---46--|-----36------36------36------36------|
C|------------------------------------------------------------|-------------------------------------|
C|------------------------------------------------------------|-------------------------------------|
C|------------------------------------------------------------|-------------------------------------|
C|------------------------------------------------------------|-------------------------------------|


C|----------------------------------------------------------------------------------|
C|-42---42---42---35----42---42---42---42---42---42---35----36------36------36------|
C|-36---36---38---49----36---38---36---36---36---38---49----38--38--41--41--43--49--|
C|----------------------------------------------------------------------------------|
C|----------------------------------------------------------------------------------|
C|----------------------------------------------------------------------------------|


C|----------------------------------------------------------------------------------------|
C|-42---42---42---35----42---42---42---42---42---42---35------------------------------35--|
C|-36---36---38---49----36---38---36---36---36---38---49------------------------------49--|
C|----------------------------------------------------------------------------------------|
C|----------------------------------------------------------------------------------------|
C|----------------------------------------------------------------------------------------|



← Back to top