Metallica Medley

by Sum 41

Guitar Pro Tab  |  v3.00  |  Posted on March 29, 2007, 10:58 a.m. ← Back

Guitar Pro Tab Summary

Album

Mtv icon metallica

Song Author

Sum 41

Tabbed by

olo

Instruments

1st → Davek 1
2nd → cone
3rd → deryck2
4th →
5th → stevo

File Size

32 KB

Views

2,911

Notice

everthingļæ½s good






Related guitar pro tabs

Tablature Sheet

Title: Metallica Medley
Artist: Sum 41
Album: Mtv icon metallica
Author: Sum 41






Track 1: Dave
Back to top
D#|--------|--------|-----------------------------------|--------|-----------------------------------|
A#|--------|--------|-----------------------------------|--------|-----------------------------------|
F#|--------|--------|-----------------------------------|--------|-----------------------------------|
C#|--------|--------|-------4--4-4--------4--4-4--------|-2------|-2-----4--4-4--------4--4-4--------|
G#|--------|--------|-------4--4-4--------4--4-4--------|-2------|-2-----4--4-4--------4--4-4--------|
C#|--------|--------|-------4--4-4--------4--4-4--------|-2------|-2-----4--4-4--------4--4-4--------|


D#|--------|-----------------------------------|--------|-----------------------------------|
A#|--------|-----------------------------------|--------|-----------------------------------|
F#|--------|-----------------------------------|--------|-----------------------------------|
C#|-2------|-2-----4--4-4--------4--4-4--------|-2------|-2-----4--4-4--------4--4-4--------|
G#|-2------|-2-----4--4-4--------4--4-4--------|-2------|-2-----4--4-4--------4--4-4--------|
C#|-2------|-2-----4--4-4--------4--4-4--------|-2------|-2-----4--4-4--------4--4-4--------|


D#|--------|-----------------------------------|---------------------------------|
A#|--------|-----------------------------------|---------------------------------|
F#|--------|-----------------------------------|---------------------------------|
C#|-2------|-2-----4--4-4--------4--4-4--------|---------------------------------|
G#|-2------|-2-----4--4-4--------4--4-4--------|-2---0---0---0---0---0---0---0---|
C#|-2------|-2-----4--4-4--------4--4-4--------|-2---5---4---3---2---5---4---3---|


D#|---------------------------------|---------------------------------|---------------------------------|
A#|---------------------------------|---------------------------------|---------------------------------|
F#|---------------------------------|---------------------------------|---------------------------------|
C#|-----------------------------7---|---------------------------------|-----------------------------8---|
G#|-0---0---0---0---0---0---0---7---|-2---0---0---0---0---0---0---0---|-0---0---0---0---0---0---0---8---|
C#|-2---5---4---3---2---4---5---7---|-2---5---4---3---2---5---4---3---|-2---5---4---3---2---4---5---8---|


D#|---------------------------------|---------------------------------|---------------------------------|
A#|---------------------------------|---------------------------------|---------------------------------|
F#|---------------------------------|---------------------------------|---------------------------------|
C#|---------------------------------|-----------------------------7---|---------------------------------|
G#|-2---0---0---0---0---0---0---0---|-0---0---0---0---0---0---0---7---|-2---0---0---0---0---0---0---0---|
C#|-2---5---4---3---2---5---4---3---|-2---5---4---3---2---4---5---7---|-2---5---4---3---2---5---4---3---|


D#|---------------------------------|--------|--------|--------|-----------------|
A#|---------------------------------|--------|--------|--------|-----------------|
F#|---------------------------------|--------|--------|--------|-----------------|
C#|---------------------------------|-2------|-2------|-5------|-5---------------|
G#|-0---0---0---0---0---0---5---9---|-2------|-2------|-5------|-5---------------|
C#|-2---5---4---3---2---4---5---9---|-2------|-2------|-5------|-5---------------|


D#|--------|--------|--------|-------------|--------|--------|--------|-----------------|
A#|--------|--------|--------|-------------|--------|--------|--------|-----------------|
F#|--------|--------|--------|-5-----2-----|--------|--------|--------|-----------------|
C#|-2------|-2------|-5------|-5-----2-----|-2------|-2------|-5------|-5---------------|
G#|-2------|-2------|-5------|-3-----0-----|-2------|-2------|-5------|-5---------------|
C#|-2------|-2------|-5------|-------------|-2------|-2------|-5------|-5---------------|


D#|--------|--------|--------|-------------|-----------------------------------|----------------------------|
A#|--------|--------|--------|-------------|-----------------------------------|----------------------------|
F#|--------|--------|--------|-5-----2-----|-----------------------------------|------------------3---------|
C#|-2------|-2------|-5------|-5-----2-----|-------------5----------------7----|-------------5----3----4----|
G#|-2------|-2------|-5------|-3-----0-----|-0---0---0---5----0---0---0---7----|-0---0---0---5----1----4----|
C#|-2------|-2------|-5------|-------------|-2---2---2---5----2---2---2---7----|-2---2---2---5---------4----|


D#|-----------------------------------|---------------------------------------------|
A#|-----------------------------------|---------------------------------------------|
F#|-----------------------------------|-------------------------3---3---------------|
C#|-------------5----------------7----|-------------------------3---3--4---4-3---3--|
G#|-0---0---0---5----0---0---0---7----|-0---0---0---5---0---0---1---1--4---4-3---3--|
C#|-2---2---2---5----2---2---2---7----|-2---2---2---5---2---2----------4---4-3---3--|


D#|-----------------------------------|----------------------------|-----------------------------------|
A#|-----------------------------------|----------------------------|-----------------------------------|
F#|-----------------------------------|------------------3---------|-----------------------------------|
C#|-------------5----------------7----|-------------5----3----4----|-------------5----------------7----|
G#|-0---0---0---5----0---0---0---7----|-0---0---0---5----1----4----|-0---0---0---5----0---0---0---7----|
C#|-2---2---2---5----2---2---2---7----|-2---2---2---5---------4----|-2---2---2---5----2---2---2---7----|


D#|---------------------------------------------|--------|--------|-----|--------|
A#|---------------------------------------------|--------|--------|-----|--------|
F#|-------------------------3---3---------------|--------|--------|-----|--------|
C#|-------------------------3---3--4---4-3---3--|--------|--------|-----|--------|
G#|-0---0---0---5---0---0---1---1--4---4-3---3--|-2------|-2------|-----|--------|
C#|-2---2---2---5---2---2----------4---4-3---3--|-2------|-2------|-----|--------|


D#|--------|--------|----------------0---|-0------|-0------|--------|--------|---------------------------------|
A#|--------|--------|----------------0---|-0------|-0------|--------|--------|---------------------------------|
F#|--------|--------|----------------0---|-0------|-0------|--------|--------|---------------------------------|
C#|--------|--------|----------------2---|-2------|-2------|--------|--------|---------------------------------|
G#|--------|--------|--------------------|--------|--------|--------|--------|-0---0---0---0---0---0---0---3---|
C#|--------|--------|--------------------|--------|--------|--------|--------|-2---2---2---2---2---2---2---3---|


D#|---------------------------------|---------------------------------|---------------------------------|
A#|---------------------------------|---------------------------------|---------------------------------|
F#|---------------------------------|---------------------------------|---------------------------------|
C#|---------------------------------|---------------------------------|---------------------------------|
G#|-0---0---0---0---0---0---0---3---|-0---0---0---0---0---0---0---3---|-0---0---0---3-------3-------2---|
C#|-2---2---2---2---2---2---2---3---|-2---2---2---2---2---2---2---3---|-2---2---2---3---2---3---2---2---|


D#|---------------------------------|---------------------------------|---------------------------------|
A#|---------------------------------|---------------------------------|---------------------------------|
F#|---------------------------------|---------------------------------|---------------------------------|
C#|---------------------------------|---------------------------------|---------------------------------|
G#|-0---0---0---0---0---0---0---3---|-0---0---0---0---0---0---0---3---|-0---0---0---0---0---0---0---3---|
C#|-2---2---2---2---2---2---2---3---|-2---2---2---2---2---2---2---3---|-2---2---2---2---2---2---2---3---|


D#|---------------------------------|---------------------------------|---------------------------------|
A#|---------------------------------|---------------------------------|---------------------------------|
F#|---------------------------------|---------------------------------|---------------------------------|
C#|---------------------------------|---------------------------------|---------------------------------|
G#|-0---0---0---0---0---0---0---3---|-2---2---2---7---8---7---7---7---|-2---2---2---7---8---7---7---7---|
C#|-2---2---2---2---2---2---2---3---|-2---2---2-------8---7---7---7---|-2---2---2-------8---7---7---7---|


D#|---------------------------------|---------------------------------|---------------------------------|
A#|---------------------------------|---------------------------------|---------------------------------|
F#|---------------------------------|---------------------------------|---------------------------------|
C#|---------------------------------|---------------------------------|---------------------------------|
G#|-2---2---2---7---8---7---7---7---|-5---5---0---0---0---0---0---0---|-2---2---2---7---8---7---7---7---|
C#|-2---2---2-------8---7---7---7---|-5---5---2---4---2---4---5---4---|-2---2---2-------8---7---7---7---|


D#|---------------------------------|---------------------------------|---------------------------------|
A#|---------------------------------|---------------------------------|---------------------------------|
F#|---------------------------------|---------------------------------|---------------------------------|
C#|---------------------------------|---------------------------------|---------------------------------|
G#|-2---2---2---7---8---7---7---7---|-2---2---2---7---8---7---7---7---|-5---5---0---0---0---0---0---0---|
C#|-2---2---2-------8---7---7---7---|-2---2---2-------8---7---7---7---|-5---5---2---4---2---4---5---4---|


D#|---------------------------------|---------------------------------|---------------------------------|
A#|---------------------------------|---------------------------------|---------------------------------|
F#|---------------------------------|---------------------------------|---------------------------------|
C#|---------------------------------|---------------------------------|---------------------------------|
G#|-2---2---2---7---8---7---7---7---|-2---2---2---7---8---7---7---7---|-2---2---2---7---8---7---7---7---|
C#|-2---2---2-------8---7---7---7---|-2---2---2-------8---7---7---7---|-2---2---2-------8---7---7---7---|


D#|---------------------------------|---------------------------------|---------------------------------|
A#|---------------------------------|---------------------------------|---------------------------------|
F#|---------------------------------|---------------------------------|---------------------------------|
C#|---------------------------------|---------------------------------|---------------------------------|
G#|-5---5---0---0---0---0---0---0---|-2---2---2---7---8---7---7---7---|-2---2---2---7---8---7---7---7---|
C#|-5---5---2---4---2---4---5---4---|-2---2---2-------8---7---7---7---|-2---2---2-------8---7---7---7---|


D#|---------------------------------|---------------------------------|---------|---------------------------------|
A#|---------------------------------|---------------------------------|---------|---------------------------------|
F#|---------------------------------|---------------------------------|---------|---------------------------------|
C#|---------------------------------|---------------------------------|---------|---------------------------------|
G#|-2---2---2---7---8---7---7---7---|-5---5---0---0---0---0---0---0---|-2-------|---------------------------------|
C#|-2---2---2-------8---7---7---7---|-5---5---2---4---2---4---5---4---|-2-------|---------------------------------|


D#|-17--12--------------12--17--12--------------12--|-17--12--------------12--15--12--------------12--|
A#|---------13--12--13--------------13--12--13------|---------13--12--13--------------13--12--13------|
F#|-------------------------------------------------|-------------------------------------------------|
C#|-------------------------------------------------|-------------------------------------------------|
G#|-------------------------------------------------|-------------------------------------------------|
C#|-------------------------------------------------|-------------------------------------------------|


D#|-17--12--------------12--17--12--------------12--|-17--12---------12-12-15-12----|
A#|---------13--12--13--------------13--12--13------|---------13--12-------------13-|
F#|-------------------------------------------------|-------------------------------|
C#|-------------------------------------------------|-------------------------------|
G#|-------------------------------------------------|-------------------------------|
C#|-------------------------------------------------|-------------------------------|


D#|-----19--19--17-17-17-17-15--15--15--14-14-14-14-|-17--17--17--15-15-15-14-14-14-14-14-----------|
A#|-17----------------------------------------------|-------------------------------------15--15-17-|
F#|-------------------------------------------------|-----------------------------------------------|
C#|-------------------------------------------------|-----------------------------------------------|
G#|-------------------------------------------------|-----------------------------------------------|
C#|-------------------------------------------------|-----------------------------------------------|


D#|-------------------17-19-----|----------------------|-19---19---19--19-19-19---|
A#|-17----17--15--14---------17-|-15--14---------------|--------------------------|
F#|-----------------------------|---------16--14-------|--------------------------|
C#|-----------------------------|----------------------|--------------------------|
G#|-----------------------------|----------------------|--------------------------|
C#|-----------------------------|----------------------|--------------------------|


D#|-19----19--19-19-19--19----------|---------------------------------|---------------------|
A#|---------------------------------|---------------------------------|---------------------|
F#|-------------------------2---4---|-2---4---3---2---2---------------|---------------------|
C#|---------------------------------|---------------------4---2-------|-2---4---4---4---4---|
G#|---------------------------------|-----------------------------2---|---------------------|
C#|---------------------------------|---------------------------------|---------------------|


D#|---------------------------------|---------------------------------------|-------------------------12----------12----------|
A#|-15--13--12------13--12----------|-------------12--12--12-12-12--12--12--|-12-15-13-12-15-13-12-13----15-15-13----15-15-15-|
F#|-------------14----------14--12--|-11--12--14----------------------------|-------------------------------------------------|
C#|---------------------------------|---------------------------------------|-------------------------------------------------|
G#|---------------------------------|---------------------------------------|-------------------------------------------------|
C#|---------------------------------|---------------------------------------|-------------------------------------------------|


D#|-14-------14-------15-15-------|-17-------10-17----------17----------19-17-------|
A#|----17-15----15-17-------17-19-|----20-19--------19--19-----21-19-19-------19-19-|
F#|-------------------------------|-------------------------------------------------|
C#|-------------------------------|-------------------------------------------------|
G#|-------------------------------|-------------------------------------------------|
C#|-------------------------------|-------------------------------------------------|


D#|-17----------19-17-------17----------19-17-------|-14--14--14--14--14--14--14--14--|
A#|----21-19-19-------19-19----21-19-19-------19-19-|-17--17--17--17--17--17--17--17--|
F#|-------------------------------------------------|---------------------------------|
C#|-------------------------------------------------|---------------------------------|
G#|-------------------------------------------------|---------------------------------|
C#|-------------------------------------------------|---------------------------------|


D#|-19--14------19--14--14--14--|-----14--14--14--14--14-14-14-----14-14-|-----15--15--15--15--15--15--15--|
A#|---------17----------17--17--|-17--17--17--17--17-----------17--------|-18--18--18--18--18--18--18--18--|
F#|-----------------------------|----------------------------------------|---------------------------------|
C#|-----------------------------|----------------------------------------|---------------------------------|
G#|-----------------------------|----------------------------------------|---------------------------------|
C#|-----------------------------|----------------------------------------|---------------------------------|


D#|-----17--17--17--17--17--17--17--|-----19------19--22--|-22-----|---------------------------------|
A#|-20--20--20--20--20--20--20--20--|-22------22----------|--------|---------------------------------|
F#|---------------------------------|---------------------|--------|---------------------------------|
C#|---------------------------------|---------------------|--------|---------------------------------|
G#|---------------------------------|---------------------|--------|-14--0---0---0---12--12--14--14--|
C#|---------------------------------|---------------------|--------|-14--14--14--14--12--12--14--14--|


D#|---------------------------------|---------------------------------|---------------------------------|
A#|---------------------------------|---------------------------------|---------------------------------|
F#|---------------------------------|---------------------------------|---------------------------------|
C#|---------------------------------|---------------------------------|-----------------8---8-----------|
G#|-7---9---14--9---9---10--10--10--|-10--10--10--10--10--10--9---9---|-0---0---0---0---6---6---9---9---|
C#|---------------------------------|-10--10--10--10--10--10--9---9---|-10--10--10--10----------9---9---|


D#|---------------------------------|---------------------------------|---------------------------------|
A#|---------------------------------|---------------------------------|---------------------------------|
F#|---------------------------------|---------------------------------|---------------------------------|
C#|---------------------------------|---------------------------------|---------------------------------|
G#|-14--0---0---0---12--12--14--14--|-7---9---14--9---9---10--10--10--|-10--10--10--10--10--10--9---9---|
C#|-14--14--14--14--12--12--14--14--|---------------------------------|-10--10--10--10--10--10--9---9---|


D#|---------------------------------|---------------------------------|---------------------------------|
A#|---------------------------------|---------------------------------|---------------------------------|
F#|---------------------------------|---------------------------------|---------------------------------|
C#|-----------------8---8-----------|---------------------------------|---------------------------------|
G#|-0---0---0---0---6---6---9---9---|-14--0---0---0---12--12--14--14--|-7---9---14--9---9---10--10--10--|
C#|-10--10--10--10----------9---9---|-14--14--14--14--12--12--14--14--|---------------------------------|


D#|---------------------------------|---------------------------------|---------------------------------|
A#|---------------------------------|---------------------------------|---------------------------------|
F#|---------------------------------|---------------------------------|---------------------------------|
C#|---------------------------------|-----------------8---8-----------|---------------------------------|
G#|-10--10--10--10--10--10--9---9---|-0---0---0---0---6---6---9---9---|-14--0---0---0---12--12--14--14--|
C#|-10--10--10--10--10--10--9---9---|-10--10--10--10----------9---9---|-14--14--14--14--12--12--14--14--|


D#|---------------------------------|---------------------------------|---------------------------------|
A#|---------------------------------|---------------------------------|---------------------------------|
F#|---------------------------------|---------------------------------|---------------------------------|
C#|---------------------------------|---------------------------------|-7---5---4-------4---------------|
G#|-7---9---14--9---9---10--10--10--|-10--10--10--10--10--10--9---9---|-9---7---6-------6---7---5-------|
C#|---------------------------------|-10--10--10--10--10--10--9---9---|---------------------8---7-------|


D#|---------------------|---------------------|---------------------------------|---------------------------------|
A#|---------------------|---------------------|---------------------------------|---------------------------------|
F#|---------------------|---------------------|---------------------------------|---------------------------------|
C#|-2----2--------------|-3----3--------------|---------------------------------|---------------------------------|
G#|-2----2--------------|-3----3--------------|-5---4---2---5---4---2---5---4---|-5---4---2---5---4---2---5---4---|
C#|-2----2--------------|-3----3--------------|-5---4---2---5---4---2---5---4---|-5---4---2---5---4---2---5---4---|


D#|---------------------|--------------------------|---------------------|
A#|---------------------|--------------------------|---------------------|
F#|---------------------|--------------------------|---------------------|
C#|---------------------|--------------------------|-3-------------------|
G#|-2---------2---------|-2---------2--------------|-3-------------------|
C#|-2---------2---------|-2---------2----2--2--2---|-3-------------------|









Track 2: deryck
Back to top
D#|--------|--------|-----------------------------------|--------|-----------------------------------|
A#|--------|--------|-----------------------------------|--------|-----------------------------------|
F#|--------|--------|-----------------------------------|--------|-----------------------------------|
C#|--------|--------|-------4--4-4--------4--4-4--------|-2------|-2-----4--4-4--------4--4-4--------|
G#|--------|--------|-------4--4-4--------4--4-4--------|-2------|-2-----4--4-4--------4--4-4--------|
C#|--------|--------|-------4--4-4--------4--4-4--------|-2------|-2-----4--4-4--------4--4-4--------|


D#|--------|-----------------------------------|--------|-----------------------------------|
A#|--------|-----------------------------------|--------|-----------------------------------|
F#|--------|-----------------------------------|--------|-----------------------------------|
C#|-2------|-2-----4--4-4--------4--4-4--------|-2------|-2-----4--4-4--------4--4-4--------|
G#|-2------|-2-----4--4-4--------4--4-4--------|-2------|-2-----4--4-4--------4--4-4--------|
C#|-2------|-2-----4--4-4--------4--4-4--------|-2------|-2-----4--4-4--------4--4-4--------|


D#|--------|-----------------------------------|---------------------------------|
A#|--------|-----------------------------------|---------------------------------|
F#|--------|-----------------------------------|---------------------------------|
C#|-2------|-2-----4--4-4--------4--4-4--------|---------------------------------|
G#|-2------|-2-----4--4-4--------4--4-4--------|-2---0---0---0---0---0---0---0---|
C#|-2------|-2-----4--4-4--------4--4-4--------|-2---5---4---3---2---5---4---3---|


D#|---------------------------------|---------------------------------|---------------------------------|
A#|---------------------------------|---------------------------------|---------------------------------|
F#|---------------------------------|---------------------------------|---------------------------------|
C#|-----------------------------7---|---------------------------------|-----------------------------8---|
G#|-0---0---0---0---0---0---0---7---|-2---0---0---0---0---0---0---0---|-0---0---0---0---0---0---0---8---|
C#|-2---5---4---3---2---4---5---7---|-2---5---4---3---2---5---4---3---|-2---5---4---3---2---4---5---8---|


D#|---------------------------------|---------------------------------|---------------------------------|
A#|---------------------------------|---------------------------------|---------------------------------|
F#|---------------------------------|---------------------------------|---------------------------------|
C#|---------------------------------|-----------------------------7---|---------------------------------|
G#|-2---0---0---0---0---0---0---0---|-0---0---0---0---0---0---0---7---|-2---0---0---0---0---0---0---0---|
C#|-2---5---4---3---2---5---4---3---|-2---5---4---3---2---4---5---7---|-2---5---4---3---2---5---4---3---|


D#|---------------------------------|--------|--------|--------|-----------------|
A#|---------------------------------|--------|--------|--------|-----------------|
F#|---------------------------------|--------|--------|--------|-----------------|
C#|---------------------------------|-2------|-2------|-5------|-5---------------|
G#|-0---0---0---0---0---0---5---9---|-2------|-2------|-5------|-5---------------|
C#|-2---5---4---3---2---4---5---9---|-2------|-2------|-5------|-5---------------|


D#|--------|--------|--------|-------------|--------|--------|--------|-----------------|
A#|--------|--------|--------|-------------|--------|--------|--------|-----------------|
F#|--------|--------|--------|-5-----2-----|--------|--------|--------|-----------------|
C#|-2------|-2------|-5------|-5-----2-----|-2------|-2------|-5------|-5---------------|
G#|-2------|-2------|-5------|-3-----0-----|-2------|-2------|-5------|-5---------------|
C#|-2------|-2------|-5------|-------------|-2------|-2------|-5------|-5---------------|


D#|--------|--------|--------|-------------|-----------------------------------|----------------------------|
A#|--------|--------|--------|-------------|-----------------------------------|----------------------------|
F#|--------|--------|--------|-5-----2-----|-----------------------------------|------------------3---------|
C#|-2------|-2------|-5------|-5-----2-----|-------------5----------------7----|-------------5----3----4----|
G#|-2------|-2------|-5------|-3-----0-----|-0---0---0---5----0---0---0---7----|-0---0---0---5----1----4----|
C#|-2------|-2------|-5------|-------------|-2---2---2---5----2---2---2---7----|-2---2---2---5---------4----|


D#|-----------------------------------|---------------------------------------------|
A#|-----------------------------------|---------------------------------------------|
F#|-----------------------------------|-------------------------3---3---------------|
C#|-------------5----------------7----|-------------------------3---3--4---4-3---3--|
G#|-0---0---0---5----0---0---0---7----|-0---0---0---5---0---0---1---1--4---4-3---3--|
C#|-2---2---2---5----2---2---2---7----|-2---2---2---5---2---2----------4---4-3---3--|


D#|-----------------------------------|----------------------------|-----------------------------------|
A#|-----------------------------------|----------------------------|-----------------------------------|
F#|-----------------------------------|------------------3---------|-----------------------------------|
C#|-------------5----------------7----|-------------5----3----4----|-------------5----------------7----|
G#|-0---0---0---5----0---0---0---7----|-0---0---0---5----1----4----|-0---0---0---5----0---0---0---7----|
C#|-2---2---2---5----2---2---2---7----|-2---2---2---5---------4----|-2---2---2---5----2---2---2---7----|


D#|---------------------------------------------|--------|--------|-----|------------------------------|
A#|---------------------------------------------|--------|--------|-----|------------------------------|
F#|-------------------------3---3---------------|--------|--------|-----|---------0--------------------|
C#|-------------------------3---3--4---4-3---3--|--------|--------|-----|-----2----------------2-------|
G#|-0---0---0---5---0---0---1---1--4---4-3---3--|-2------|--------|-----|-------------1---0------------|
C#|-2---2---2---5---2---2----------4---4-3---3--|-2------|--------|-2---|-2------------------------2---|


D#|------------------------------|------------------------------|------------------------------|
A#|------------------------------|------------------------------|------------------------------|
F#|---------0--------------------|---------0--------------------|---------0--------------------|
C#|-----2----------------2-------|-----2----------------2-------|-----2----------------2-------|
G#|-------------1---0------------|-------------1---0------------|-------------1---0------------|
C#|-2------------------------2---|-2------------------------2---|-2------------------------2---|


D#|------------------------------|------------------------------|------------------------------|
A#|------------------------------|------------------------------|------------------------------|
F#|---------0--------------------|---------0--------------------|---------0--------------------|
C#|-----2----------------2-------|-----2----------------2-------|-----2----------------2-------|
G#|-------------1---0------------|-------------1---0------------|-------------1---0------------|
C#|-2------------------------2---|-2------------------------2---|-2------------------------2---|


D#|------------------------------|---------------------------------|---------------------------------|
A#|------------------------------|---------------------------------|---------------------------------|
F#|---------0--------------------|---------------------------------|---------------------------------|
C#|-----2----------------2-------|---------------------------------|---------------------------------|
G#|-------------1---0------------|-0---0---0---0---0---0---0---3---|-0---0---0---0---0---0---0---3---|
C#|-2------------------------2---|-2---2---2---2---2---2---2---3---|-2---2---2---2---2---2---2---3---|


D#|---------------------------------|---------------------------------|---------------------------------|
A#|---------------------------------|---------------------------------|---------------------------------|
F#|---------------------------------|---------------------------------|---------------------------------|
C#|---------------------------------|---------------------------------|---------------------------------|
G#|-0---0---0---0---0---0---0---3---|-0---0---0---3-------3-------2---|---------7-----------------------|
C#|-2---2---2---2---2---2---2---3---|-2---2---2---3---2---3---2---2---|-0---0-------8---7---------------|


D#|---------------------------------|---------------------------------|---------------------------------|
A#|---------------------------------|---------------------------------|---------------------------------|
F#|---------------------------------|---------------------------------|---------------------------------|
C#|---------------------------------|---------------------------------|---------------------------------|
G#|---------7-----------------------|---------7-----------------------|---------7-----------------------|
C#|-0---0-------8---7---------------|-0---0-------8---7---------------|-0---0-------8---7---------------|


D#|---------------------------------|---------------------------------|---------------------------------|
A#|---------------------------------|---------------------------------|---------------------------------|
F#|---------------------------------|---------------------------------|---------------------------------|
C#|---------------------------------|---------------------------------|---------------------------------|
G#|-2---2---2---7---8---7---7---7---|-2---2---2---7---8---7---7---7---|-2---2---2---7---8---7---7---7---|
C#|-2---2---2-------8---7---7---7---|-2---2---2-------8---7---7---7---|-2---2---2-------8---7---7---7---|


D#|---------------------------------|---------------------------------|---------------------------------|
A#|---------------------------------|---------------------------------|---------------------------------|
F#|---------------------------------|---------------------------------|---------------------------------|
C#|---------------------------------|---------------------------------|---------------------------------|
G#|-5---5---0---0---0---0---0---0---|-2---2---2---7---8---7---7---7---|-2---2---2---7---8---7---7---7---|
C#|-5---5---2---4---2---4---5---4---|-2---2---2-------8---7---7---7---|-2---2---2-------8---7---7---7---|


D#|---------------------------------|---------------------------------|---------------------------------|
A#|---------------------------------|---------------------------------|---------------------------------|
F#|---------------------------------|---------------------------------|---------------------------------|
C#|---------------------------------|---------------------------------|---------------------------------|
G#|-2---2---2---7---8---7---7---7---|-5---5---0---0---0---0---0---0---|-2---2---2---7---8---7---7---7---|
C#|-2---2---2-------8---7---7---7---|-5---5---2---4---2---4---5---4---|-2---2---2-------8---7---7---7---|


D#|---------------------------------|---------------------------------|---------------------------------|
A#|---------------------------------|---------------------------------|---------------------------------|
F#|---------------------------------|---------------------------------|---------------------------------|
C#|---------------------------------|---------------------------------|---------------------------------|
G#|-2---2---2---7---8---7---7---7---|-2---2---2---7---8---7---7---7---|-5---5---0---0---0---0---0---0---|
C#|-2---2---2-------8---7---7---7---|-2---2---2-------8---7---7---7---|-5---5---2---4---2---4---5---4---|


D#|---------------------------------|---------------------------------|---------------------------------|
A#|---------------------------------|---------------------------------|---------------------------------|
F#|---------------------------------|---------------------------------|---------------------------------|
C#|---------------------------------|---------------------------------|---------------------------------|
G#|-2---2---2---7---8---7---7---7---|-2---2---2---7---8---7---7---7---|-2---2---2---7---8---7---7---7---|
C#|-2---2---2-------8---7---7---7---|-2---2---2-------8---7---7---7---|-2---2---2-------8---7---7---7---|


D#|---------------------------------|---------|--------|---------------------------------|
A#|---------------------------------|---------|--------|---------------------------------|
F#|---------------------------------|---------|--------|---------------------------------|
C#|---------------------------------|---------|--------|---------------------------------|
G#|-5---5---0---0---0---0---0---0---|-2-------|--------|-0---0---0---0---0---0---0---0---|
C#|-5---5---2---4---2---4---5---4---|-2-------|--------|-2---2---2---2---2---2---2---2---|


D#|---------------------------------|---------------------------------|---------------------|
A#|---------------------------------|---------------------------------|---------------------|
F#|---------------------------------|---------------------------------|---------------------|
C#|---------------------------------|---------------------------------|---------------------|
G#|-0---5---7---0---8---7---5---7---|-0---0---0---0---0---0---0---0---|-0---5---7---5---7---|
C#|-2---5---7---5---8---7---5---7---|-2---2---2---2---2---2---2---2---|-2---5---7---5---7---|


D#|---------------------------------|---------------------------------|---------------------------------|
A#|---------------------------------|---------------------------------|---------------------------------|
F#|---------------------------------|---------------------------------|---------------------------------|
C#|---------------------------------|---------------------------------|---------------------------------|
G#|-0---0---0---0---0---0---0---0---|-0---5---7---0---8---7---5---7---|-0---0---0---0---0---0---0---0---|
C#|-2---2---2---2---2---2---2---2---|-2---5---7---5---8---7---5---7---|-2---2---2---2---2---2---2---2---|


D#|---------------------|---------------------------------|---------------------------------|
A#|---------------------|---------------------------------|---------------------------------|
F#|---------------------|---------------------------------|---------------------------------|
C#|---------------------|---------------------------------|---------------------------------|
G#|-0---5---7---5---7---|-0---0---0---0---0---0---0---0---|-0---5---7---0---8---7---5---7---|
C#|-2---5---7---5---7---|-2---2---2---2---2---2---2---2---|-2---5---7---5---8---7---5---7---|


D#|---------------------------------|---------------------|---------------------------------|
A#|---------------------------------|---------------------|---------------------------------|
F#|---------------------------------|---------------------|---------------------------------|
C#|---------------------------------|---------------------|---------------------------------|
G#|-0---0---0---0---0---0---0---0---|-0---5---7---5---7---|-0---0---0---0---0---0---0---0---|
C#|-2---2---2---2---2---2---2---2---|-2---5---7---5---7---|-2---2---2---2---2---2---2---2---|


D#|---------------------------------|---------------------------------|---------------------|
A#|---------------------------------|---------------------------------|---------------------|
F#|---------------------------------|---------------------------------|---------------------|
C#|---------------------------------|---------------------------------|---------------------|
G#|-0---5---7---0---8---7---5---7---|-0---0---0---0---0---0---0---0---|-0---5---7---5---7---|
C#|-2---5---7---5---8---7---5---7---|-2---2---2---2---2---2---2---2---|-2---5---7---5---7---|


D#|---------------------------------|---------------------------------|---------------------------------|
A#|---------------------------------|---------------------------------|---------------------------------|
F#|---------------------------------|---------------------------------|---------------------------------|
C#|---------------------------------|---------------------------------|---------------------------------|
G#|-0---0---0---0---0---0---0---0---|-0---7---9---0---10--9---7---9---|-0---0---0---0---0---0---0---0---|
C#|-4---4---4---4---4---4---4---4---|-4---7---9---7---10--9---7---9---|-4---4---4---4---4---4---4---4---|


D#|---------------------|---------------------------------|---------------------------------|
A#|---------------------|---------------------------------|---------------------------------|
F#|---------------------|---------------------------------|---------------------------------|
C#|---------------------|---------------------------------|---------------------------------|
G#|-0---7---9---7---9---|-0---0---0---0---0---0---0---0---|-0---7---9---0---10--9---7---9---|
C#|-4---7---9---7---9---|-4---4---4---4---4---4---4---4---|-4---7---9---7---10--9---7---9---|


D#|---------------------------------|---------------------|---------------------------------|
A#|---------------------------------|---------------------|---------------------------------|
F#|---------------------------------|---------------------|---------------------------------|
C#|---------------------------------|---------------------|-4---4---4---4---4---4---4---4---|
G#|-0---0---0---0---0---0---0---0---|-0---7---9---7---9---|-2---2---2---2---2---2---2---2---|
C#|-4---4---4---4---4---4---4---4---|-4---7---9---7---9---|---------------------------------|


D#|---------------------------------|---------------------------------|---------------------------------|
A#|---------------------------------|---------------------------------|---------------------------------|
F#|---------------------------------|---------------------------------|---------------------------------|
C#|---------------------------------|---------------------------------|---------------------------------|
G#|-14--0---0---0---12--12--14--14--|-7---9---14--9---9---10--10--10--|-10--10--10--10--10--10--9---9---|
C#|-14--14--14--14--12--12--14--14--|---------------------------------|-10--10--10--10--10--10--9---9---|


D#|---------------------------------|---------------------------------|---------------------------------|
A#|---------------------------------|---------------------------------|---------------------------------|
F#|---------------------------------|---------------------------------|---------------------------------|
C#|-----------------8---8-----------|---------------------------------|---------------------------------|
G#|-0---0---0---0---6---6---9---9---|-14--0---0---0---12--12--14--14--|-7---9---14--9---9---10--10--10--|
C#|-10--10--10--10----------9---9---|-14--14--14--14--12--12--14--14--|---------------------------------|


D#|---------------------------------|---------------------------------|---------------------------------|
A#|---------------------------------|---------------------------------|---------------------------------|
F#|---------------------------------|---------------------------------|---------------------------------|
C#|---------------------------------|-----------------8---8-----------|---------------------------------|
G#|-10--10--10--10--10--10--9---9---|-0---0---0---0---6---6---9---9---|-14--0---0---0---12--12--14--14--|
C#|-10--10--10--10--10--10--9---9---|-10--10--10--10----------9---9---|-14--14--14--14--12--12--14--14--|


D#|---------------------------------|---------------------------------|---------------------------------|
A#|---------------------------------|---------------------------------|---------------------------------|
F#|---------------------------------|---------------------------------|---------------------------------|
C#|---------------------------------|---------------------------------|-----------------8---8-----------|
G#|-7---9---14--9---9---10--10--10--|-10--10--10--10--10--10--9---9---|-0---0---0---0---6---6---9---9---|
C#|---------------------------------|-10--10--10--10--10--10--9---9---|-10--10--10--10----------9---9---|


D#|---------------------------------|---------------------------------|---------------------------------|
A#|---------------------------------|---------------------------------|---------------------------------|
F#|---------------------------------|---------------------------------|---------------------------------|
C#|---------------------------------|---------------------------------|---------------------------------|
G#|-14--0---0---0---12--12--14--14--|-7---9---14--9---9---10--10--10--|-10--10--10--10--10--10--9---9---|
C#|-14--14--14--14--12--12--14--14--|---------------------------------|-10--10--10--10--10--10--9---9---|


D#|---------------------------------|---------------------|---------------------|---------------------------------|
A#|---------------------------------|---------------------|---------------------|---------------------------------|
F#|---------------------------------|---------------------|---------------------|---------------------------------|
C#|-7---5---4-------4---------------|-2----2--------------|-3----3--------------|---------------------------------|
G#|-9---7---6-------6---7---5-------|-2----2--------------|-3----3--------------|-5---4---2---5---4---2---5---4---|
C#|---------------------8---7-------|-2----2--------------|-3----3--------------|-5---4---2---5---4---2---5---4---|


D#|---------------------------------|---------------------|--------------------------|
A#|---------------------------------|---------------------|--------------------------|
F#|---------------------------------|---------------------|--------------------------|
C#|---------------------------------|---------------------|--------------------------|
G#|-5---4---2---5---4---2---5---4---|-2---------2---------|-2---------2--------------|
C#|-5---4---2---5---4---2---5---4---|-2---------2---------|-2---------2----2--2--2---|


D#|---------------------|
A#|---------------------|
F#|---------------------|
C#|-3-------------------|
G#|-3-------------------|
C#|-3-------------------|









Track 3: cone
Back to top
F#|--------|--------|-----------------------------------|------19--18--17--16---16--|
C#|--------|--------|-----------------------------------|---------------------------|
G#|--------|--------|-----------------------------------|---------------------------|
C#|--------|--------|-------4--4-4--------4--4-4--------|-2-------------------------|


F#|---------19------------------------------|------19--18--17--16---16--|---------19------------------------------|
C#|-17--16----------------------------------|---------------------------|-17--16----------------------------------|
G#|-------------17--------------------------|---------------------------|-------------17--------------------------|
C#|-----------------4---4-------4---4-------|-2-------------------------|-----------------4---4-------4---4-------|


F#|------19--18--17--16---16--|---------19------------------------------|------19--18--17--16---16--|
C#|---------------------------|-17--16----------------------------------|---------------------------|
G#|---------------------------|-------------17--------------------------|---------------------------|
C#|-2-------------------------|-----------------4---4-------4---4-------|-2-------------------------|


F#|---------19------------------------------|---------------------------------|---------------------------------|
C#|-17--16----------------------------------|---------------------------------|---------------------------------|
G#|-------------17--------------------------|---------------------------------|---------------------------------|
C#|-----------------4---4-------4---4-------|-2---5---4---3---2---5---4---3---|-2---5---4---3---2---4---5---7---|


F#|---------------------------------|---------------------------------|---------------------------------|
C#|---------------------------------|---------------------------------|---------------------------------|
G#|---------------------------------|---------------------------------|---------------------------------|
C#|-2---5---4---3---2---5---4---3---|-2---5---4---3---2---4---5---8---|-2---5---4---3---2---5---4---3---|


F#|---------------------------------|---------------------------------|---------------------------------|
C#|---------------------------------|---------------------------------|---------------------------------|
G#|---------------------------------|---------------------------------|---------------------------------|
C#|-2---5---4---3---2---4---5---7---|-2---5---4---3---2---5---4---3---|-2---5---4---3---2---4---5---9---|


F#|-----------------------------------|-----------------------------------|-----------------------------------|
C#|-----------------------------------|-----------------------------------|-----------------------------------|
G#|-----------------------------------|-----------------------------------|-----------------------------------|
C#|-2----2---2---2---2----2---2---2---|-2----2---2---2---2----2---2---2---|-5----5---5---5---5----5---5---5---|


F#|-----------------|-----------------------------------|-----------------------------------|
C#|------------2----|-----------------------------------|-----------------------------------|
G#|-----------------|-----------------------------------|-----------------------------------|
C#|-5---------------|-2----2---2---2---2----2---2---2---|-2----2---2---2---2----2---2---2---|


F#|-----------------------------------|-----------------------------------|-----------------------------------|
C#|-----------------------------------|-----------------------------------|-----------------------------------|
G#|-----------------------------------|-3----3---3---3---0----0---0---0---|-----------------------------------|
C#|-5----5---5---5---5----5---5---5---|-----------------------------------|-2----2---2---2---2----2---2---2---|


F#|-----------------------------------|-----------------------------------|-----------------|
C#|-----------------------------------|-----------------------------------|------------2----|
G#|-----------------------------------|-----------------------------------|-----------------|
C#|-2----2---2---2---2----2---2---2---|-5----5---5---5---5----5---5---5---|-5---------------|


F#|-----------------------------------|-----------------------------------|-----------------------------------|
C#|-----------------------------------|-----------------------------------|-----------------------------------|
G#|-----------------------------------|-----------------------------------|-----------------------------------|
C#|-2----2---2---2---2----2---2---2---|-2----2---2---2---2----2---2---2---|-5----5---5---5---5----5---5---5---|


F#|-----------------------------------|-----------------------------------|----------------------------|
C#|-----------------------------------|-----------------------------------|----------------------------|
G#|-3----3---3---3---0----0---0---0---|-----------------------------------|------------------1---------|
C#|-----------------------------------|-2---2---2---5----2---2---2---7----|-2---2---2---5---------4----|


F#|-----------------------------------|---------------------------------------------|
C#|-----------------------------------|---------------------------------------------|
G#|-----------------------------------|-------------------------1---1---------------|
C#|-2---2---2---5----2---2---2---7----|-2---2---2---5---2---2----------4---4-3---3--|


F#|-----------------------------------|----------------------------|-----------------------------------|
C#|-----------------------------------|----------------------------|-----------------------------------|
G#|-----------------------------------|------------------1---------|-----------------------------------|
C#|-2---2---2---5----2---2---2---7----|-2---2---2---5---------4----|-2---2---2---5----2---2---2---7----|


F#|---------------------------------------------|--------|--------|-----|--------|
C#|---------------------------------------------|--------|--------|-----|--------|
G#|-------------------------1---1---------------|--------|--------|-----|--------|
C#|-2---2---2---5---2---2----------4---4-3---3--|-2------|--------|-----|--------|


F#|--------|--------|--------|--------|--------|--------|--------|--------|--------|
C#|--------|--------|--------|--------|--------|--------|--------|--------|--------|
G#|--------|--------|--------|--------|--------|--------|--------|--------|--------|
C#|--------|--------|--------|--------|--------|--------|--------|--------|--------|


F#|--------|--------|--------|--------|--------|--------|---------------------------------|
C#|--------|--------|--------|--------|--------|--------|---------------------------------|
G#|--------|--------|--------|--------|--------|--------|-------------7-------------------|
C#|--------|--------|--------|--------|--------|--------|-2---2---2-------8---7---7---7---|


F#|---------------------------------|---------------------------------|---------------------------------|
C#|---------------------------------|---------------------------------|---------------------------------|
G#|-------------7-------------------|-------------7-------------------|---------------------------------|
C#|-2---2---2-------8---7---7---7---|-2---2---2-------8---7---7---7---|-5---5---2---4---2---4---5---4---|


F#|---------------------------------|---------------------------------|---------------------------------|
C#|---------------------------------|---------------------------------|---------------------------------|
G#|-------------7-------------------|-------------7-------------------|-------------7-------------------|
C#|-2---2---2-------8---7---7---7---|-2---2---2-------8---7---7---7---|-2---2---2-------8---7---7---7---|


F#|---------------------------------|---------------------------------|---------------------------------|
C#|---------------------------------|---------------------------------|---------------------------------|
G#|---------------------------------|-------------7-------------------|-------------7-------------------|
C#|-5---5---2---4---2---4---5---4---|-2---2---2-------8---7---7---7---|-2---2---2-------8---7---7---7---|


F#|---------------------------------|---------------------------------|---------------------------------|
C#|---------------------------------|---------------------------------|---------------------------------|
G#|-------------7-------------------|---------------------------------|-------------7-------------------|
C#|-2---2---2-------8---7---7---7---|-5---5---2---4---2---4---5---4---|-2---2---2-------8---7---7---7---|


F#|---------------------------------|---------------------------------|---------------------------------|
C#|---------------------------------|---------------------------------|---------------------------------|
G#|-------------7-------------------|-------------7-------------------|---------------------------------|
C#|-2---2---2-------8---7---7---7---|-2---2---2-------8---7---7---7---|-5---5---2---4---2---4---5---4---|


F#|---------|--------|---------------------------------|---------------------------------|
C#|---------|--------|---------------------------------|---------------------------------|
G#|---------|--------|---------------------------------|---------------------------------|
C#|-2-------|--------|-2---2---2---2---2---2---2---2---|-2---5---7---5---8---7---5---7---|


F#|---------------------------------|---------------------|---------------------------------|
C#|---------------------------------|---------------------|---------------------------------|
G#|---------------------------------|---------------------|---------------------------------|
C#|-2---2---2---2---2---2---2---2---|-2---5---7---5---7---|-2---2---2---2---2---2---2---2---|


F#|---------------------------------|---------------------------------|---------------------|
C#|---------------------------------|---------------------------------|---------------------|
G#|---------------------------------|---------------------------------|---------------------|
C#|-2---5---7---5---8---7---5---7---|-2---2---2---2---2---2---2---2---|-2---5---7---5---7---|


F#|---------------------------------|---------------------------------|---------------------------------|
C#|---------------------------------|---------------------------------|---------------------------------|
G#|---------------------------------|---------------------------------|---------------------------------|
C#|-2---2---2---2---2---2---2---2---|-2---5---7---5---8---7---5---7---|-2---2---2---2---2---2---2---2---|


F#|---------------------|---------------------------------|---------------------------------|
C#|---------------------|---------------------------------|---------------------------------|
G#|---------------------|---------------------------------|---------------------------------|
C#|-2---5---7---5---7---|-2---2---2---2---2---2---2---2---|-2---5---7---5---8---7---5---7---|


F#|---------------------------------|---------------------|---------------------------------|
C#|---------------------------------|---------------------|---------------------------------|
G#|---------------------------------|---------------------|---------------------------------|
C#|-2---2---2---2---2---2---2---2---|-2---5---7---5---7---|-4---4---4---4---4---4---4---4---|


F#|---------------------------------|---------------------------------|---------------------|
C#|---------------------------------|---------------------------------|---------------------|
G#|---------------------------------|---------------------------------|---------------------|
C#|-4---7---9---7---10--9---7---9---|-4---4---4---4---4---4---4---4---|-4---7---9---7---9---|


F#|---------------------------------|---------------------------------|---------------------------------|
C#|---------------------------------|---------------------------------|---------------------------------|
G#|---------------------------------|---------------------------------|---------------------------------|
C#|-4---4---4---4---4---4---4---4---|-4---7---9---7---10--9---7---9---|-4---4---4---4---4---4---4---4---|


F#|---------------------|---------------------------------|---------------------------------|
C#|---------------------|---------------------------------|---------------------------------|
G#|---------------------|-2---2---2---2---2---2---2---2---|-7---7---7---7---5---5---7---7---|
C#|-4---7---9---7---9---|---------------------------------|---------------------------------|


F#|---------------------------------|---------------------------------|---------------------------------|
C#|---------------------------------|---------------------------------|-----------------1---1-----------|
G#|-7---7---7---7---10--10--5---5---|-3---3---3---3---3---3---2---2---|-3---3---3---3-----------2---2---|
C#|---------------------------------|---------------------------------|---------------------------------|


F#|---------------------------------|---------------------------------|---------------------------------|
C#|---------------------------------|---------------------------------|---------------------------------|
G#|-7---7---7---7---5---5---7---7---|-7---7---7---7---10--10--5---5---|-3---3---3---3---3---3---2---2---|
C#|---------------------------------|---------------------------------|---------------------------------|


F#|---------------------------------|---------------------------------|---------------------------------|
C#|-----------------1---1-----------|---------------------------------|---------------------------------|
G#|-3---3---3---3-----------2---2---|-7---7---7---7---5---5---7---7---|-7---7---7---7---10--10--5---5---|
C#|---------------------------------|---------------------------------|---------------------------------|


F#|---------------------------------|---------------------------------|---------------------------------|
C#|---------------------------------|-----------------1---1-----------|---------------------------------|
G#|-3---3---3---3---3---3---2---2---|-3---3---3---3-----------2---2---|-7---7---7---7---5---5---7---7---|
C#|---------------------------------|---------------------------------|---------------------------------|


F#|---------------------------------|---------------------------------|---------------------------------|
C#|---------------------------------|---------------------------------|---------------------------------|
G#|-7---7---7---7---10--10--5---5---|-3---3---3---3---3---3---2---2---|-9---7---6---6---6---------------|
C#|---------------------------------|---------------------------------|---------------------8---7-------|


F#|---------------------|---------------------|---------------------------------|---------------------------------|
C#|---------------------|---------------------|---------------------------------|---------------------------------|
G#|---------------------|---------------------|---------------------------------|---------------------------------|
C#|-2----2--------------|-3----3--------------|-5---4---2---5---4---2---5---4---|-5---4---2---5---4---2---5---4---|


F#|---------------------|--------------------------|---------------------|
C#|---------------------|--------------------------|---------------------|
G#|---------------------|--------------------------|---------------------|
C#|-2---------2---------|-2---------2----2--2--2---|-3-------------------|









Track 4: stevo
Back to top
C|--------|--------|-----------------------------------|---------------------|---------------------------------------|
C|--------|--------|-----------------------------------|---------------------|---------------------------------------|
C|--------|--------|-----------------------------------|---------------------|---------------------------------------|
C|--------|--------|-----------------------------------|-49------------------|---------------------------------------|
C|--------|--------|-----------------------------------|-57------------------|---------------------------------------|
C|--------|--------|-------40-4040-------40-4040-------|-40---36---36---36---|-36---36---40-4040-------40-4040-------|


C|---------------------|---------------------------------------|---------------------|
C|---------------------|---------------------------------------|---------------------|
C|---------------------|---------------------------------------|---------------------|
C|-49------------------|---------------------------------------|-49---57---57---57---|
C|-57------------------|---------------------------------------|-57------------------|
C|-40---36---36---36---|-36---36---40-4040-------40-4040-------|-40---36---36---40---|


C|---------------------------------------|---------------------|---------------------------------|
C|---------------------------------------|---------------------|---------------------------------|
C|---------------------------------------|---------------------|---------------------------------|
C|-57---57-------------------------------|-49---57---57---57---|---------------------------------|
C|---------------------------------------|-57------------------|-41----------41--41----------41--|
C|-36---40---40-4040-------40-4040-------|-40---36---36---40---|-43--40--40--43--43--40--40--43--|


C|---------------------|---------------------|---------------------|---------------------|
C|---------------------|---------------------|---------------------|---------------------|
C|---------------------|---------------------|---------------------|---------------------|
C|-46---46---46---46---|-46---46---46---46---|-46---46---46---46---|-46---46---46---46---|
C|---------------------|---------------------|---------------------|---------------------|
C|-36---40---36---40---|-36---40---36---40---|-36---40---36---40---|-36---40---36---40---|


C|---------------------|---------------------|---------------------|---------------------|
C|---------------------|---------------------|---------------------|---------------------|
C|---------------------|---------------------|---------------------|---------------------|
C|-46---46---46---46---|-46---46---46---46---|-46---46---46---46---|-46---46---46--------|
C|---------------------|---------------------|---------------------|---------------------|
C|-36---40---36---40---|-36---40---36---40---|-36---40---36---40---|-36---40---36---40---|


C|---------------------------------|---------------------------------|---------------------------------|
C|---------------------------------|---------------------------------|---------------------------------|
C|---------------------------------|---------------------------------|---------------------------------|
C|-46------46------46------46------|-46------46------46------46------|-46------46------46------46------|
C|---------------------------------|---------------------------------|---------------------------------|
C|-36--36--40------36--36--40------|-36--36--40------36--36--40------|-36--36--40------36--36--40------|


C|---------------------------------|---------------------------------|---------------------------------|
C|---------------------------------|---------------------------------|---------------------------------|
C|-46--44--------------------------|---------------------------------|---------------------------------|
C|-40------------------------------|-46------46------46------46------|-46------46------46------46------|
C|---------------------------------|---------------------------------|---------------------------------|
C|---------------------------------|-36--36--40------36--36--40------|-36--36--40------36--36--40------|


C|---------------------------------|---------------------------------|---------------------------------|
C|---------------------------------|---------------------------------|---------------------------------|
C|---------------------------------|---------------------------------|---------------------------------|
C|-46------46------46------46------|-46------46------46------46------|-46------46------46------46------|
C|---------------------------------|---------------------------------|---------------------------------|
C|-36--36--40------36--36--40------|-36--36--40------36--36--40------|-36--36--40------36--36--40------|


C|---------------------------------|---------------------------------|-------------------------------------------------|
C|---------------------------------|---------------------------------|-------------------------------------------------|
C|---------------------------------|---------------------------------|-------------------------------------------------|
C|-46------46------46------46------|-46------46------46------46------|-----44------------------------------------------|
C|---------------------------------|---------------------------------|-46--36363636----36363636----36363636------------|
C|-36--36--40------36--36--40------|-36--36--40------36--36--40------|-40----------------------------------------------|


C|---------------------------------|---------------------------------|---------------------------------|
C|---------------------------------|---------------------------------|---------------------------------|
C|---------------------------------|---------------------------------|---------------------------------|
C|-46------46------46------46------|-46------46------46------46------|-46------46------46------46------|
C|---------------------------------|---------------------------------|---------------------------------|
C|-36--36--40------36--36--40------|-36--36--40------36--36--40------|-36--36--40------36--36--40------|


C|-----------------------------------------|---------------------|---------------------|
C|-----------------------------------------|---------------------|---------------------|
C|-----------------------------------------|---------------------|-----------41---43---|
C|-49--------------------------------------|-46---46---46---46---|-46---46---43---41---|
C|-----------------------------------------|---------------------|---------------------|
C|-40------36--36--36--40------36--36--36--|-36---40---36---40---|-36---40---36--------|


C|---------------------|---------------------------------------------|---------------------|
C|---------------------|-------------46------------------------------|---------------------|
C|---------------------|-41--41--41------41--41----------------------|---------------------|
C|-46---46---46---46---|-43--43--43--40--43--43--49--49-49--4949--49-|-46---46---46---46---|
C|---------------------|-------------------------40-----41----43-----|---------------------|
C|-36---40---36---40---|---------------------------------------------|-36---40---36---40---|


C|---------------------|---------------------|---------------------------------------------|
C|---------------------|---------------------|-------------46------------------------------|
C|---------------------|---------------------|-41--41--41------41--41----------------------|
C|-46---46---43---43---|-46---46---46---46---|-43--43--43--40--43--43--49--49-49--4949--49-|
C|-----------41--------|---------------------|-------------------------40-----41----43-----|
C|-36---40---36---41---|-36---40---36---40---|---------------------------------------------|


C|---------------------|--------|-----|-----------------|-----------------|-----------------|
C|---------------------|--------|-----|-----------------|-----------------|-----------------|
C|---------------------|--------|-----|-----------------|-----------------|-----------------|
C|---------------------|--------|-----|-----------------|-----------------|-----------------|
C|-57------------------|--------|-----|------44----44---|------44----44---|------44----44---|
C|---------------------|--------|-----|-----------------|-----------------|-----------------|


C|-----------------|-----------------|-----------------|-----------------|---------------------|
C|-----------------|-----------------|-----------------|-----------------|---------------------|
C|-----------------|-----------------|-----------------|-----------------|---------------------|
C|-----------------|-----------------|-----------------|-----------------|---------------------|
C|------44----44---|------44----44---|------44----44---|------44----44---|-44---44---44---46---|
C|-----------------|-----------------|-----------------|-----------------|---------------------|


C|---------------------------------|---------------------------------|---------------------------------|
C|---------------------------------|---------------------------------|---------------------------------|
C|---------------------------------|---------------------------------|---------------------------------|
C|-57------------------------------|---------------------------------|---------------------------------|
C|-43--43--43--43--43--43--43--43--|-43--43--43--43--43--43--43--43--|-43--43--43--43--43--43--43--43--|
C|-41--41--41--41--41--41--41--41--|-41--41--41--41--41--41--41--41--|-41--41--41--41--41--41--41--41--|


C|---------------------------------|---------------------------------|---------------------------------|
C|---------------------------------|---------------------------------|---------------------------------|
C|---------------------------------|---------------------------------|---------------------------------|
C|-------------57------57------57--|---------------------------------|---------------------------------|
C|-43--43--43--40--43--40--43--40--|-43--43--43--43--43--43--43--43--|-43--43--43--43--43--43--43--43--|
C|-41--41--41--41--41--41--41--41--|-41--41--41--41--41--41--41--41--|-41--41--41--41--41--41--41--41--|


C|---------------------------------|---------------------------------|---------------------------------|
C|---------------------------------|---------------------------------|---------------------------------|
C|---------------------------------|---------------------------------|-49------------------------------|
C|---------------------------------|-----------------------------57--|-57----------57------57------57--|
C|-43--43--43--43--43--43--43--43--|-43--43--43--43--43--43--43--40--|---------------------------------|
C|-41--41--41--41--41--41--41--41--|-41--41--41--41--41--41--41--41--|-36------36--40------36--36--40--|


C|---------------------------------|---------------------------------|---------------------------------|
C|---------------------------------|---------------------------------|---------------------------------|
C|-49------------------------------|-49------------------------------|-57----------57------57------57--|
C|-57----------57------57------57--|-57----------57------57------57--|---------------------------------|
C|---------------------------------|---------------------------------|-36------36--36------36--36--40--|
C|-36------36--40------36--36--40--|-36------36--40------36--36--40--|---------------------------------|


C|---------------------------------|---------------------------------|---------------------------------|
C|---------------------------------|---------------------------------|---------------------------------|
C|-49------------------------------|-49------------------------------|-49------------------------------|
C|-57----------57------57------57--|-57----------57------57------57--|-57----------57------57------57--|
C|---------------------------------|---------------------------------|---------------------------------|
C|-36------36--40------36--36--40--|-36------36--40------36--36--40--|-36------36--40------36--36--40--|


C|---------------------------------|---------------------------------|---------------------------------|
C|---------------------------------|---------------------------------|---------------------------------|
C|-57----------57------57------57--|-49------------------------------|-49------------------------------|
C|---------------------------------|-57----------57------57------57--|-57----------57------57------57--|
C|-36------36--36------36--36--40--|---------------------------------|---------------------------------|
C|---------------------------------|-36------36--40------36--36--40--|-36------36--40------36--36--40--|


C|---------------------------------|---------------------------------|---------------------------------|
C|---------------------------------|---------------------------------|---------------------------------|
C|-49------------------------------|-57----------57------57------57--|-49------------------------------|
C|-57----------57------57------57--|---------------------------------|-57----------57------57------57--|
C|---------------------------------|-36------36--36------36--36--40--|---------------------------------|
C|-36------36--40------36--36--40--|---------------------------------|-36------36--40------36--36--40--|


C|---------------------------------|---------------------------------|---------------------------------|
C|---------------------------------|---------------------------------|---------------------------------|
C|-49------------------------------|-49------------------------------|-57----------57------57------57--|
C|-57----------57------57------57--|-57----------57------57------57--|---------------------------------|
C|---------------------------------|---------------------------------|-36------36--36------36--36--40--|
C|-36------36--40------36--36--40--|-36------36--40------36--36--40--|---------------------------------|


C|---------|---------------------------------|---------------------------------|---------------------------------|
C|---------|-------------------------36------|---------------------------------|---------------------------------|
C|---------|-------------------------41------|-57------57------57------57------|-57------57------57------57------|
C|-46--44--|-46------46------46------43------|---------------------------------|---------------------------------|
C|---------|---------------------------------|-36--36--40------36--36--40------|-36--36--40------36--36--40------|
C|---------|---------------------------------|---------------------------------|---------------------------------|


C|---------------------------------|---------------------|---------------------------------|
C|---------------------------------|---------------------|---------------------------------|
C|-57------57------57------57------|-----57------57------|-57------57------57------57------|
C|---------------------------------|---------------------|---------------------------------|
C|-36--36--40------36--36--40------|-36--40--36--40--36--|-36--36--40------36--36--40------|
C|---------------------------------|---------------------|---------------------------------|


C|---------------------------------|---------------------------------|---------------------|
C|---------------------------------|---------------------------------|---------------------|
C|-57------57------57------57------|-57------57------57------57------|-----57------57------|
C|---------------------------------|---------------------------------|---------------------|
C|-36--36--40------36--36--40------|-36--36--40------36--36--40------|-36--40--36--40--36--|
C|---------------------------------|---------------------------------|---------------------|


C|---------------------------------|---------------------------------|---------------------------------|
C|---------------------------------|---------------------------------|---------------------------------|
C|-57------57------57------57------|-57------57------57------57------|-57------57------57------57------|
C|---------------------------------|---------------------------------|---------------------------------|
C|-36--36--40------36--36--40------|-36--36--40------36--36--40------|-36--36--40------36--36--40------|
C|---------------------------------|---------------------------------|---------------------------------|


C|---------------------|---------------------------------|---------------------------------|
C|---------------------|---------------------------------|---------------------------------|
C|-----57------57------|-57------57------57------57------|-57------57------57------57------|
C|---------------------|---------------------------------|---------------------------------|
C|-36--40--36--40--36--|-36--36--40------36--36--40------|-36--36--40------36--36--40------|
C|---------------------|---------------------------------|---------------------------------|


C|---------------------------------|---------------------|---------------------------------|
C|---------------------------------|---------------------|---------------------------------|
C|-57------57------57------57------|-----57------57------|-57------57------57------57------|
C|---------------------------------|---------------------|---------------------------------|
C|-36--36--40------36--36--40------|-36--40--36--40--36--|-36--36--40------36--36--40------|
C|---------------------------------|---------------------|---------------------------------|


C|---------------------------------|---------------------------------|---------------------|
C|---------------------------------|---------------------------------|---------------------|
C|-57------57------57------57------|-57------57------57------57------|-----57------57------|
C|---------------------------------|---------------------------------|---------------------|
C|-36--36--40------36--36--40------|-36--36--40------36--36--40------|-36--40--36--40--36--|
C|---------------------------------|---------------------------------|---------------------|


C|---------------------------------|---------------------------------|---------------------------------|
C|---------------------------------|---------------------------------|---------------------------------|
C|-57------57------57------57------|-57------57------57------57------|-57------57------57------57------|
C|---------------------------------|---------------------------------|---------------------------------|
C|-36--36--40------36--36--40------|-36--36--40------36--36--40------|-36--36--40------36--36--40------|
C|---------------------------------|---------------------------------|---------------------------------|


C|---------------------|---------------------------------|---------------------------------|
C|---------------------|---------------------------------|---------------------------------|
C|-----57------57------|-49------------------------------|---------------------------------|
C|---------------------|---------------------------------|-57--------------57------57------|
C|-36--40--36--40--36--|-40--40--40--40--40--40--40--40--|-36--36--36--36--40------40------|
C|---------------------|---------------------------------|---------------------------------|


C|---------------------------------|---------------------------------|---------------------------------|
C|---------------------------------|---------------------------------|---------------------------------|
C|---------------------------------|---------------------------------|---------------------------------|
C|-57--------------57------57------|-57--------------57------57------|-57--------------57------57------|
C|-36--36------36--40------40------|-36--36--36--36--40------40------|-36--36--36--36--40------40------|
C|---------------------------------|---------------------------------|---------------------------------|


C|---------------------------------|---------------------------------|---------------------------------|
C|---------------------------------|---------------------------------|---------------------------------|
C|---------------------------------|---------------------------------|---------------------------------|
C|-57--------------57------57------|-57--------------57------57------|-57--------------57------57------|
C|-36--36--36--36--40------40------|-36--36------36--40------40------|-36--36--36--36--40------40------|
C|---------------------------------|---------------------------------|---------------------------------|


C|---------------------------------|---------------------------------|---------------------------------|
C|---------------------------------|---------------------------------|---------------------------------|
C|---------------------------------|---------------------------------|---------------------------------|
C|-57--------------57------57------|-57--------------57------57------|-57--------------57------57------|
C|-36--36--36--36--40------40------|-36--36--36--36--40------40------|-36--36------36--40------40------|
C|---------------------------------|---------------------------------|---------------------------------|


C|---------------------------------|---------------------------------|---------------------------------|
C|---------------------------------|---------------------------------|---------------------------------|
C|---------------------------------|---------------------------------|---------------------------------|
C|-57--------------57------57------|-57--------------57------57------|-57--------------57------57------|
C|-36--36--36--36--40------40------|-36--36--36--36--40------40------|-36--36--36--36--40------40------|
C|---------------------------------|---------------------------------|---------------------------------|


C|---------------------------------|---------------------------------|-------------------------------------------------|
C|---------------------------------|---------------------------------|-------------------------------------------------|
C|---------------------------------|---------------------------------|-------------------------------------------------|
C|-57--------------57------57------|-57--------------57------57------|-49----------------------------------------------|
C|-36--36------36--40------40------|-36--36--36--36--40------40------|-40-40-48-47-45-43-41-43-41-41-43-41-43-43-43-45-|
C|---------------------------------|---------------------------------|-------------------------------------------------|


C|---------------------------|---------------------------|---------------------------------|
C|-49---49-------------------|-49---49-------------------|-46------44--46------44--46--44--|
C|-35---35---44--------------|-35---35---44--------------|-40--36--36--40--36--36--40--36--|
C|-36---36-------------------|-36---36-------------------|---------------------------------|
C|-35---35---40--40--40--40--|-35---35---40--40--40--40--|---------------------------------|
C|---------------------------|---------------------------|---------------------------------|


C|---------------------------------|---------------------|--------------------------|
C|-46------44--46------44--46------|---------------------|--------------------------|
C|-40--36--36--40--36--36--40--36--|-46---44---46---44---|-46-----------------------|
C|---------------------------------|-36--------36--------|-36--------36---40-40-40--|
C|---------------------------------|---------------------|--------------------------|
C|---------------------------------|---------------------|--------------------------|


C|---------------------------------|
C|-57------------------------------|
C|-40------------------------------|
C|-35------------------------------|
C|-36------------------------------|
C|---------------------------------|









Track 5:
Back to top
E|--------|--------|--------|--------|--------|--------|--------|--------|--------|
B|--------|--------|--------|--------|--------|--------|--------|--------|--------|
G|--------|--------|--------|--------|--------|--------|--------|--------|--------|
D|-2------|-2------|-2------|-2------|-2------|-2------|-2------|-2------|-2------|
A|--------|--------|--------|--------|--------|--------|--------|--------|--------|
D|-2------|-2------|-2------|-2------|-2------|-2------|-2------|-2------|-2------|


E|--------|--------|--------|--------|--------|--------|--------|--------|--------|
B|--------|--------|--------|--------|--------|--------|--------|--------|--------|
G|--------|--------|--------|--------|--------|--------|--------|--------|--------|
D|-2------|-2------|-2------|-2------|-2------|-2------|-2------|-2------|-2------|
A|--------|--------|--------|--------|--------|--------|--------|--------|--------|
D|-2------|-2------|-2------|-2------|-2------|-2------|-2------|-2------|-2------|


E|--------|--------|--------|--------|--------|--------|--------|--------|--------|
B|--------|--------|--------|--------|--------|--------|--------|--------|--------|
G|--------|--------|--------|--------|--------|--------|--------|--------|--------|
D|-2------|--------|--------|--------|--------|--------|--------|--------|--------|
A|--------|--------|--------|--------|--------|--------|--------|--------|--------|
D|-2------|--------|--------|--------|--------|--------|--------|--------|--------|


E|--------|--------|--------|--------|--------|--------|--------|--------|--------|
B|--------|--------|--------|--------|--------|--------|--------|--------|--------|
G|--------|--------|--------|--------|--------|--------|--------|--------|--------|
D|--------|--------|--------|--------|--------|--------|--------|--------|--------|
A|--------|--------|--------|--------|--------|--------|--------|--------|--------|
D|--------|--------|--------|--------|--------|--------|--------|--------|--------|


E|--------|--------|--------|--------|--------|--------|--------|--------|--------|
B|--------|--------|--------|--------|--------|--------|--------|--------|--------|
G|--------|--------|--------|--------|--------|--------|--------|--------|--------|
D|--------|--------|--------|--------|--------|--------|--------|--------|--------|
A|--------|--------|--------|--------|--------|--------|--------|--------|--------|
D|--------|--------|--------|--------|--------|--------|--------|--------|--------|


E|-----|--------|--------|--------|--------|--------|--------|--------|--------|--------|
B|-----|--------|--------|--------|--------|--------|--------|--------|--------|--------|
G|-----|--------|--------|--------|--------|--------|--------|--------|--------|--------|
D|-----|--------|--------|--------|--------|--------|--------|--------|--------|--------|
A|-----|--------|--------|--------|--------|--------|--------|--------|--------|--------|
D|-----|--------|--------|--------|--------|--------|--------|--------|--------|--------|


E|--------|--------|--------|--------|--------|--------|--------|--------|--------|
B|--------|--------|--------|--------|--------|--------|--------|--------|--------|
G|--------|--------|--------|--------|--------|--------|--------|--------|--------|
D|--------|--------|--------|--------|--------|--------|--------|--------|--------|
A|--------|--------|--------|--------|--------|--------|--------|--------|--------|
D|--------|--------|--------|--------|--------|--------|--------|--------|--------|


E|--------|--------|--------|--------|--------|--------|--------|--------|--------|
B|--------|--------|--------|--------|--------|--------|--------|--------|--------|
G|--------|--------|--------|--------|--------|--------|--------|--------|--------|
D|--------|--------|--------|--------|--------|--------|--------|--------|--------|
A|--------|--------|--------|--------|--------|--------|--------|--------|--------|
D|--------|--------|--------|--------|--------|--------|--------|--------|--------|


E|--------|--------|--------|--------|--------|------|--------|--------|--------|--------|
B|--------|--------|--------|--------|--------|------|--------|--------|--------|--------|
G|--------|--------|--------|--------|--------|------|--------|--------|--------|--------|
D|--------|--------|--------|--------|--------|------|--------|--------|--------|--------|
A|--------|--------|--------|--------|--------|------|--------|--------|--------|--------|
D|--------|--------|--------|--------|--------|------|--------|--------|--------|--------|


E|-----------|--------|--------|--------|-----------|--------|--------|--------|-----------|
B|-----------|--------|--------|--------|-----------|--------|--------|--------|-----------|
G|-----------|--------|--------|--------|-----------|--------|--------|--------|-----------|
D|-----------|--------|--------|--------|-----------|--------|--------|--------|-----------|
A|-----------|--------|--------|--------|-----------|--------|--------|--------|-----------|
D|-----------|--------|--------|--------|-----------|--------|--------|--------|-----------|


E|--------|--------|--------|-----------|--------|--------|--------|-----------|--------|
B|--------|--------|--------|-----------|--------|--------|--------|-----------|--------|
G|--------|--------|--------|-----------|--------|--------|--------|-----------|--------|
D|--------|--------|--------|-----------|--------|--------|--------|-----------|--------|
A|--------|--------|--------|-----------|--------|--------|--------|-----------|--------|
D|--------|--------|--------|-----------|--------|--------|--------|-----------|--------|


E|--------|--------|-----------|--------|--------|--------|--------|--------|--------|
B|--------|--------|-----------|--------|--------|--------|--------|--------|--------|
G|--------|--------|-----------|--------|--------|--------|--------|--------|--------|
D|--------|--------|-----------|--------|--------|--------|--------|--------|--------|
A|--------|--------|-----------|--------|--------|--------|--------|--------|--------|
D|--------|--------|-----------|--------|--------|--------|--------|--------|--------|


E|--------|--------|--------|--------|--------|--------|--------|--------|--------|
B|--------|--------|--------|--------|--------|--------|--------|--------|--------|
G|--------|--------|--------|--------|--------|--------|--------|--------|--------|
D|--------|--------|--------|--------|--------|--------|--------|--------|--------|
A|--------|--------|--------|--------|--------|--------|--------|--------|--------|
D|--------|--------|--------|--------|--------|--------|--------|--------|--------|


E|--------|--------|--------|--------|--------|--------|--------|--------|--------|
B|--------|--------|--------|--------|--------|--------|--------|--------|--------|
G|--------|--------|--------|--------|--------|--------|--------|--------|--------|
D|--------|--------|--------|--------|--------|--------|--------|--------|--------|
A|--------|--------|--------|--------|--------|--------|--------|--------|--------|
D|--------|--------|--------|--------|--------|--------|--------|--------|--------|



← Back to top