Get Back

by The Beatles

Guitar Pro Tab  |  v3.00  |  Posted on March 29, 2007, 10:59 a.m. ← Back

Guitar Pro Tab Summary

Album

unknown

Song Author

Lennon-McCartney

Tabbed by

Gerbold M´┐Żnard

Instruments

1st → George (Disto Gtr)
2nd → Piano 3
3rd → John (Disto Gtr)

File Size

12 KB

Views

19,817






Tablature Sheet

Title: Get Back
Artist: The Beatles
Album: 
Author: Lennon-McCartney






Track 1: George (Disto Gtr)
Back to top
E|---------------------------------|---------------------------------|---------------------------------|
B|---------------------------------|---------------------------------|---------------------------------|
G|-0---2---0---2---0---2---0---2---|-0---2---0---2---0---2---0---2---|-0---2---0---2---0---2---0---2---|
D|-0---2---0---2---0---2---0---2---|-0---2---0---2---0---2---0---2---|-0---2---0---2---0---2---0---2---|
A|---------------------------------|---------------------------------|---------------------------------|
E|---------------------------------|---------------------------------|---------------------------------|


E|-----------------3----2----|---------------------------------|---------------------------------|
B|-----------------3----3----|---------------------------------|---------------------------------|
G|-----2-----------0----2----|---------------------------------|---------------------------------|
D|-----2-----------0----0----|---------------------------------|---------------------------------|
A|-0-------0---2---2----0----|-7-------9-------7-------9-------|-7-------9-------7-------9---7---|
E|-----------------3---------|-5---5---5---5---5---5---5---5---|-5---5---5---5---5---5---5---5---|


E|---------------------------------|-------------12--------------------|---------------------------------|
B|---------------------------------|-----10--12------12-12-10----------|---------------------------------|
G|---------------------------------|-11------------------------11------|-0---2---0---2---0---2---0---2---|
D|---------------------------------|-----------------------------------|-0---2---0---2---0---2---0---2---|
A|-12------14------12------14------|-------------------------------0---|---------------------------------|
E|-10--10--10--10--10--10--10--10--|-----------------------------------|---------------------------------|


E|---------------------------------|---------------------------------|---------------------------------|
B|---------------------------------|-0---3---0---3---0---3---0---3---|---------------------------------|
G|-0---2---0---2---0---2---0---2---|-0---2---0---2---0---2---0---2---|-0---2---0---2---0---2---0---2---|
D|-0---2---0---2---0---2---0---2---|-0---0---0---0---0---0---0---0---|-0---2---0---2---0---2---0---2---|
A|---------------------------------|---------------------------------|---------------------------------|
E|---------------------------------|---------------------------------|---------------------------------|


E|---------------------------------|---------------------|---------------------|--------------3----2----|
B|---------------------------------|-0----0----0----0----|-0----0----0----0----|-0----0-------0----3----|
G|-0---2---0---2---0---2---0---2---|-0----0----0----0----|-0----0----0----0----|-0----0-------0----2----|
D|-0---2---0---2---0---2---0---2---|-0----0----0----0----|-0----0----0----0----|-0----0-------0----0----|
A|---------------------------------|---------------------|---------------------|----------2---2----0----|
E|---------------------------------|---------------------|---------------------|------------------------|


E|-------------0---0---------|-------------0---0------------|---------------------------------|
B|-------------2---2---------|-------------2---2------------|-0---3---0---3---0---3---0---3---|
G|-----2-------0---0---------|-----2-------0---0----2---0---|-0---2---0---2---0---2---0---2---|
D|-----2-------2---2---------|-----2-------2---2----2---0---|-0---0---0---0---0---0---0---0---|
A|-0-------0-----------------|-0-------0--------------------|---------------------------------|
E|---------------------------|------------------------------|---------------------------------|


E|---------------------------------|---------------------|---------------------|---------------------|
B|---------------------------------|-0----0----0----0----|-0----0----0----0----|-0----3----0----0----|
G|-0---2---0---2---0---2---0---2---|-0----0----0----0----|-0----0----0----0----|-0----2----0----2----|
D|-0---2---0---2---0---2---0---2---|-0----0----0----0----|-0----0----0----0----|-0----0----0----0----|
A|---------------------------------|---------------------|---------------------|---------------------|
E|---------------------------------|---------------------|---------------------|---------------------|


E|-----------3----2----|---------------------|---------------------|---------------------|
B|-0----0----0----3----|-0----0----0----0----|-0----0----0----0----|-0----0----0----0----|
G|-0----0----0----2----|-0----0----0----0----|-0----0----0----0----|-0----0----0----0----|
D|-0----0----0----0----|-0----0----0----0----|-0----0----0----0----|-0----0----0----0----|
A|-----------2----0----|---------------------|---------------------|---------------------|
E|-----------3---------|---------------------|---------------------|---------------------|


E|-----------3---------|---------------------|---------------------------------|------------------------------|
B|-0----0----0----3----|-0----0----0----0----|---------------------------------|-0----0---3---0---3---0---3---|
G|-0----0----0----2----|-0----0----0----0----|-0---2---0---2---0---2---0---2---|-0----0---0---0---0---0---0---|
D|-0----0----0----0----|-0----0----0----0----|-0---2---0---2---0---2---0---2---|-0----0---0---0---0---0---0---|
A|-----------2----0----|---------------------|---------------------------------|------------------------------|
E|-----------3---------|---------------------|---------------------------------|------------------------------|


E|-----------3----2----|-------------0---0---------|-------------0---0------------|
B|-0----0----0----3----|-------------2---2---------|-------------2---2------------|
G|-0----0----0----2----|-----2-------0---0---------|-----2-------0---0----0---2---|
D|-0----0----0----0----|-----2-------2---2---------|-----2-------2---2----0---2---|
A|----------------0----|-0-------0-----------------|-0-------0--------------------|
E|-----------3---------|---------------------------|------------------------------|


E|---------------------------------|--------|--------|---------------------|---------------------|
B|-----------------------------3---|-3------|-3------|-0----0----0----0----|-0----0----0----0----|
G|-0---2---0---2---0---2---0---2---|-2------|-2------|-0----0----0----0----|-0----0----0----0----|
D|-0---2---0---2---0---2---0---0---|-0------|-0------|-0----0----0----0----|-0----0----0----0----|
A|---------------------------------|--------|--------|---------------------|---------------------|
E|---------------------------------|--------|--------|---------------------|---------------------|


E|---------------------|---------------------|---------------------|---------------------|
B|-0----0----0----3----|-0----2---------3----|-0----0----0----0----|-0----0----0----0----|
G|-0----0----0----2----|-0----0----0----2----|-0----0----0----0----|-0----0----0----0----|
D|-0----0----0----0----|-0----0----0----0----|-0----0----0----0----|-0----0----0----0----|
A|---------------------|---------------------|---------------------|---------------------|
E|---------------------|---------------------|---------------------|---------------------|


E|---------------------|---------------------|------------------------|---------------------------------|
B|-0----0----0----3----|-0----2---------3----|-0----0----0----0-------|-0-------0-------0-------0-------|
G|-0----0----0----2----|-0----0----4----2----|-0----0----0----0-------|-0-------0-------0-------0-------|
D|-0----0----0----0----|-0----0----5----0----|-0----0----0----0-------|-0-------0-------0-------0-------|
A|---------------------|-----------5---------|--------------------0---|-----0-------0-------0-------0---|
E|---------------------|-----------3---------|------------------------|---------------------------------|


E|---------------------------------|-----------------3----2----|---------------------|
B|-0-------0-------0-------0-------|-0-------0-------0----3----|-0----0----0----0----|
G|-0-------0-------0-------0-------|-0-------0-------0----2----|-0----0----0----0----|
D|-0-------0-------0-------0-------|-0-------0-------0----0----|-0----0----0----0----|
A|-----0-------0-------0-------0---|-----0-------0---2----0----|---------------------|
E|---------------------------------|-----------------3---------|---------------------|


E|---------------------|---------------------------|-----------------3---------|-------------0---0----0----|
B|-0----0----0----0----|-3----3----3-------3-------|-2-------2-------3----3----|-------------2---2----2----|
G|-0----0----0----0----|-2----2----2-------2-------|-2-------2-------0----2----|-----2-------0---0----0----|
D|-0----0----0----0----|-0----0----0---0---0---0---|-2-------2-------0----0----|-----2-------2---2---------|
A|---------------------|---------------------------|-----0-------0---2----0----|-4-------0---0---0---------|
E|---------------------|---------------------------|-----------------3---------|---------------------------|


E|-------------0---0---------|---------------------------------|---------------------------------|
B|-------------2---2---------|-0---3---0---3---0---3---0---3---|---------------------3---3-------|
G|-----2-------0---0----2----|-0---2---0---2---0---2---0---2---|-0---2---0---0---0---2---2---0---|
D|-2-------2---2---2----2----|-0---0---0---0---0---0---0---0---|-0---2---0---0---0---0---0-------|
A|-0-------0---0---0----0----|---------------------------------|---------------------------------|
E|---------------------------|---------------------------------|---------------------------------|


E|----------0---0---------|------------------------|--------|--------|--------------|
B|-2--------2---2----2----|-0----0---------1-------|--------|--------|--------------|
G|-2--------0---0----0----|-0----0---------0---2---|-2------|-2------|-2------2-----|
D|-2--------2---2---------|-0----0-------------0---|-0------|-0------|-0------0-----|
A|------0-----------------|------------------------|--------|--------|--------------|
E|------------------------|------------------------|--------|--------|--------------|









Track 2: John (Disto Gtr)
Back to top
E|---------------------------------|---------------------------------|---------------------------------|
B|---------------------------------|---------------------------------|---------------------------------|
G|---------------------------------|---------------------------------|---------------------------------|
D|---------------------------------|---------------------------------|---------------------------------|
A|-7---7---7---7---7---7---7---7---|-7---7---7---7---7---7---7---7---|-7---7---7---7---7---7---7---7---|
E|-5---5---5---5---5---5---5---5---|-5---5---5---5---5---5---5---5---|-5---5---5---5---5---5---5---5---|


E|---------------------------|---------------------------------|---------------------------------|
B|---------------------------|---------------------------------|---------------------------------|
G|---------6-----------------|-0---2---0---2---0---2---0---2---|-0---2---0---2---0---2---0---2---|
D|---------7-----------------|-0---2---0---2---0---2---0---2---|-0---2---0---2---0---2---0---2---|
A|-7---7---7----5--------5---|---------------------------------|---------------------------------|
E|-5---5---5----3--------3---|---------------------------------|---------------------------------|


E|---------------------------------|---------------------------------|---------------------------------|
B|-0---3---0---3---0---3---0---3---|---------------------------------|---------------------------------|
G|-0---2---0---2---0---2---0---2---|-0---2---0---2---0---2---0---2---|---------------------------------|
D|-0---0---0---0---0---0---0---0---|-0---2---0---2---0---2---0---2---|---------------------------------|
A|---------------------------------|---------------------------------|-7-------9-------7-------9-------|
E|---------------------------------|---------------------------------|-5---5---5---5---5---5---5---5---|


E|---------------------------------|---------------------------------|-------------12--------------------|
B|---------------------------------|---------------------------------|-----10--12------12-12-10----------|
G|---------------------------------|---------------------------------|-11------------------------11------|
D|---------------------------------|---------------------------------|-----------------------------------|
A|-7-------9-------7-------9---7---|-12------14------12------14------|-------------------------------0---|
E|-5---5---5---5---5---5---5---5---|-10--10--10--10--10--10--10--10--|-----------------------------------|


E|---------------------9--9--9--9--9---|---------------------9--9--9--9--9---|---------------------8--8--8--8--8---|
B|---------------------8--8--8--8--8---|---------------------8--8--8--8--8---|---------------------7--7--7--7--7---|
G|---------------------9--9--9--9--9---|---------------------9--9--9--9--9---|---------------------7--7--7--7--7---|
D|-------------7---7-------------------|-------------7---7-------------------|-------------7---7-------------------|
A|-----7---9---------------------------|-----7---9---------------------------|-----7---9---------------------------|
E|-9-----------------------------------|-9-----------------------------------|-9-----------------------------------|


E|---------------------9--9--9--9--9---|---------------------9--9--9--9--9---|---------------------9--9--9--9--9---|
B|---------------------8--8--8--8--8---|---------------------8--8--8--8--8---|---------------------8--8--8--8--8---|
G|---------------------9--9--9--9--9---|---------------------9--9--9--9--9---|---------------------9--9--9--9--9---|
D|-------------7---7-------------------|-------------7---7-------------------|-------------7---7-------------------|
A|---------9---------------------------|-----7---9---------------------------|-----7---9---------------------------|
E|-9---11------------------------------|-9-----------------------------------|-9-----------------------------------|


E|---------------------8--8--8--8--8---|---------------------9--9--9--9--9---|------------------------------|
B|---------------------7--7--7--7--7---|---------------------8--8--8--8--8---|-----10--10--10--10---12--12--|
G|---------------------7--7--7--7--7---|---------------------9--9--9--9--9---|-11---------------------------|
D|-------------7---7-------------------|-------------7---7---------7---------|------------------------------|
A|-----0---9---------------------------|-----7---9---------------------------|------------------------------|
E|-9-----------------------------------|-9-----------------------------------|------------------------------|


E|-----12-----------------------|---------------------------------|-------------|-------------------------------------|
B|-12-------12--12--10------10--|---------------------------------|-------------|----10-----10-----10-----10------12--|
G|----------------------11------|-------------7---7---5-------5---|-5-----------|-11----------------------------------|
D|------------------------------|-----7---9---------------7-------|-------------|-------------------------------------|
A|------------------------------|-9-------------------------------|-------------|-------------------------------------|
E|------------------------------|---------------------------------|-------------|-------------------------------------|


E|-----12-----------------------|---------------------------------|-------------------------------------|
B|-12-------12--12--10------10--|---------------------------------|-----7---5---------------------------|
G|----------------------11------|-------------7---7---5-------5---|-5-------------5---7---5-----5-------|
D|------------------------------|-----7---9---------------7-------|------------7-------------7----------|
A|------------------------------|-9-------------------------------|-------------------------------------|
E|------------------------------|---------------------------------|---------------------------------2---|


E|---------------------------------|---------------------------------|---------------------------------|
B|---------------------------------|---------------------------------|---------------------------------|
G|---------------------------------|---------------------------------|---------------------------------|
D|---------------------------------|---------------------------------|---------------------------------|
A|-7-------9-------7-------9-------|-7-------9-------7-------9---7---|-12------14------12------14------|
E|-5---5---5---5---5---5---5---5---|-5---5---5---5---5---5---5---5---|-10--10--10--10--10--10--10--10--|


E|---------------------------------|---------------------------------|---------------------------------|
B|---------------------------------|---------------------------------|---------------------------------|
G|---------------------------------|---------------------------------|---------------------------------|
D|---------------------------------|---------------------------------|---------------------------------|
A|-7-------9-------7-------9---5---|-7-------9-------7-------9-------|-7-------9-------7-------9-------|
E|-5---5---5---5---5---5---5---3---|-5---5---5---5---5---5---5---5---|-5---5---5---5---5---5---5---5---|


E|---------------------------------|--------|--------|---------------------------------|
B|---------------------------------|--------|--------|---------------------------------|
G|---------------------------------|--------|--------|---------------------------------|
D|---------------------------------|--------|--------|---------------------------------|
A|-7-------9-------7-------10--12--|-12-----|-12-----|-7-------9-------7-------9-------|
E|-5---5---5---5---5---5---8---10--|-10-----|-10-----|-5---5---5---5---5---5---5---5---|


E|---------------------------------|---------------------------------|---------------------9--9--9--9--9---|
B|---------------------------------|---------------------------------|---------------------8--8--8--8--8---|
G|---------------------------------|---------------------------------|---------------------9--9--9--9--9---|
D|---------------------------------|---------------------------------|-------------7---7-------------------|
A|-7-------9-------7-------9---7---|-12------14------12------14------|-----7---9---------------------------|
E|-5---5---5---5---5---5---5---5---|-10--10--10--10--10--10--10--10--|-9-----------------------------------|


E|---------------------------------|---------------------------------|---------------------------------|
B|---------------------------------|---------------------------------|---------------------------------|
G|---------------------------------|---------------------------------|---------------------------------|
D|---------------------------------|---------------------------------|---------------------------------|
A|-7-------9-------7-------9-------|-7-------9-------7-------9---7---|-12------14------12------14------|
E|-5---5---5---5---5---5---5---5---|-5---5---5---5---5---5---5---5---|-10--10--10--10--10--10--10--10--|


E|---------------------9--9--9--9--9---|---------------------------------------------|
B|---------------------8--8--8--8--8---|----10----10-10----10-10----10-10----12--12--|
G|---------------------9--9--9--9--9---|-11------------------------------------------|
D|-------------7---7-------------------|---------------------------------------------|
A|-----7---9---------------------------|---------------------------------------------|
E|-9-----------------------------------|---------------------------------------------|


E|-----12-----------------------|---------------------------------|-------------------------------------|
B|-12-------12--12--10------10--|---------------------------------|-----7---5---------------------------|
G|----------------------11------|-------------7---7---5-------5---|-5-------------5---7---5-----5---7---|
D|------------------------------|-----7---9---------------7-------|------------7-------------7----------|
A|------------------------------|-9-------9-----------------------|-------------------------------------|
E|------------------------------|---------------------------------|-------------------------------------|


E|------------------------------|-------12--12-12-------------|---------------------------------|
B|-----10--10--10---10--12--12--|-12----12--12-12-10------12--|-12--10--12--10--12--10--12--10--|
G|-11---------------------------|---------------------11------|---------------------------------|
D|-0----------------------------|-----------------------------|---------------------------------|
A|------------------------------|-----------------------------|---------------------------------|
E|------------------------------|-----------------------------|---------------------------------|


E|-------------------------------------|---------------------9--9--9--9--9---|---------------------9--9--9--9--9---|
B|-10--12--10----10--12--10----10--12--|---------------------8--8--8--8--8---|---------------------8--8--8--8--8---|
G|------------11------------11---------|---------------------9--9--9--9--9---|---------------------9--9--9--9--9---|
D|-------------------------------------|-------------7---7-------------------|-------------7---7-------------------|
A|-------------------------------------|-----7---9---------------------------|-----7---9---------------------------|
E|-------------------------------------|-9-----------------------------------|-9-----------------------------------|


E|---------------------8--8--8--8------|---------------------9--9--9--9--9---|---------------------9--9--9--9--9---|
B|---------------------7--7--7--7------|---------------------8--8--8--8--8---|---------------------8--8--8--8--8---|
G|---------------------7--7--7--7------|---------------------9--9--9--9--9---|---------------------9--9--9--9--9---|
D|-------------7---7-------------------|-------------7---7-------------------|-------------7---7-------------------|
A|-----7---9-----------------------0---|-----7---9---------------------------|-----7---9---------------------------|
E|-9-----------------------------------|-9-----------------------------------|-9-----------------------------------|


E|---------------------9--9--9--9--9---|---------------------8--8--8--8--8---|---------------------------|
B|---------------------8--8--8--8--8---|---------------------7--7--7--7--7---|------7-----------5---3----|
G|---------------------9--9--9--9--9---|---------------------7--7--7--7--7---|----------------------5----|
D|-------------7---7-------------------|-------------7---7-------------------|-7--------5---5-------4----|
A|-----7---9---------------------------|-----7---9---------------------------|---------------------------|
E|-9-----------------------------------|-9-----------------------------------|---------------------------|


E|--------------|
B|-3------3-----|
G|-5------5-----|
D|-4------4-----|
A|--------------|
E|--------------|









Track 3: Piano
Back to top
E|--------|--------|--------|--------|--------|--------|--------|--------|--------|
B|--------|--------|--------|--------|--------|--------|--------|--------|--------|
G|--------|--------|--------|--------|--------|--------|--------|--------|--------|
D|--------|--------|--------|--------|--------|--------|--------|--------|--------|
A|--------|--------|--------|--------|--------|--------|--------|--------|--------|
E|--------|--------|--------|--------|--------|--------|--------|--------|--------|


E|--------|--------|--------|--------|--------|--------|--------|--------|--------|
B|--------|--------|--------|--------|--------|--------|--------|--------|--------|
G|--------|--------|--------|--------|--------|--------|--------|--------|--------|
D|--------|--------|--------|--------|--------|--------|--------|--------|--------|
A|--------|--------|--------|--------|--------|--------|--------|--------|--------|
E|--------|--------|--------|--------|--------|--------|--------|--------|--------|


E|--------|--------|--------|--------|--------|--------|--------|--------|--------|
B|--------|--------|--------|--------|--------|--------|--------|--------|--------|
G|--------|--------|--------|--------|--------|--------|--------|--------|--------|
D|--------|--------|--------|--------|--------|--------|--------|--------|--------|
A|--------|--------|--------|--------|--------|--------|--------|--------|--------|
E|--------|--------|--------|--------|--------|--------|--------|--------|--------|


E|--------|--------|--------|--------|--------|--------|--------|--------|------------------------|
B|--------|--------|--------|--------|--------|--------|--------|--------|------7--------5--------|
G|--------|--------|--------|--------|--------|--------|--------|--------|------------------------|
D|--------|--------|--------|--------|--------|--------|--------|--------|-7--------5--------4----|
A|--------|--------|--------|--------|--------|--------|--------|--------|------------------------|
E|--------|--------|--------|--------|--------|--------|--------|--------|------------------------|


E|------------------------------|-----17-------17-------17--17--------17--|-----17-----17-------12-------------------|
B|-3--------1-------------------|-----17-------17----19-17--17--18-19-17--|-----17-----17----12-13-12----------------|
G|--------------2---4---0-------|-----------------------------------------|---------------------------14-11------11--|
D|-4---2--------0---------------|-----------------------------------------|----------------------------------14------|
A|----------------------3---0---|-----------------------------------------|------------------------------------------|
E|------------------------------|-----------------------------------------|------------------------------------------|


E|-----8---7--5---------5---5-----------|----------------------|-------17--17-----17----17----17-------17--|
B|-----7---------7--5---3---5---7---5---|-5---5----------------|-17-19-----17--19-17----17----17-17-19-----|
G|-----9--------------------5---5---6---|-6---6----------------|-------------------------------------------|
D|------------------------------7---5---|-5---5----------------|-------------------------------------------|
A|--------------------------------------|----------------------|-------------------------------------------|
E|--------------------------------------|----------------------|-------------------------------------------|


E|------------17-------12-------------------|-----7---7--5---------5---------------|
B|-----19--19-17----12-13-12----------------|-----8---------7--5---3---0---7---5---|
G|-----0---------------------14-11--10--11--|-----9--------------------5---5---6---|
D|----------------------------------14------|------------------------------7---5---|
A|------------------------------------------|--------------------------------------|
E|------------------------------------------|--------------------------------------|


E|-----5----------------|--------|--------|--------|-------------|-------------|-------------|
B|-5---5----------------|--------|--------|--------|-------------|-------------|-------------|
G|-6---6----------------|--------|--------|--------|-------------|-------------|-------------|
D|-5--------------------|--------|--------|--------|-------------|-------------|-------------|
A|----------------------|--------|--------|--------|-------------|-------------|-------------|
E|----------------------|--------|--------|--------|-------------|-------------|-------------|


E|-------------|-------------|-------------|-------------|-------------|-------------|
B|-------------|-------------|-------------|-------------|-------------|-------------|
G|-------------|-------------|-------------|-------------|-------------|-------------|
D|-------------|-------------|-------------|-------------|-------------|-------------|
A|-------------|-------------|-------------|-------------|-------------|-------------|
E|-------------|-------------|-------------|-------------|-------------|-------------|


E|-------------|-------------|-------------|-------------|------------------|
B|-------------|-------------|-------------|-------------|------------------|
G|-------------|-------------|-------------|-------------|------------------|
D|-------------|-------------|-------------|-------------|------------------|
A|-------------|-------------|-------------|-------------|------------------|
E|-------------|-------------|-------------|-------------|------------------|



← Back to top