Sparks

by The Who

Guitar Pro Tab  |  v5.00  |  Posted on March 29, 2007, 11:11 a.m. ← Back

Guitar Pro Tab Summary

Album

Live @ Woodstock

Song Author

unknown

Tabbed by

made by Szrnka B´┐Żla (based on litgo@aol.com's work@thewho.net)

Instruments

1st → Guitar (Pete)
2nd → Bass (John)

File Size

27 KB

Views

330

Notice

In the concert the sequel had a very psychedelic guitar part with wild vibratos, tremolos, pick slidings and etc, try it if you wish. I can't play drums, I don't like to tab them, so please forgive me for not tabbing the unpredictable Keith Moon's drumming here.






Tablature Sheet

Title: Sparks
Artist: The Who
Album: Live @ Woodstock
Author: 






Track 1: Guitar (Pete)
Back to top
E|--------|--------|------0--3----3------3---0--3-------|-----3---0--3----3------3---5---3---|
B|--------|--------|------0--3----3------3---0--3-------|-----3---0--3----3------3---5---3---|
G|--------|--------|------2-------2------2---2----------|-----2---2-------2------2---2---2---|
D|--------|--------|------2-------2------2---2----------|-----2---2-------2------2---2---2---|
A|--------|--------|------------------------------------|------------------------------------|
E|--------|--------|-0------------0--0---0-----------0--|-0---0-----------0--0---0-----------|


E|-0----0--------------0----|-----------0--------------------|-0----0--------------0----|
B|-0----0--------------0----|-----------0--------------------|-0----0--------------0----|
G|-4----4--------------4----|-----------4----2---2---2---2---|-4----4--------------4----|
D|-2----2----0--2------2----|-0--2------2----0---0-----------|-2----2----0--2------2----|
A|--------------------------|------------------------4---4---|--------------------------|
E|--------------------------|--------------------------------|--------------------------|


E|-----------0--------------------|-0----0--------------0----|-----------0--------------------|
B|-----------0--------------------|-0----0--------------0----|-----------0--------------------|
G|-----------4----2---2---2---2---|-4----4--------------4----|-----------4----2---2---2---2---|
D|-0--2------2----0---0-----------|-2----2----0--2------2----|-0--2------2----0---0-----------|
A|------------------------4---4---|--------------------------|------------------------4---4---|
E|--------------------------------|--------------------------|--------------------------------|


E|-0----0--------------0----|-----------0----------------------|--------|-------0-----------0---|
B|-0----0--------------0----|-----------0----------------------|-4------|-2-----2-----------2---|
G|-4----4--------------4----|-----------4----2---2-------------|-4------|-2-----2-----------2---|
D|-2----2----0--2------2----|-0--2------2----0---0-------------|-4------|-2-----2-----------2---|
A|--------------------------|------------------------4--2--0---|-2------|-2-----2---2---2---2---|
E|--------------------------|----------------------------------|--------|-----------------------|


E|-4-----4-----------4---|-2------|-4-----5----0----|-4-----5----0----|-4-----5----0----|
B|-4-----4-----------4---|-2------|-5-----5---------|-5-----5---------|-5-----5---------|
G|-4-----4-----------4---|-2------|-4-----4---------|-4-----4---------|-4-----4---------|
D|-4-----4-----------4---|-2------|-0-----0---------|-0-----0---------|-0-----0---------|
A|-2-----2---2---2---2---|-2------|-----------------|-----------------|-----------------|
E|-----------------------|--------|-----------------|-----------------|-----------------|


E|-4-----5----0----|-2-----5----0----|-4-----5----0----|-4------|------------------------------------|
B|-5-----5----5----|-3-----3----3----|-5-----5---------|-5------|------------------------------------|
G|-4-----4----4----|-2-----2----2----|-4-----4---------|-4------|------------------------------------|
D|-0-----0---------|-0-----0----0----|-0-----0---------|-0------|------------------------------------|
A|-----------------|-----------------|-----------------|--------|-7---5-----------7---5--------------|
E|-----------------|-----------------|-----------------|--------|------------------------8--7--5--3--|


E|--------------------------------------|------------------------------------|-------------------------------|
B|--------------------------------------|------------------------------------|-------------------------------|
G|--------------------------------------|------------------------------------|-------------------------------|
D|--------------------------------------|------------------------------------|-------------------------------|
A|-7--7--5-----------7---5--------------|-5---3-----------5---3--2--0-----0--|-2-----2--2--2--2--2--2--2--2--|
E|--------------------------8--7--5--3--|------------------------------3-----|-------------------------------|


E|-5----5-----------------------------|-4-----2--------------------4-----2-----5--5-----|
B|-5----5------------4----4-----------|-5-----3--------------------5-----3-----5--5-----|
G|-4----4------------4----4-----------|-4-----2--------------------4-----2-----4--4-----|
D|-4----4------------4----4--4--4-----|-0--0--0--0--0--0--0--0--0--0--0--0--0--0--0--0--|
A|-2----2---2--2--2--2----2--2--2--0--|-------------------------------------------------|
E|------------------------------------|-------------------------------------------------|


E|-4-----2--------------------4-----2-----4--4-----|-6-----6--------------------6-----6-----6--6-----|
B|-5-----3--------------------5-----3-----5--5-----|-7-----6--------------------7-----6-----7--7-----|
G|-4-----2--------------------4-----2-----4--4-----|-6-----7--------------------6-----7-----6--6-----|
D|-0--0--0--0--0--0--0--0--0--0--0--0--0--0--0--0--|-0--0--0--0--0--0--0--0--0--0--0--0--0--0--0--0--|
A|-------------------------------------------------|-------------------------------------------------|
E|-------------------------------------------------|-------------------------------------------------|


E|-7--------------------------------------------7--|-7--------8--------7-----7-----------------------|
B|-8--------------------------------------------8--|----8--------8-----------------10----10-8--------|
G|-7--------------------------------------------7--|-------7--------7--------------------------7-----|
D|-0--0--0--0--0--0--0--0--0--0--0--0--0--0--0--0--|----------------------------------------------0--|
A|-------------------------------------------------|-------------------------------------------------|
E|-------------------------------------------------|-------------------------------------------------|


E|-7--------8--------10----------------------10----|-7-----5--------------------8-----7-----5--5-----|
B|----8--------8-----------------------------------|-8-----6--------------------8-----8-----6--6-----|
G|-------7--------7--------------------------------|-7-----5--------------------9-----7-----5--5-----|
D|----------------------------------------0--0--0--|-0--0--0--0--0--0--0--0--0--0--0--0--0--0--0--0--|
A|-------------------------------------------------|-------------------------------------------------|
E|-------------------------------------------------|-------------------------------------------------|


E|-7--------8--------5--------------------------5---|-11----------------11-----10----------------10-----|
B|-8--------8--------6--------------------------6-12|-------------------12---10------------------10---12|
G|-7--------9--------5--------------------------11--|-------------------11-11--------------------11-11--|
D|-0--0--0--0--0--0--0--0--0--0--0--0--0--0--0------|----0--0--0--0--0--0---------0--0--0--0--0--0------|
A|--------------------------------------------------|---------------------------------------------------|
E|--------------------------------------------------|---------------------------------------------------|


E|-11----------------11-----10----------------10-----|-11----------10----------11----------10----------|
B|-------------------12---10------------------10-----|-12----------10----------12----------10----------|
G|-------------------11-11--------------------11-----|-11----------11----------11----------11----------|
D|----0--0--0--0--0--0---------0--0--0--0--0--0--0-0-|----0--0--0-----0--0--0-----0--0--0-----0--0--0--|
A|---------------------------------------------------|-------------------------------------------------|
E|---------------------------------------------------|-------------------------------------------------|


E|-11----10----11----10----11----10----11----10----|-----------------|-----------------------|
B|-12----10----12----10----12----10----12----10----|-----------------|---------------0---0---|
G|-11----11----11----11----11----11----11----11----|-------1----4----|---------------0---0---|
D|----0-----0-----0-----0-----0-----0-----0-----0--|-------2----2----|------0--0-------------|
A|-------------------------------------------------|-2----------2----|-2-------2---------0---|
E|-------------------------------------------------|-0----------0----|-0-------0---------0---|


E|-----------------|----------------------------|----------10------------------------------|
B|-0-----0---------|-----------10---10-12-10-12-|-10----12----12-10----12------------------|
G|-0----------0----|-------9--------------------|------------------12----14-13----------13-|
D|-------0---------|----------------------------|--------------------14--------------14----|
A|-2-----2----2----|-2-----7--------------------|------------------------------12-14-------|
E|-0----------0----|-0--------------------------|------------------------------------------|


E|-----------------0-------0-------|--------|------------------------------------|
B|-------------0-------0---0-------|--------|------------------------------------|
G|-------------0---------------0---|--------|------------------------------------|
D|------0--0-----------0-----------|-2------|------------------------------------|
A|-2-------2-----------------------|-2------|-7---5-----------7---5--------------|
E|-0-------0-----------------------|-0------|------------------------8--7--5--3--|


E|--------------------------------------|------------------------------------|-------------------------------|
B|--------------------------------------|------------------------------------|-------------------------------|
G|--------------------------------------|------------------------------------|-------------------------------|
D|--------------------------------------|------------------------------------|-------------------------------|
A|-7--7--5-----------7---5--------------|-5---3-----------5---3--2--0-----0--|-2-----2--2--2--2--2--2--2--2--|
E|--------------------------8--7--5--3--|------------------------------3-----|-------------------------------|


E|-5----5-----------------------------|-4-----2--------------------4-----2-----5--5-----|
B|-5----5------------4----4-----------|-5-----3--------------------5-----3-----5--5-----|
G|-4----4------------4----4-----------|-4-----2--------------------4-----2-----4--4-----|
D|-4----4------------4----4--4--4-----|-0--0--0--0--0--0--0--0--0--0--0--0--0--0--0--0--|
A|-2----2---2--2--2--2----2--2--2--0--|-------------------------------------------------|
E|------------------------------------|-------------------------------------------------|


E|-4-----2--------------------4-----2-----4--4-----|-6-----6--------------------6-----6-----6--6-----|
B|-5-----3--------------------5-----3-----5--5-----|-7-----6--------------------7-----6-----7--7-----|
G|-4-----2--------------------4-----2-----4--4-----|-6-----7--------------------6-----7-----6--6-----|
D|-0--0--0--0--0--0--0--0--0--0--0--0--0--0--0--0--|-0--0--0--0--0--0--0--0--0--0--0--0--0--0--0--0--|
A|-------------------------------------------------|-------------------------------------------------|
E|-------------------------------------------------|-------------------------------------------------|


E|-7---------8------|-7-------5------4-------2------|-0-------3------2-------8------|
B|-8---------8------|-8-------5------5-------3------|-1-------0------3-------8------|
G|-7---------7------|-7-------6------4-------2------|-0-------0------2-------7------|
D|-0----------------|-------------------------------|-------------------------------|
A|------------------|-------------------------------|-------------------------------|
E|------------------|-------------------------------|-------------------------------|


E|-7-------5------4-------2------|-0-----------------------------|------------------------|
B|-8-------5------5-------3------|-2-------3------2-------3------|-5-------3--------------|
G|-7-------6------4-------2------|-2-------2------2-------2------|-0-------2--------2-----|
D|-------------------------------|-2-------4------2-------4------|-5-------4--------2-----|
A|-------------------------------|-0-----------------------------|------------------0-----|
E|-------------------------------|-------------------------------|------------------------|


E|--------|
B|--------|
G|-2------|
D|-2------|
A|-0------|
E|--------|









Track 2: Bass (John)
Back to top
G|------------------------------------------|-------------------------------------------|
D|------------------------------------------|-------------------------------------------|
A|------------------------------------------|-------------------------------------------|
E|-0---0---0--0---0---0--0---0---0---0---0--|-0---0---0--0---0---0--0---0---0--0--0--0--|


G|------------------------------------------|-------------------------------------------|
D|------------------------------------------|-------------------------------------------|
A|------------------------------------------|-------------------------------------------|
E|-0---0---0--0---0---0--0---0---0---0---0--|-0---0---0--0---0---0--0---0---0--0--0--0--|


G|---------------------12-12------------|---------------------14-16--14----------|
D|---------------12-14-------14----14---|-------12----14---17-----------17-14----|
A|---------12-14------------------------|-12-14----------------------------------|
E|-12-----------------------------------|----------------------------------------|


G|-------------------12-14-12--16--14-12-|-14-12-----12----------------------------|
D|------------12-14----------------------|-------14------14-12-14--12--------------|
A|---------14----------------------------|----------------------------14-13-12-----|
E|-12------------------------------------|-------------------------------------15--|


G|---------------------12-14-12-------|-----------12------12--------------|---------------------12-14-12--16--14-12-|
D|---------------12-14-----------14---|----12-14--------------14--12------|---------------12-14---------------------|
A|---------12-14----------------------|-14----------------------------14--|---------12-14---------------------------|
E|-12---------------------------------|-----------------------------------|-12--------------------------------------|


G|-14-12----12---------------------------|---------------------------------|---------------------------------|
D|-------14-----14-12--------------------|---------------------------------|---------------------------------|
A|--------------------14-12--10--7---5---|-2---2---2---2---2---2---2---2---|-2---2---2---2---2---2---2---2---|
E|---------------------------------------|---------------------------------|---------------------------------|


G|---------------------------------|---------------------|---------9-----------------7-------|
D|---------------------------------|---------------------|------9-----9-----------7----------|
A|-2---2---2---2---2---2---2---2---|-2----2----2----2----|-7-------------7---5-----------5---|
E|---------------------------------|---------------------|-----------------------------------|


G|---------9-----------------7-------|---------9-----------------7-------|---------9-------------------9-------|
D|------9-----9-----------7----------|------9-----9-----------7----------|------9-----9-----9-------9----------|
A|-7-------------7---5-----------5---|-7-------------7---5-----------5---|-7-------------7-----7-----------7---|
E|-----------------------------------|-----------------------------------|-------------------------------------|


G|---------7-------------------7-------|---------9-------------------9-----------|
D|------7-----7-----7-------7----------|------9-----9-----9-------------9-----9--|
A|-5-------------5-----5-----------5---|-7-------------7-----7----7--------7-----|
E|-------------------------------------|-----------------------------------------|


G|-------------9-----------------------9-----------|------------------------------------|
D|----------9-----9-----9-----------9-----9--------|------------------------------------|
A|-7--7--7-----------7-----7--7--7-----------7--7--|-7---5-----------7---5--------------|
E|-------------------------------------------------|------------------------8--7--5--3--|


G|------------------------------------|------------------------------------|-------------------------------------------------|
D|------------------------------------|------------------------------------|-------------------------------------------------|
A|-7---5-----------7---5--------------|-5---3-----------5---3--2--0-----0--|-2--2--2--2--2--2--2--2--2--2--2--2--2--2--2--2--|
E|------------------------8--7--5--3--|------------------------------3-----|-------------------------------------------------|


G|-------------------------------------------------|---------------------------------------------------------|
D|-------------------------------------------------|-0--0-0-0--0-0-0--0-0-0--0-0-0--0-0-0--0-0-0--0-0-0--0-0-|
A|-2--2--2--2--2--2--2--2--2--2--2--2--2--2--2--2--|---------------------------------------------------------|
E|-------------------------------------------------|---------------------------------------------------------|


G|---------------------------------------------------------|---------------------------------------------------------|
D|-0----0-0--0-0-0--0-0-0--0-0-0--0-0-0----0-0--0-0-0--0-0-|-0----0-0--0-0-0--0-0-0--0-0-0--0-0-0--0-0-0--0-0-0--0-0-|
A|---------------------------------------------------------|---------------------------------------------------------|
E|---------------------------------------------------------|---------------------------------------------------------|


G|---------------------------------------------------------|-----------------------------------------------------------------|
D|-0--0-0-0--0-0-0--0-0-0--0-0-0--0-0-0--0-0-0--0-0-0--0-0-|-0-0-0-0-0-0-0-0-0-0-0-0-0-0-0-0-0-0-0-0-0-0-0-0-0-0-0-0-0-0-0-0-|
A|---------------------------------------------------------|-----------------------------------------------------------------|
E|---------------------------------------------------------|-----------------------------------------------------------------|


G|-----------------------------------------------------------------|-----------------------------------------------------------------|
D|-0-0-0-0-0-0-0-0-0-0-0-0-0-0-0-0-0-0-0-0-0-0-0-0-0-0-0-0-0-0-0-0-|-0-0---0-0-0-0-0-0-0-0-0-0-0-0-0---0-0-0-----0-0-----0-0-0-0-0-0-|
A|-----------------------------------------------------------------|-----------------------------------------------------------------|
E|-----------------------------------------------------------------|-----------------------------------------------------------------|


G|-----------------------------------------------------------------|---------------------------------------------------|
D|-0-0---------0-0-------0-0-0-0-----0-0-0-0-0-0-0-0-0-0-0-0-0-0-0-|-0--0--0--0--0--0--0--0-0-0--0--0--0--0--0--0--0-0-|
A|-----------------------------------------------------------------|---------------------------------------------------|
E|-----------------------------------------------------------------|---------------------------------------------------|


G|---------------------------------------------------|-------------------------------------------------|
D|-0--0--0--0--0--0--0--0-0-0--0--0--0--0--0--0--0-0-|-0--0--0--0--0--0--0--0--0--0--0--0--0--0--0--0--|
A|---------------------------------------------------|-------------------------------------------------|
E|---------------------------------------------------|-------------------------------------------------|


G|-------------------------------------------------|---------9-----------------7-------|
D|-0--0--0--0--0--0--0--0--0--0--0--0--0--0--0--0--|------9-----9-----------7----------|
A|-------------------------------------------------|-7-------------7---5-----------5---|
E|-------------------------------------------------|-----------------------------------|


G|---------9-----------------7-------|---------9-----------------7-------|---------9-------------------9-------|
D|------9-----9-----------7----------|------9-----9-----------7----------|------9-----9-----9-------9----------|
A|-7-------------7---5-----------5---|-7-------------7---5-----------5---|-7-------------7-----7-----------7---|
E|-----------------------------------|-----------------------------------|-------------------------------------|


G|---------7-------------------7-------|---------9-------------------9-----------|
D|------7-----7-----7-------7----------|------9-----9-----9-------------9-----9--|
A|-5-------------5-----5-----------5---|-7-------------7-----7----7--------7-----|
E|-------------------------------------|-----------------------------------------|


G|-------------9-----------------------9-----------|------------------------------------|
D|----------9-----9-----9-----------9-----9--------|------------------------------------|
A|-7--7--7-----------7-----7--7--7-----------7--7--|-7---5-----------7---5--------------|
E|-------------------------------------------------|------------------------8--7--5--3--|


G|------------------------------------|------------------------------------|-------------------------------------------------|
D|------------------------------------|------------------------------------|-------------------------------------------------|
A|-7---5-----------7---5--------------|-5---3-----------5---3--2--0-----0--|-2--2--2--2--2--2--2--2--2--2--2--2--2--2--2--2--|
E|------------------------8--7--5--3--|------------------------------3-----|-------------------------------------------------|


G|-------------------------------------------------|---------------------------------------------------------|
D|-------------------------------------------------|-0--0-0-0--0-0-0--0-0-0--0-0-0--0-0-0--0-0-0--0-0-0--0-0-|
A|-2--2--2--2--2--2--2--2--2--2--2--2--2--2--2--2--|---------------------------------------------------------|
E|-------------------------------------------------|---------------------------------------------------------|


G|---------------------------------------------------------|---------------------------------------------------------|
D|-0----0-0--0-0-0--0-0-0--0-0-0--0-0-0----0-0--0-0-0--0-0-|-0----0-0--0-0-0--0-0-0--0-0-0--0-0-0--0-0-0--0-0-0--0-0-|
A|---------------------------------------------------------|---------------------------------------------------------|
E|---------------------------------------------------------|---------------------------------------------------------|


G|--------------------------------------------------------|-----------------------------------------------------|
D|-0--0-0-0--0-0-0--0-0-0--0-0-0--0-0-0--0-0-0--0--0-0-0--|-0--0-0-0--0-0-0--0--0--0--0--0-0-0--0-0-0--0--0--0--|
A|--------------------------------------------------------|-----------------------------------------------------|
E|--------------------------------------------------------|-----------------------------------------------------|


G|-----------------------------------------------------|---------------------------------------------------|
D|-0--0-0-0--0-0-0--0--0--0--0--0-0-0--0-0-0--0--0--0--|-0--0-0-0--0-0-0--0--0--0--0--0-0-0--0-0-0--0------|
A|-----------------------------------------------------|---------------------------------------------------|
E|-----------------------------------------------------|---------------------------------------------------|


G|-------------------------------|--------------------|--------|
D|---------0--------------0------|---------0----------|--------|
A|-0--------------0--------------|-0------------0-----|-0------|
E|-------------------------------|--------------------|--------|



← Back to top