Trademark

Guitar Pro Tab  |  v3.00  |  Posted on March 29, 2007, 10:56 a.m. ← Back

Guitar Pro Tab Summary

Album

unknown

Song Author

Eric Johnson

Tabbed by

unknown

Instruments

1st → Guitarra Limpa
2nd → Guitar Limpa Overdrive
3rd → Guitar Distortion (Solo)

File Size

12 KB

Views

2,194

Notice

Transcrito por Batata (Carlos Eduardo Patta) de Campo Mour´┐Żo-PR Email - batataguitar@hotmail.com






Tablature Sheet

Title: Trademark
Artist: 
Album: 
Author: Eric Johnson






Track 1: Guitarra Limpa
Back to top
E|--------------------------|-------------------------------|-------------------------------|
B|--------------------------|----------------------9--------|-------------------------------|
G|-----------------9--------|-11------------------------11--|-11----9----8---8--------------|
D|-------------11-------11--|------11--11----11-------------|----------------------11---9---|
A|--------------------------|-------------------------------|-------------------------------|
E|--------------------------|-------------------------------|-------------------------------|


E|----------------------------------------|--------------------------|-------------------------------|
B|------------------------0---------------|--------------------------|----------------------9--------|
G|----------------1---2-------2---1-------|-----------------9--------|-11------------------------11--|
D|-9-----9----2---------------------------|-------------11-------11--|------11--11----11-------------|
A|------------------------------------2---|-2------2-----------------|-------------------------------|
E|----------------------------------------|--------------------------|-------------------------------|


E|-------------------------------|--------------------------|-------------------------------|
B|-------------------------------|--------------------------|--------------4----4-----------|
G|-11----9----8---8--------------|--------------------------|------6---6---6----6-----------|
D|----------------------11---9---|-9------------------------|------6---6---6----6-----------|
A|-------------------------------|--------------------------|-------------------------------|
E|-------------------------------|-------------2---3----4---|-4-----------------------------|


E|-12-------11-------9--------7--------|------12--12--11---9--------7--------|----------------------------------|
B|-9-----------------9--------7--------|------9---9--------9--------7--------|-9----9---7--------5----4----2----|
G|----------11-------------------------|--------------11---------------------|-9----9------------6----4----2----|
D|-11-------9--------11-------9--------|------11--11--9----11-------9--------|-7----7---7--------6----4----2----|
A|-------------------------------------|-------------------------------------|----------------------------------|
E|-------------------------------------|-------------------------------------|----------------------------------|


E|----------------------------|-12-------11-------9--------7--------|------12--12--11---9--------7--------|
B|-2----2---2-----2-----------|-9-----------------9--------7--------|------9---9--------9--------7--------|
G|-2----2---2-----2-----------|----------11-------------------------|--------------11---------------------|
D|-2----2---2-----2-----------|-11-------9--------11-------9--------|------11--11--9----11-------9--------|
A|------2---2-----2-----------|-------------------------------------|-------------------------------------|
E|----------------------------|-------------------------------------|-------------------------------------|


E|----------------------------------|--------------------------|-------------------------------|
B|-9--------7--------5----------5---|-5------------------------|----------------------9--------|
G|-9----9------------6--------------|-----------------9--------|-11------------------------11--|
D|-7----7---7--------6----------7---|-7-----------11-------11--|------11--11----11-------------|
A|----------------------------------|--------------------------|-------------------------------|
E|----------------------------------|-4------------------------|-------------------------------|


E|-------------------------------|-------------------------------------|-------------------------------|
B|-------------------------------|----------------7----4---4-----------|-------------------------------|
G|-11----9----8---8--------------|------------4----------------4-------|-4-----4-----------------------|
D|----------------------11---9---|-9-------------------------------7---|----------------------2--------|
A|-------------------------------|-------------------------------------|------------------4--------4---|
E|-------------------------------|-------------------------------------|-------------------------------|


E|------------------------------------------------|---------------------------------------------------------------|
B|--------------------------12--12--9---12-9------|-----12-9-----12-9---------------------9--12-9-----------------|
G|------------------------------------------------|-11--------11--------11-11-9--------11-----------11-11-9-------|
D|-2--4-------------------------------------------|------------------------------11-11------------------------11--|
A|--------4---4---4-------------------------------|---------------------------------------------------------------|
E|------------------------------------------------|---------------------------------------------------------------|


E|-----------------------|----------------------------|-------------------------|----------------------------------------|
B|-------------------14--|-------14----14-------------|-------------------------|----------------------------------------|
G|-----------------------|----------------------------|-------------------9-----|-9--------------------------9-----------|
D|-9-----9---------------|----------------------------|-------9-----11----------|----------9----9---11---11--------------|
A|-----------------------|------------------------11--|-11----------------------|------11----------------------------11--|
E|-----------------------|----------------------------|-------------------------|----------------------------------------|


E|-------------------------------|----------------------9---|-12--9----9-------------------------------|
B|-------------------------------|------------------12------|----------------9--12---9-----------------|
G|-13----13-------9----9---9-----|--------------------------|----------------------------11-9----------|
D|-------------------------------|--------------------------|----------------------------------11--9---|
A|-------------------------------|--------------------------|------------------------------------------|
E|-------------------------------|--------------------------|------------------------------------------|


E|---------------------------------------|-7-----7----7---7--------------|-------------------|
B|---------------------------------------|------------14--14---------5---|-5------5----------|
G|-11--9---------------------------------|-9-----9----9---9----------2---|-2------2----------|
D|---------11-9--------------------------|-7-----7----7---7----------2---|-2------2----------|
A|---------------11-9--------------------|---------------------------2---|-2------2----------|
E|----------------------12---12----------|-------------------------------|-------------------|


E|------------------|------------------|------------------|------------------|------------------|
B|------------------|------------------|------------------|------------------|------------------|
G|------------------|------------------|------------------|------------------|------------------|
D|------------------|------------------|------------------|------------------|------------------|
A|------------------|------------------|------------------|------------------|------------------|
E|------------------|------------------|------------------|------------------|------------------|


E|------------------|------------------|------------------|-0------------0---------------------------0---|
B|------------------|------------------|------------------|----------------------9-----------7-------7---|
G|------------------|------------------|------------------|------8---8---------------9---------------9---|
D|------------------|------------------|------------------|------------------7-----------7-------7---7---|
A|------------------|------------------|------------------|----------------------------------------------|
E|------------------|------------------|------------------|----------------------------------------------|


E|-0------------0----------------------|-0------------0-----------------------0----|
B|-------------------------------------|----------------------9-----------7---7----|
G|------8---8--------6--------8--------|------8---8---------------9-----------9----|
D|-----------------------7--------9----|------------------7-----------7-------7----|
A|-------------------------------------|-------------------------------------------|
E|-------------------------------------|-------------------------------------------|


E|-0------------0----------------------|--------------0-----------------------0----|
B|---------------------------------0---|-0--------------------9-----------7---7----|
G|------8---8--------6--------8--------|------8---8---------------9-----------9----|
D|-----------------------7----9--------|------------------7-----------7-------7----|
A|-------------------------------------|-------------------------------------------|
E|-------------------------------------|-------------------------------------------|


E|-0------------0----------------------|-0------------0-----------------------0----|
B|-------------------------------------|----------------------9-----------7---7----|
G|------8---8--------6--------8--------|------8---8---------------9-----------9----|
D|-----------------------7--------9----|------------------7-----------7-------7----|
A|-------------------------------------|-------------------------------------------|
E|-------------------------------------|-------------------------------------------|


E|-0------------0----------------------|-0------------0-----------------------0----|
B|-------------------------------------|----------------------9-----------7---7----|
G|------8---8--------6--------8--------|------8---8---------------9-----------9----|
D|-----------------------7--------9----|------------------7-----------7-------7----|
A|-------------------------------------|-------------------------------------------|
E|-------------------------------------|-------------------------------------------|


E|-0------------0----------------------|-0------------0-----------------------0----|
B|-------------------------------------|----------------------9-----------7---7----|
G|------8---8--------6--------8--------|------8---8---------------9-----------9----|
D|-----------------------7--------9----|------------------7-----------7-------7----|
A|-------------------------------------|-------------------------------------------|
E|-------------------------------------|-------------------------------------------|


E|-0------------0----------------------|-0------------0-----------------------0----|
B|-------------------------------------|----------------------9-----------7---7----|
G|------8---8--------6--------8--------|------8---8---------------9-----------9----|
D|-----------------------7--------9----|------------------7-----------7-------7----|
A|-------------------------------------|-------------------------------------------|
E|-------------------------------------|-------------------------------------------|


E|-0------------0-----------------------0----|-0------------0----------------------|
B|----------------------9-----------7---7----|-------------------------------------|
G|------8---8---------------9-----------9----|------8---8--------6--------8--------|
D|------------------7-----------7-------7----|-----------------------7--------9----|
A|-------------------------------------------|-------------------------------------|
E|-------------------------------------------|-------------------------------------|


E|-0------------0----------------------------|-------------------------------------|
B|-------------------9---9-------------------|-------------------------------------|
G|------8---8--------------------------------|-------------------------------------|
D|-------------------------------------------|-------------------6----4---4--------|
A|-------------------------------------------|------4---4---7----------------------|
E|-------------------------------------------|-5------------------------------7----|


E|------------------|------------------|------------------|------------------|------------------|
B|------------------|------------------|------------------|------------------|------------------|
G|------------------|------------------|------------------|------------------|------------------|
D|------------------|------------------|------------------|------------------|------------------|
A|------------------|------------------|------------------|------------------|------------------|
E|------------------|------------------|------------------|------------------|------------------|


E|------------------|------------------|------------------|------------------|------------------|
B|------------------|------------------|------------------|------------------|------------------|
G|------------------|------------------|------------------|------------------|------------------|
D|------------------|------------------|------------------|------------------|------------------|
A|------------------|------------------|------------------|------------------|------------------|
E|------------------|------------------|------------------|------------------|------------------|


E|------------------|------------------|------------------|------------------|------------------|
B|------------------|------------------|------------------|------------------|------------------|
G|------------------|------------------|------------------|------------------|------------------|
D|------------------|------------------|------------------|------------------|------------------|
A|------------------|------------------|------------------|------------------|------------------|
E|------------------|------------------|------------------|------------------|------------------|


E|-----------------------------|----------------------------------|-------------------------------|
B|-----------------------------|----------------------9---9-------|-------------------------------|
G|--------------------9--------|-11---------------------------11--|-11----9----8---8--------------|
D|----------------11-----------|----------11----11----------------|----------------------11---9---|
A|-----------------------------|----------------------------------|-------------------------------|
E|-----------------------------|----------------------------------|-------------------------------|


E|----------------------------------------|--------------------------|-------------------------------|
B|------------------------0---------------|--------------------------|----------------------9--------|
G|----------------1---2-------2---1-------|-----------------9--------|-11------------------------11--|
D|-9----------2---------------------------|-------------11-----------|----------11----11-------------|
A|------------------------------------2---|-2------------------------|-------------------------------|
E|----------------------------------------|--------------------------|-------------------------------|


E|-------------------------------|-----------------------------|----------------------------------------|
B|-------------------------------|-----------------------------|--------------4----4--------------------|
G|-11----9----8---8--------------|-----------------------------|------6---6--------6--------------------|
D|----------------------11---9---|-9---------------------------|------6---6--------6-----------9----11--|
A|-------------------------------|-----------------------------|---------------------------11-----------|
E|-------------------------------|-------------2---3-------4---|-4--------------------------------------|


E|-------------------------|----------------------------------------|-----------------------------------------|
B|-------------------------|----------------------------------------|-------7--9------------------------------|
G|-------------9-----9-----|----------11--12--9---11-------9--------|--------------11--11----6--8-------------|
D|-11----11----------------|------11-------------------11-------10--|-11---------------------------9----------|
A|-------------------------|----------------------------------------|-----------------------------------------|
E|-------------------------|----------------------------------------|-----------------------------------------|


E|-------------------------------|----------------------------------|-------------------------------|
B|-------------------------------|----------------------------------|-------------------------------|
G|-------------------------------|-------------------9-----11-------|-13----13-------9-----9--------|
D|-9-----11-------------9--------|----------9----11-----------------|-------------------------------|
A|------------9---9----------11--|-11-------------------------------|-------------------------------|
E|-------------------------------|----------------------------------|-------------------------------|


E|---------7---7--------------------------|-------------------------------------|-12-------11-------9--------7--------|
B|-7---9------------------5---5---7---5---|-5-----------------------------------|-9-----------------9--------7--------|
G|------------------------4---4---6---4---|-4--------4---6---4---4-----4--------|----------11-------------------------|
D|----------------------------------------|----------4---6---4---4-----4--------|-11-------9--------11-------9--------|
A|----------------------------------------|-------------------------------------|-------------------------------------|
E|----------------------------------------|-------------------------------------|-------------------------------------|


E|------12--12--11---9--------7--------|----------------------------------|----------------------------|
B|------9---9--------9--------7--------|-9----9---7--------5----4----2----|-2----------2---2-----------|
G|--------------11---------------------|-9----9------------6----4----2----|-2----------2---2-----------|
D|------11--11--9----11-------9--------|-7----7---7--------6----4----2----|-2----------2---2-----------|
A|-------------------------------------|----------------------------------|----------------------------|
E|-------------------------------------|----------------------------------|----------------------------|


E|-------------------------------------|-4--------7--------9--------11-------|-----------------------|
B|-5--------7--------5--------7--------|-5--------7--------9--------9--------|-14--------------------|
G|-6--------4----6---6--------4--------|-4--------6--------------------------|-14-----16---------11--|
D|-6--------4----6---6--------4--------|-------------------11-------9--------|-14-----14---------14--|
A|-------------------------------------|-------------------------------------|-12-----12---------14--|
E|-------------------------------------|-------------------------------------|-----------------------|


E|--------------------------|------------------|------------------|------------------|
B|--------------------------|------------------|------------------|------------------|
G|-11-----------------------|------------------|------------------|------------------|
D|-14-----------------------|------------------|------------------|------------------|
A|-14----------6---6---7----|------------------|------------------|------------------|
E|--------7-----------------|------------------|------------------|------------------|


E|------------------|------------------|------------------|------------------|------------------|
B|------------------|------------------|------------------|------------------|------------------|
G|------------------|------------------|------------------|------------------|------------------|
D|------------------|------------------|------------------|------------------|------------------|
A|------------------|------------------|------------------|------------------|------------------|
E|------------------|------------------|------------------|------------------|------------------|


E|------------------|------------------|------------------|------------------|------------------|
B|------------------|------------------|------------------|------------------|------------------|
G|------------------|------------------|------------------|------------------|------------------|
D|------------------|------------------|------------------|------------------|------------------|
A|------------------|------------------|------------------|------------------|------------------|
E|------------------|------------------|------------------|------------------|------------------|


E|------------------|------------------|------------------|------------------|------------------|
B|------------------|------------------|------------------|------------------|------------------|
G|------------------|------------------|------------------|------------------|------------------|
D|------------------|------------------|------------------|------------------|------------------|
A|------------------|------------------|------------------|------------------|------------------|
E|------------------|------------------|------------------|------------------|------------------|


E|------------------|------------------|------------------|------------------|------------------|
B|------------------|------------------|------------------|------------------|------------------|
G|------------------|------------------|------------------|------------------|------------------|
D|------------------|------------------|------------------|------------------|------------------|
A|------------------|------------------|------------------|------------------|------------------|
E|------------------|------------------|------------------|------------------|------------------|


E|------------------|------------------|------------------|------------------|------------------|
B|------------------|------------------|------------------|------------------|------------------|
G|------------------|------------------|------------------|------------------|------------------|
D|------------------|------------------|------------------|------------------|------------------|
A|------------------|------------------|------------------|------------------|------------------|
E|------------------|------------------|------------------|------------------|------------------|


E|------------------|------------------|------------------|------------------|------------------|
B|------------------|------------------|------------------|------------------|------------------|
G|------------------|------------------|------------------|------------------|------------------|
D|------------------|------------------|------------------|------------------|------------------|
A|------------------|------------------|------------------|------------------|------------------|
E|------------------|------------------|------------------|------------------|------------------|


E|------------------|------------------|------------------|------------------|------------------|
B|------------------|------------------|------------------|------------------|------------------|
G|------------------|------------------|------------------|------------------|------------------|
D|------------------|------------------|------------------|------------------|------------------|
A|------------------|------------------|------------------|------------------|------------------|
E|------------------|------------------|------------------|------------------|------------------|


E|------------------|--------------|
B|------------------|--------------|
G|------------------|-16-----------|
D|------------------|-14-----------|
A|------------------|--------------|
E|------------------|--------------|









Track 2: Guitar Distortion (Solo)
Back to top
E|------------------|------------------|------------------|------------------|------------------|
B|------------------|------------------|------------------|------------------|------------------|
G|------------------|------------------|------------------|------------------|------------------|
D|------------------|------------------|------------------|------------------|------------------|
A|------------------|------------------|------------------|------------------|------------------|
E|------------------|------------------|------------------|------------------|------------------|


E|------------------|------------------|------------------|------------------|------------------|
B|------------------|------------------|------------------|------------------|------------------|
G|------------------|------------------|------------------|------------------|------------------|
D|------------------|------------------|------------------|------------------|------------------|
A|------------------|------------------|------------------|------------------|------------------|
E|------------------|------------------|------------------|------------------|------------------|


E|------------------|------------------|------------------|------------------|------------------|
B|------------------|------------------|------------------|------------------|------------------|
G|------------------|------------------|------------------|------------------|------------------|
D|------------------|------------------|------------------|------------------|------------------|
A|------------------|------------------|------------------|------------------|------------------|
E|------------------|------------------|------------------|------------------|------------------|


E|------------------|------------------|------------------|------------------|------------------|
B|------------------|------------------|------------------|------------------|------------------|
G|------------------|------------------|------------------|------------------|------------------|
D|------------------|------------------|------------------|------------------|------------------|
A|------------------|------------------|------------------|------------------|------------------|
E|------------------|------------------|------------------|------------------|------------------|


E|------------------|------------------|------------------|------------------|------------------|
B|------------------|------------------|------------------|------------------|------------------|
G|------------------|------------------|------------------|------------------|------------------|
D|------------------|------------------|------------------|------------------|------------------|
A|------------------|------------------|------------------|------------------|------------------|
E|------------------|------------------|------------------|------------------|------------------|


E|------------------|------------------|------------------|------------------|------------------|
B|------------------|------------------|------------------|------------------|------------------|
G|------------------|------------------|------------------|------------------|------------------|
D|------------------|------------------|------------------|------------------|------------------|
A|------------------|------------------|------------------|------------------|------------------|
E|------------------|------------------|------------------|------------------|------------------|


E|------------------|------------------|---------------|---------------|---------------|
B|------------------|------------------|---------------|---------------|---------------|
G|------------------|------------------|---------------|---------------|---------------|
D|------------------|------------------|---------------|---------------|---------------|
A|------------------|------------------|---------------|---------------|---------------|
E|------------------|------------------|---------------|---------------|---------------|


E|---------------|---------------|---------------|---------------|---------------|
B|---------------|---------------|---------------|---------------|---------------|
G|---------------|---------------|---------------|---------------|---------------|
D|---------------|---------------|---------------|---------------|---------------|
A|---------------|---------------|---------------|---------------|---------------|
E|---------------|---------------|---------------|---------------|---------------|


E|---------------|---------------|---------------|---------------|---------------|
B|---------------|---------------|---------------|---------------|---------------|
G|---------------|---------------|---------------|---------------|---------------|
D|---------------|---------------|---------------|---------------|---------------|
A|---------------|---------------|---------------|---------------|---------------|
E|---------------|---------------|---------------|---------------|---------------|


E|---------------|---------------|---------------|---------------|----------------------------------|
B|---------------|---------------|---------------|---------------|----------------------------------|
G|---------------|---------------|---------------|---------------|----------------------------------|
D|---------------|---------------|---------------|---------------|----------------------------------|
A|---------------|---------------|---------------|---------------|----------------------------------|
E|---------------|---------------|---------------|---------------|----------------------------12----|


E|---------------|--------------------|-----------------------------|----------------------------|
B|-16-----16-----|-16----16-----------|-------------------------16--|-17-----14-16---------------|
G|-16-----16-----|-16----16-----------|---------------------16------|--------------16------------|
D|---------------|--------------------|-------------14--16----------|------------------16--16----|
A|---------------|--------------------|-----------------------------|----------------------------|
E|---------------|--------------------|-----------------------------|----------------------------|


E|--------------|--------------|-------------------------------------|-------------------------------------|
B|--------------|--------------|-------------------------------------|-------------------------------------|
G|--------------|--------------|-------------------------------------|-------------------------------------|
D|-14-----------|--------------|-------------------------------------|-------------------6----4---4--------|
A|--------------|--------------|-------------------------------------|------4---4---7----------------------|
E|--------------|--------------|---------------------------7---16----|-5------------------------------7----|


E|------------------|------------------|------------------|------------------|------------------|
B|------------------|------------------|------------------|------------------|------------------|
G|------------------|------------------|------------------|------------------|------------------|
D|------------------|------------------|------------------|------------------|------------------|
A|------------------|------------------|------------------|------------------|------------------|
E|------------------|------------------|------------------|------------------|------------------|


E|------------------|-------------------------------------|-------------------------16-----|
B|------------------|----------------------------9----11--|-14--14------14--16--16---------|
G|------------------|-------------------------------------|---------17---------------------|
D|------------------|------------10--10--10--13-----------|--------------------------------|
A|------------------|-------------------------------------|--------------------------------|
E|------------------|-------------------------------------|--------------------------------|


E|---------------|---------------|---------------|---------------|---------------|
B|---------------|---------------|---------------|---------------|---------------|
G|---------------|---------------|---------------|---------------|---------------|
D|---------------|---------------|---------------|---------------|---------------|
A|---------------|---------------|---------------|---------------|---------------|
E|---------------|---------------|---------------|---------------|---------------|


E|---------------|---------------|---------------|---------------|---------------|
B|---------------|---------------|---------------|---------------|---------------|
G|---------------|---------------|---------------|---------------|---------------|
D|---------------|---------------|---------------|---------------|---------------|
A|---------------|---------------|---------------|---------------|---------------|
E|---------------|---------------|---------------|---------------|---------------|


E|---------------|---------------|---------------|---------------|---------------|
B|---------------|---------------|---------------|---------------|---------------|
G|---------------|---------------|---------------|---------------|---------------|
D|---------------|---------------|---------------|---------------|---------------|
A|---------------|---------------|---------------|---------------|---------------|
E|---------------|---------------|---------------|---------------|---------------|


E|---------------|---------------|---------------|---------------|---------------|
B|---------------|---------------|---------------|---------------|---------------|
G|---------------|---------------|---------------|---------------|---------------|
D|---------------|---------------|---------------|---------------|---------------|
A|---------------|---------------|---------------|---------------|---------------|
E|---------------|---------------|---------------|---------------|---------------|


E|---------------|---------------|---------------|---------------|---------------|
B|---------------|---------------|---------------|---------------|---------------|
G|---------------|---------------|---------------|---------------|---------------|
D|---------------|---------------|---------------|---------------|---------------|
A|---------------|---------------|---------------|---------------|---------------|
E|---------------|---------------|---------------|---------------|---------------|


E|---------------|---------------|---------------|---------------|---------------|
B|---------------|---------------|---------------|---------------|---------------|
G|---------------|---------------|---------------|---------------|---------------|
D|---------------|---------------|---------------|---------------|---------------|
A|---------------|---------------|---------------|---------------|---------------|
E|---------------|---------------|---------------|---------------|---------------|


E|---------------|--------------------------|---------------|---------------|---------------|
B|---------------|--------------------------|---------------|---------------|---------------|
G|---------------|--------------------------|---------------|---------------|---------------|
D|---------------|--------------------------|---------------|---------------|---------------|
A|---------------|-------------6---6---7----|---------------|---------------|---------------|
E|---------------|--------7-----------------|---------------|---------------|---------------|


E|---------------|---------------|---------------|----------------------------------|
B|---------------|---------------|---------------|----------------------------------|
G|---------------|---------------|---------------|----------------------------------|
D|---------------|---------------|---------------|----------------------8--10---13--|
A|---------------|---------------|---------------|------------9---11----------------|
E|---------------|---------------|---------------|-------11-------------------------|


E|-------------------------11--11--16--16----|-17----17-------16---------------19--|
B|-------------11--14--13--------------------|------------19---------------19------|
G|---------13--------------------------------|-------------------------16----------|
D|-11--13------------------------------------|-------------------------------------|
A|-------------------------------------------|-------------------------------------|
E|-------------------------------------------|-------------------------------------|


E|-17----16------------------16--|------------16-------16-------------------------|
B|-------------19---17--19-------|-19----19-------19------19-16----19-16----------|
G|-------------------------------|------------------------------18-------18-16----|
D|-------------------------------|---------------------------------------------18-|
A|-------------------------------|------------------------------------------------|
E|-------------------------------|------------------------------------------------|


E|---------------------------------------------------|----------------------------------------|
B|----16---------------------------------------------|-------14------14--14---17--17--16--17--|
G|-18----18-16----------15---------------------------|-16--------16---------------------------|
D|-------------18-16-18-------18------------14-------|----------------------------------------|
A|-------------------------18-------12--14-----------|----------------------------------------|
E|---------------------------------------------------|----------------------------------------|


E|-----------------------------19---19---16--|-19----16----16------16--------------|
B|-19--17--0-----------16--19----------------|-----------------19----------16--16--|
G|-----------------18------------------------|-------------------------18----------|
D|-------------16----------------------------|-------------------------------------|
A|-------------------------------------------|-------------------------------------|
E|-------------------------------------------|-------------------------------------|


E|-------------------------------------------|-------------------------14--14---14----------|
B|-------------------------------------------|--------------------------------------17--17--|
G|-18--16--18--15--16------15----------------|-14-16---16----------16-----------------------|
D|---------------------18----------18--18----|-----------------16---------------------------|
A|-----------------------------18------------|-------------14-------------------------------|
E|-------------------------------------------|----------------------------------------------|


E|-----------------17--16--19----19---17--|-16-19-17-16----17-16-17-16-------------------19-16-------16------------|
B|-16--17--19-----------------------------|-------------19-------------19-17-------16-19-------19-16----19-16------|
G|----------------------------------------|----------------------------------16-18---------------------------------|
D|----------------------------------------|------------------------------------------------------------------------|
A|----------------------------------------|------------------------------------------------------------------------|
E|----------------------------------------|------------------------------------------------------------------------|


E|---------------------------------------------------------------------|---------------------------------------|
B|-21-16---------------------------------------------------------------|---------------------------------------|
G|-------19-18-16--------16--13----------13-11-------------------------|---------------------------------------|
D|----------------18-16----------16--13--------13-11-------9--6--------|-----------------2---4-----4-----------|
A|---------------------------------------------------14-11-------9--6--|-------------2-----------------6---7---|
E|---------------------------------------------------------------------|-0-----2--4----------------------------|


E|-------------------------------------12--9---11--|-----------11------11------11--16-------|
B|-------------------------12--9---10--------------|-14------------14------14---------------|
G|-------------11--8---9---------------------------|----------------------------------------|
D|-9---6---7---------------------------------------|------------------------------------14--|
A|-------------------------------------------------|----------------------------------------|
E|-------------------------------------------------|----------------------------------------|


E|-----------16--17--16------19---19--------|------------------|------------------|
B|-------17--------------19-----------------|------------------|------------------|
G|----16------------------------------------|------------------|------------------|
D|-18---------------------------------------|------------------|------------------|
A|------------------------------------------|------------------|------------------|
E|------------------------------------------|------------------|------------------|


E|------------------|------------------|------------------|------------------|------------------|
B|------------------|------------------|------------------|------------------|------------------|
G|------------------|------------------|------------------|------------------|------------------|
D|------------------|------------------|------------------|------------------|------------------|
A|------------------|------------------|------------------|------------------|------------------|
E|------------------|------------------|------------------|------------------|------------------|


E|------------------|---------------------------------------------|-------------------------------------------|
B|------------------|--------------9---10-9--7--------------------|--------------9-------7--------------------|
G|------------------|------9---9------------------8---8-----------|------9---9----------------8---8-----------|
D|------------------|-7-----------------------------------9-------|-7---------------------------------9-------|
A|------------------|---------------------------------------------|-------------------------------------------|
E|------------------|---------------------------------------------|-------------------------------------------|


E|-------------------------14---19--19-------|--------------16------14-------------------|
B|---------16--17--16--17--------------------|------17--17---------------16--16----------|
G|-------------------------------------------|-14--------------------------------16------|
D|-----16------------------------------------|-------------------------------------------|
A|-14----------------------------------------|-------------------------------------------|
E|-------------------------------------------|-------------------------------------------|


E|--------------17--16--14-------------------|--------------16------14-------------------|
B|------17-------------------16--16----------|------17--17---------------16--16----------|
G|-14--------------------------------16------|-14--------------------------------16------|
D|-------------------------------------------|-------------------------------------------|
A|-------------------------------------------|-------------------------------------------|
E|-------------------------------------------|-------------------------------------------|


E|--------------16---------------------------|--------|
B|------17--17----------17-----------14------|--------|
G|-14------------------------14--14----------|-16-----|
D|-------------------------------------------|-14-----|
A|-------------------------------------------|--------|
E|-------------------------------------------|--------|









Track 3: Guitar Limpa Overdrive
Back to top
E|------------------|------------------|------------------|------------------|------------------|
B|------------------|------------------|------------------|------------------|------------------|
G|------------------|------------------|------------------|------------------|------------------|
D|------------------|------------------|------------------|------------------|------------------|
A|------------------|------------------|------------------|------------------|------------------|
E|------------------|------------------|------------------|------------------|------------------|


E|------------------|------------------|------------------|------------------|------------------|
B|------------------|------------------|------------------|------------------|------------------|
G|------------------|------------------|------------------|------------------|------------------|
D|------------------|------------------|------------------|------------------|------------------|
A|------------------|------------------|------------------|------------------|------------------|
E|------------------|------------------|------------------|------------------|------------------|


E|------------------|------------------|------------------|------------------|------------------|
B|------------------|------------------|------------------|------------------|------------------|
G|------------------|------------------|------------------|------------------|------------------|
D|------------------|------------------|------------------|------------------|------------------|
A|------------------|------------------|------------------|------------------|------------------|
E|------------------|------------------|------------------|------------------|------------------|


E|------------------|------------------|------------------|------------------|------------------|
B|------------------|------------------|------------------|------------------|------------------|
G|------------------|------------------|------------------|------------------|------------------|
D|------------------|------------------|------------------|------------------|------------------|
A|------------------|------------------|------------------|------------------|------------------|
E|------------------|------------------|------------------|------------------|------------------|


E|------------------|------------------|------------------|------------------|------------------|
B|------------------|------------------|------------------|------------------|------------------|
G|------------------|------------------|------------------|------------------|------------------|
D|------------------|------------------|------------------|------------------|------------------|
A|------------------|------------------|------------------|------------------|------------------|
E|------------------|------------------|------------------|------------------|------------------|


E|------------------|------------------|------------------|------------------|------------------|
B|------------------|------------------|------------------|------------------|------------------|
G|------------------|------------------|------------------|------------------|------------------|
D|------------------|------------------|------------------|------------------|------------------|
A|------------------|------------------|------------------|------------------|------------------|
E|------------------|------------------|------------------|------------------|------------------|


E|------------------|------------------|----------------------0---|-0------------------|
B|------------------|------------------|----------------------0---|-0------------------|
G|------------------|------------------|--------------------------|--------------------|
D|------------------|------------------|--------------------------|--------------------|
A|------------------|------------------|-------------0---2--------|--------------------|
E|------------------|------------------|--------------------------|--------------------|


E|------3---2-----0-----------------|------0--------------------5---|-5-------------------------0---|
B|------3---3-----0----3---3--------|-3----0--------------------3---|-3----------10--10---------0---|
G|----------2----------2---2----2---|-2-----------------------------|------------9---9--------------|
D|------5---------2----2---2--------|-0----2--------------------4---|-4----------7---7----------2---|
A|----------------------------------|---------------------------0---|-0----------0---0--------------|
E|------------------------------3---|-------------------------------|-------------------------------|


E|-0------------------|-------------------------------------|------------------------------5---|
B|-0------------------|------------------------5---5--------|-19---17--17------------------3---|
G|--------------------|------4---4---7----7----2---2--------|-19---17--17----------------------|
D|-2------------------|------2---2---4----5-----------------|-19---17--17------------------4---|
A|--------------------|-------------------------------------|------------------------------0---|
E|--------------------|-------------------------------------|----------------------------------|


E|-5-----5--------------------------|------------------|------------------|------------------|
B|-3-----3-------10--10----10-------|------------------|------------------|------------------|
G|---------------9---9-----9--------|------------------|------------------|------------------|
D|-4-----4-------7---7-----7--------|------------------|------------------|------------------|
A|-0-----0-------0---0-----0--------|------------------|------------------|------------------|
E|----------------------------------|------------------|------------------|------------------|


E|------------------|------------------|------------------|------------------|------------------|
B|------------------|------------------|------------------|------------------|------------------|
G|------------------|------------------|------------------|------------------|------------------|
D|------------------|------------------|------------------|------------------|------------------|
A|------------------|------------------|------------------|------------------|------------------|
E|------------------|------------------|------------------|------------------|------------------|


E|------------------|------------------|------------------|------------------|------------------|
B|------------------|------------------|------------------|------------------|------------------|
G|------------------|------------------|------------------|------------------|------------------|
D|------------------|------------------|------------------|------------------|------------------|
A|------------------|------------------|------------------|------------------|------------------|
E|------------------|------------------|------------------|------------------|------------------|


E|------------------|------------------|------------------|-------------------------------------|
B|------------------|------------------|------------------|-------------------------------------|
G|------------------|------------------|------------------|-------------------------------------|
D|------------------|------------------|------------------|-------------------6----4---4--------|
A|------------------|------------------|------------------|------4---4---7----------------------|
E|------------------|------------------|------------------|-5------------------------------7----|


E|---------------|-------------------------|--------------------|-----------------------|
B|-10-----9------|-10----9-----------------|-9------9-----------|-----------------------|
G|---------------|-9-----9-----------9-----|--------------------|-6-----6----8---8------|
D|---------------|-9-----9-----11----------|--------------------|-4-----4----6---6------|
A|---------------|-------------9-----------|--------------------|-----------------------|
E|---------------|-------------------------|--------------------|-----------------------|


E|---------------|-------------------------|-----------------------|------------------|
B|-10-----9------|-10----9-----------------|-9-----9---------------|------------------|
G|---------------|-------------11----9-----|-----------------------|------------------|
D|---------------|-------------------------|-----------------------|------------------|
A|---------------|-------------------------|-----------------------|------------------|
E|---------------|-------------------------|-----------------------|------------------|


E|---------------|-------------------------|--------------------|-----------------------|
B|-10-----9------|-10----9-----------------|-9------9-----------|-----------------------|
G|---------------|-------------11----9-----|--------------------|-6-----6----8---8------|
D|---------------|-------------------------|--------------------|-4-----4----6---6------|
A|---------------|-------------------------|--------------------|-----------------------|
E|---------------|-------------------------|--------------------|-----------------------|


E|---------------|-------------------------|--------------------------|-----------------------------|
B|-10-----9------|-10----9-----------------|-9------9-----------------|-----------------------------|
G|-9------9------|-9-----9-----11----9-----|-8------8-----------------|-----------------------------|
D|--------9------|-------------------------|--------------------------|-----------------------------|
A|---------------|-------------------------|-------------9---11---11--|-11-----11-------------------|
E|---------------|-------------------------|--------------------------|-----------------------------|


E|------------------|------------------|------------------|------------------|------------------|
B|------------------|------------------|------------------|------------------|------------------|
G|------------------|------------------|------------------|------------------|------------------|
D|------------------|------------------|------------------|------------------|------------------|
A|------------------|------------------|------------------|------------------|------------------|
E|------------------|------------------|------------------|------------------|------------------|


E|------------------|------------------|------------------|------------------|------------------|
B|------------------|------------------|------------------|------------------|------------------|
G|------------------|------------------|------------------|------------------|------------------|
D|------------------|------------------|------------------|------------------|------------------|
A|------------------|------------------|------------------|------------------|------------------|
E|------------------|------------------|------------------|------------------|------------------|


E|------------------|------------------|------------------|------------------|------------------|
B|------------------|------------------|------------------|------------------|------------------|
G|------------------|------------------|------------------|------------------|------------------|
D|------------------|------------------|------------------|------------------|------------------|
A|------------------|------------------|------------------|------------------|------------------|
E|------------------|------------------|------------------|------------------|------------------|


E|------------------|------------------|------------------|------------------|------------------|
B|------------------|------------------|------------------|------------------|------------------|
G|------------------|------------------|------------------|------------------|------------------|
D|------------------|------------------|------------------|------------------|------------------|
A|------------------|------------------|------------------|------------------|------------------|
E|------------------|------------------|------------------|------------------|------------------|


E|------------------|------------------|------------------|--------------------------|
B|------------------|------------------|------------------|--------------------------|
G|------------------|------------------|------------------|--------------------------|
D|------------------|------------------|------------------|--------------------------|
A|------------------|------------------|------------------|-------------6---6---7----|
E|------------------|------------------|------------------|--------7-----------------|


E|-----------------------|-------------------------|--------------------|-----------------------|
B|-10---------9----------|-10----9-----------------|-9------9-----------|-----------------------|
G|-----------------------|-------------11----9-----|--------------------|-6-----6----8---8------|
D|-----------------------|-------------------------|--------------------|-4-----4----6---6------|
A|-----------------------|-------------------------|--------------------|-----------------------|
E|-----------------------|-------------------------|--------------------|-----------------------|


E|-----------------------|-------------------------|------------------|------------------|
B|-10---------9----------|-10----9-----------------|-9----------------|------------------|
G|-----------------------|-------------11----9-----|------------------|------------------|
D|-----------------------|-------------------------|------------------|------------------|
A|-----------------------|-------------------------|------------------|------------------|
E|-----------------------|-------------------------|------------------|------------------|


E|------------------|------------------|------------------|------------------|------------------|
B|------------------|------------------|------------------|------------------|------------------|
G|------------------|------------------|------------------|------------------|------------------|
D|------------------|------------------|------------------|------------------|------------------|
A|------------------|------------------|------------------|------------------|------------------|
E|------------------|------------------|------------------|------------------|------------------|


E|------------------|------------------|------------------|------------------|------------------|
B|------------------|------------------|------------------|------------------|------------------|
G|------------------|------------------|------------------|------------------|------------------|
D|------------------|------------------|------------------|------------------|------------------|
A|------------------|------------------|------------------|------------------|------------------|
E|------------------|------------------|------------------|------------------|------------------|


E|------------------|------------------|------------------|------------------|------------------|
B|------------------|------------------|------------------|------------------|------------------|
G|------------------|------------------|------------------|------------------|------------------|
D|------------------|------------------|------------------|------------------|------------------|
A|------------------|------------------|------------------|------------------|------------------|
E|------------------|------------------|------------------|------------------|------------------|


E|------------------|----------------------------------|----------------------------------------|
B|------------------|----------------------------------|----------------------------------------|
G|------------------|----------------------------------|----------------------------------------|
D|------------------|-------------------------1---2----|----------------4---2-------6---2-------|
A|------------------|--------------------2-------------|------------2-----------2-----------2---|
E|------------------|-0-----0----0---4-----------------|-0-----0--------------------------------|


E|----------------------------------|----------------------------------------|----------------------------------|
B|----------------------------------|----------------------------------------|----------------------------------|
G|----------------------------------|------------------------2---1-----------|----------------------------------|
D|-------------------------1---2----|----------------4---2-----------2-------|-------------------------1---2----|
A|--------------------2-------------|------------2-----------------------2---|--------------------2-------------|
E|-0-----0----0---4-----------------|-0-----0--------------------------------|-0-----0----0---4-----------------|


E|----------------------------------------|----------------------------------|----------------------------------------|
B|----------------------------------------|----------------------------------|----------------------------------------|
G|----------------------------------------|----------------------------------|------------------------2---1-----------|
D|----------------4---2-------6---2-------|-------------------------1---2----|----------------4---2-----------2-------|
A|------------2-----------2-----------2---|--------------------2-------------|------------2-----------------------2---|
E|-0-----0--------------------------------|-0-----0----0---4-----------------|-0-----0--------------------------------|


E|------------------|------------------|------------------|------------------|------------------|
B|------------------|------------------|------------------|------------------|------------------|
G|------------------|------------------|------------------|------------------|------------------|
D|------------------|------------------|------------------|------------------|------------------|
A|------------------|------------------|------------------|------------------|------------------|
E|------------------|------------------|------------------|------------------|------------------|


E|------------------|------------------|--------------|
B|------------------|------------------|--------------|
G|------------------|------------------|-16-----------|
D|------------------|------------------|-14-----------|
A|------------------|------------------|--------------|
E|------------------|------------------|--------------|



← Back to top