Broken Home

by White Lion

Guitar Pro Tab  |  v3.00  |  Posted on March 29, 2007, 10:57 a.m. ← Back

Guitar Pro Tab Summary

Album

Big Game

Song Author

Vito Bratta & Mike Tramp

Tabbed by

C´┐Żneyt Aliustao´┐Żlu (16/September/2002)

Instruments

1st → Guitar1
2nd → Solo
3rd → Acoustic

File Size

17 KB

Views

3,473






Related guitar pro tabs

Tablature Sheet

Title: Broken Home
Artist: White Lion
Album: Big Game
Author: Vito Bratta & Mike Tramp






Track 1: Guitar
Back to top
E|-3-----3---------------------|---------0--2----2----2----3--|-3-----3---------------------|
B|-3-----3---------------3--3--|---------------------------3--|-3-----3---------------3--3--|
G|-0-----0------------0--0--0--|------2--------------------0--|-0-----0------------0--0--0--|
D|-0-----0------------2--------|-0-------------------------0--|-0-----0------------2--------|
A|-2-----2---2--3--3-----------|---------------------------2--|-2-----2---2--3--3-----------|
E|-----------------------------|------------------------------|-----------------------------|


E|---------0--2----2----2----3--|-3-----3---------------------|---------0--2----2---------------------|
B|---------------------------3--|-3-----3------------------3--|---------------------3-----------------|
G|------2--------------------0--|-0-----0---------------0-----|------2-----------------------2-----0--|
D|-0-------------------------0--|-0-----0------------2--------|-0-------------------------------------|
A|---------------------------2--|-2-----2---2--3--3-----------|------------------------3--3-----2-----|
E|------------------------------|-----------------------------|---------------------------------------|


E|---------------------------------0-----|---------0--2----2----2----3--|-3-----3---------------------|
B|---------0--1----1---------------------|---------------------------3--|-3-----3------------------3--|
G|---------------------------------------|------2--------------------0--|-0-----0---------------0-----|
D|------2-----------------------2--------|-0-------------------------0--|-0-----0------------2--------|
A|-0-------------------2--3--3--------3--|---------------------------2--|-2-----2---2--3--3-----------|
E|---------------------------------------|------------------------------|-----------------------------|


E|---------0--2----2---------------------|---------------------------------0-----|
B|---------------------3--------3-----3--|---------0--1----1------------------1--|
G|------2--------------------------------|------------------------------0--------|
D|-0-------------------------------------|------2--------------------------------|
A|------------------------3--3-----2-----|-0-------------------2--3--3-----------|
E|---------------------------------------|---------------------------------------|


E|---------0--2----2----2-------|-------0--------0--------0--------0--------------|
B|------------------------------|----0--------0--------0--------0--------0-----0--|
G|------2-----------------------|-1--------2--2-----0-----0-----------------------|
D|-0----------------------------|----------------------------4--------2-----0-----|
A|------------------------------|-------------------------------------------------|
E|---------------------------0--|-------------------------------------------------|


E|------------------3--3----3--0-----0--|-------0--------0--------------------------------|
B|---------3--------1--1----1-----3-----|----3--------3-----------3--------3-----3--------|
G|------------0-------------------------|-2--------0--0--------0--------0-----------------|
D|------2--------2----------------------|-------------------4-----4--2--------0-----3--2--|
A|-3------------------------------------|-------------------------------------------------|
E|--------------------------------------|-------------------------------------------------|


E|----------------2--0-----------|-------0--------0--------0--------0--------------|
B|-0-----0--------------3--------|----0--------0--------0--------0--------0--------|
G|-0-----0-----0-----------0-----|-4--------2--2-----0-----0-----------------------|
D|-0-----0--4--------------------|----------------------------4--------2-----------|
A|-2-----2-----------------------|-------------------------------------------3--2--|
E|-3-----3--------------------0--|-------------------------------------------------|


E|-----------7--------8--8-----------7-----5-----|-------0--------0--------------------------------|
B|--------------5-----------5--------------------|----3--------3-----------3--------3-----3-----0--|
G|-----7--5--------------------5--------5-----0--|-2--------0--0--------0--------0-----------------|
D|-----------------7--------------7--------------|-------------------4--------3--------0-----------|
A|-0---------------------------------------------|-------------------------------------------3-----|
E|-----------------------------------------------|-------------------------------------------------|


E|-----------------------------------------------|---------------------------------0------|
B|-----------------------------------------------|-0-------------0--0--0--0--0--0-----0---|
G|-------2--------2--------2--------2-----2------|-0----0--0--2-----7--5--5--5--5---------|
D|----1--------1--------1--------1---------------|-2----------------9--7--7--7--7---------|
A|-2--------0--0-----3--------2------------------|-2----------------0-----0--0--0---------|
E|-------------------------------------3-----2---|-0--------------------------------------|


E|-------------------------------------0--|---------------------------------0------|
B|-3--------------1--0--------------3-----|-0-------------0--0--0--0--0--0-----0---|
G|-2-------0--2---------0--------2--------|-0----0--0--2-----7--5--5--5--5---------|
D|-0----4------------------0--0-----------|-2----------------9--7--7--7--7---------|
A|----------------------------------------|-2----------------0-----0--0--0---------|
E|----------------------------------------|-0--------------------------------------|


E|-------------------------------|-3-----3---------------0-----|---------0--2----2------------|
B|--------------------------7----|-3-----3---------------------|------------------------------|
G|----0--2--0--0------------7----|-0-----0------------0-----3--|------2-----------------------|
D|-4---------------4---4----7----|-0-----0---------------------|-0----------------------------|
A|-------------------------------|-2-----2---2--3--3-----------|----------------------3---2---|
E|-------------------------------|-3-----3---------------------|------------------------------|


E|---------------------------------0---|---------0--2----2-----|-3-----3---------------0---|
B|---------0---1---1-------------------|-----------------------|-3-----3-------------------|
G|-------------------------------------|------2----------------|-0-----0-------------------|
D|------2-----------------------2------|-0---------------------|-0-----0------------2------|
A|-0-------------------2--3--3---------|-----------------------|-2-----2---2--3--3---------|
E|-------------------------------------|-----------------------|-3-----3-------------------|


E|---------0--2----2----------------|---------------------------------0-----|---------0--2----2----2-------|
B|-------------------------3-----3--|---------0--1----1------------------1--|------------------------------|
G|------2---------------------------|---------------------------------------|------2-----------------------|
D|-0--------------------------------|------2-----------------------2--------|-0----------------------------|
A|----------------------3-----2-----|-0-------------------2--3--3-----------|------------------------------|
E|----------------------------------|---------------------------------------|---------------------------0--|


E|-------0--------0--------0--------0--------------|--------------------3--3----3--0-----0--|
B|----0--------0--------0--------0--------0-----0--|-----------3----------------------3-----|
G|-4--------2--2-----0-----0-----------------------|--------0-----0-------------------------|
D|----------------------------4--------2-----0-----|-----2-----------2----------------------|
A|-------------------------------------------------|-3--------------------------------------|
E|-------------------------------------------------|----------------------------------------|


E|-------0--------0------------------------------|-3-----3--------2--0-----------|
B|----3--------3-----------3--------3-----3------|-3-----3--------------3--------|
G|-2--------0--0--------0--------0---------------|-0-----0-----0-----------0-----|
D|-------------------4--------2--------0-----2---|-0-----0--4--------------------|
A|-----------------------------------------------|-2-----2-----------------------|
E|-----------------------------------------------|-3-----3--------------------0--|


E|-------0--------0--------0--------0--------------|-----------7--------8--8-----------7-----5--0--|
B|----0--------0--------0--------0--------0--------|--------------5-----------5-----------5-----0--|
G|-4--------2--2-----0-----0-----------------0-----|--------5--------------------5-----------------|
D|----------------------------4--------2--------2--|-----7-----------7--------------7--------------|
A|-------------------------------------------------|-0---------------------------------------------|
E|-------------------------------------------------|-----------------------------------------------|


E|-------0--------0------------------------------|-----------------------------------------------|
B|----3--------3-----------3--------3-----3------|-----------------------------------------------|
G|-2--------0--0--------0--------0---------------|-------2--------2--------2--------2-----2------|
D|-------------------4-----4--2--------0---------|----1--------1--------1--------1---------------|
A|-------------------------------------------3---|-2--------0--0-----3--------2--------3-----2---|
E|-----------------------------------------------|-----------------------------------------------|


E|---------------------------------0------|-----------------------------------0--|
B|-0----0--------0--0--0--0--0--0-----0---|-3----3---------1--0------------3-----|
G|-0----0--0--2-----7--5--5--5--5---------|-2----2--0--2---------0---------------|
D|-2----2-----------9--7--7--7--7---------|-0----0------------------0---0--------|
A|-2----2-----------0-----0--0------------|--------------------------------------|
E|-0----0---------------------------------|--------------------------------------|


E|---------------------------------0------|-----------------------------------0--|
B|-0----0--------0--0--0--0--0--0-----0---|-3--------------1--0------------3-----|
G|-0----0--0--2-----7--5--5--5--5---------|-2-------0--2---------0------2--------|
D|-2----2-----------9--7--7--7--7---------|-0----4------------------0------------|
A|-2----2-----------0-----0--0--0---------|--------------------------------------|
E|-0----0---------------------------------|--------------------------------------|


E|---------------------------------0------|-----------------------------------0--|
B|-0----0--------0--0--0--0--0--0-----0---|-3----3---------1--0------------3-----|
G|-0----0--0--2-----7--5--5--5--5---------|-2----2--0--2---------0---------------|
D|-2----2-----------9--7--7--7--7---------|-0----0------------------0---0--------|
A|-2----2-----------0-----0--0--0---------|--------------------------------------|
E|-0----0---------------------------------|--------------------------------------|


E|---------------------------------0------|-------------------------------2----|---------0-----------------0------|
B|-0----0--------0--0-----0--0--0-----0---|----------------------------0-------|-1----1--1--1----------3------3---|
G|-0----0--0--2-----7--5--5--5--5---------|----0--2--0----2---------2----------|-0----0--------0------------------|
D|-2----2-----------9--7--7--7--7---------|-4--------------------1-------------|-2----2---------------------------|
A|-2----2-----------0-----0--0--0---------|-------------------2----------------|-3----3-----------2---------------|
E|-0----0---------------------------------|------------------------------------|----------------------------------|


E|-----------------------------------|---------------------------------------|---------------0-----------3----|
B|---------1--------------1---0------|---------3----------------1---0--------|---------1--3-----3----0--------|
G|-------------2-----------------0---|------2------2---------2---------2-----|------0-------------------------|
D|------2---------2------------------|----------------0----------------------|--------------------------------|
A|-0---------------------------------|------------------------------------2--|-3------------------------------|
E|-------------------3---------------|-2-----------------1-------------------|--------------------------------|


E|-----------------------------------------|-------------------------------------------|
B|-4---4--4--4--4--4---2---2--2--2--2--2---|-4---4--4--4--4--4--4--2---2--2--2--2--2---|
G|-4---4--4--4--4--4---3---3--3--3--3--3---|-4---4--4--4--4--4--4--3---3--3--3--3--3---|
D|-4---4--4--4--4--4---4---4--4--4--4--4---|-6---6--6--6--6--6--6--4---4--4--4--4--4---|
A|-2---2--2--2--2--2---4---4--4--4--4--4---|-6---6--6--6--6--6--6--4---4--4--4--4--4---|
E|---------------------2---2--2--2--2--2---|-4---4--4--4--4--4--4--2---2--2--2--2--2---|


E|-0---0--0--0--0--0-------------------------|-------------------------------------------|
B|-0---0--0--0--0--0---4---4--4--4--4--4--4--|-2---2--2--2--2--2--2--2---2--2--2--2--2---|
G|-1---1--1--1--1--1---4---4--4--4--4--4--4--|-3---3--3--3--3--3--3--3---3--3--3--3--3---|
D|-2---2--2--2--2--2---4---4--4--4--4--4--4--|-4---4--4--4--4--4--4--4---4--4--4--4--4---|
A|-2---2--2--2--2--2---2---2--2--2--2--2--2--|-4---4--4--4--4--4--4--4---4--4--4--4--4---|
E|-0---0--0--0--0--0-------------------------|-2---2--2--2--2--2--2--2---2--2--2--2--2---|


E|---------------------2---2--2--2--2--2---|-0--0--0---0--0--0-----------------------|
B|-5---5--5--5--5--5---3---3--3--3--3--3---|-2--2--2---2--2--2---5---5--5--5--5--5---|
G|-2---2--2--2--2--2---4---4--4--4--4--4---|-2--2--2---2--2--2---4---4--4--4--4--4---|
D|-2---2--2--2--2--2---4---4--4--4--4--4---|-2--2--2---2--2--2---2---2--2--2--2--2---|
A|-4---4--4--4--4--4---2---2--2--2--2--2---|-0--0--0---0--0--0-----------------------|
E|-----------------------------------------|---------------------4---4--4--4--4--4---|


E|-----------------------------2-------|--------------2---------------------|----------------0---------------------|
B|-5---5--5--5--5--5---------------3---|--------0----------0----0--------0--|-0--0--0--0--0-----0---3----3---------|
G|-4---4--4--4--4--4--------2----------|------2----2-------0----0--0--2-----|-7--5--5--5--5---------2----2--0--2---|
D|-2---2--2--2--2--2-------------------|----1--------------2----2-----------|-9--7--7--7--7---------0----0---------|
A|---------------------0---------------|-2-----------------2----2-----------|-0-----0--0--0------------------------|
E|-3---3--3--3--3--3-------------------|-------------------0----0-----------|--------------------------------------|


E|--------------------0-------------------|----------------0---------------------|
B|-1--0------------3-----0-------------0--|-0--0--0--0--0-----0---3--------------|
G|-------0------2--------0----0--0--2-----|-7--5--5--5--5---------2-------0--2---|
D|----------0------------2----------------|-9--7--7--7--7---------0----4---------|
A|-----------------------2----------------|-0-----0--0--0------------------------|
E|-----------------------0----------------|--------------------------------------|


E|--------------------0-------------------|----------------0---------------------|
B|-1--0------------3-----0-------------0--|-0--0--0--0--0-----0---3--------------|
G|-------0------2--------0----0--0--2-----|-7--5--5--5--5---------2-------0--2---|
D|----------0---0--------2----------------|-9--7--7--7--7---------0----4---------|
A|-----------------------2----------------|-0-----0--0--0------------------------|
E|-----------------------0----------------|--------------------------------------|


E|--------------------0-------------------|--------------0---------------------|--------------------0-------------------|
B|-1--0------------3-----0-------------0--|-0--0--0--0------0---3--------------|-1--0------------3-----0-------------0--|
G|-------0---------------0----0--0--2-----|-7--5--5--5----------2-------0--2---|-------0------2--------0----0--0--2-----|
D|----------0---0--------2----------------|-9--7--7--7----------0----4---------|----------0---0--------2----------------|
A|-----------------------2----------------|-0-----0--0-------------------------|-----------------------2----------------|
E|-----------------------0----------------|------------------------------------|-----------------------0----------------|


E|--------------0------2--------------|--------------------0----------------------|
B|-0--0--0--0------0---3--------------|-1--0------------3----------------------0--|
G|-7--5--5--5----------2-------0--2---|-------0------2----------------0--0--2-----|
D|-9--7--7--7----------0----4---------|----------0---0------------2---------------|
A|-0-----0--0-------------------------|-------------------------------------------|
E|------------------------------------|-----------------------0-------------------|


E|-------------------------0-----|-0-----------|
B|-0--------0-----0--------0-----|-0-----------|
G|-7--5-----------------2--1-----|-1-----------|
D|-9--7--7-----5-----4-----2-----|-2-----------|
A|-0-----------------------2-----|-2-----------|
E|-------------------------0-----|-0-----------|









Track 2: Acoustic
Back to top
E|--------|--------|--------|--------|--------|--------|--------|--------|--------|
B|--------|--------|--------|--------|--------|--------|--------|--------|--------|
G|--------|--------|--------|--------|--------|--------|--------|--------|--------|
D|--------|--------|--------|--------|--------|--------|--------|--------|--------|
A|--------|--------|--------|--------|--------|--------|--------|--------|--------|
E|--------|--------|--------|--------|--------|--------|--------|--------|--------|


E|--------|--------|--------|--------|--------|--------|--------|--------|--------|
B|--------|--------|--------|--------|--------|--------|--------|--------|--------|
G|--------|--------|--------|--------|--------|--------|--------|--------|--------|
D|--------|--------|--------|--------|--------|--------|--------|--------|--------|
A|--------|--------|--------|--------|--------|--------|--------|--------|--------|
E|--------|--------|--------|--------|--------|--------|--------|--------|--------|


E|--------|--------|-0----0--0--0--0--7---7--7--7--7--7--7--|-------------------3---3--3--------------|
B|--------|--------|-0----0--0--0--0--5---5--5--5--5--5--5--|-7----7--7--7--7---3---3--3--3--3--3--3--|
G|--------|--------|-0----0--0--0--0--5---5--5--5--5--5--5--|-7----7--7--7--7---0---0--0--2--2--2--2--|
D|--------|--------|-2----2--2--2--2--7---7--7--7--7--7--7--|-7----7--7--7--7---0---0--0--0--0--0--0--|
A|--------|--------|-2----2--2--2--2--0---0--0--------------|-5----5--5--5--5---2---2--2--0--0--0--0--|
E|--------|--------|-0----0--0--0--0------------5--5--5--5--|-------------------3---3--3--2--2--2--2--|


E|-0---0---0--0--0--0--7---7--7---7--7---|-------------------------|--------|--------|
B|-0---0---0--0--0--0--5---5--5---5--5---|-7---7--7---7--7---7-----|--------|--------|
G|-0---0---0--0--0--0--5---5--5---5--5---|-7---7--7---7--7---7-----|--------|--------|
D|-2---2---2--2--2--2--7---7--7---7--7---|-7---7--7---7--7---7-----|--------|--------|
A|-2---2---2--2--2--2--0---0--0----------|-5---5--5---5--5---5-----|--------|--------|
E|-0---0---0--0--0--0-------------5--5---|-------------------------|--------|--------|


E|--------|--------|--------|--------|--------|--------|--------|--------|--------|
B|--------|--------|--------|--------|--------|--------|--------|--------|--------|
G|--------|--------|--------|--------|--------|--------|--------|--------|--------|
D|--------|--------|--------|--------|--------|--------|--------|--------|--------|
A|--------|--------|--------|--------|--------|--------|--------|--------|--------|
E|--------|--------|--------|--------|--------|--------|--------|--------|--------|


E|--------|--------|--------|--------|--------|-0---0---0--0--0--0--7---7--7---7--7--7--|
B|--------|--------|--------|--------|--------|-0---0---0--0--0--0--5---5--5---5--5--5--|
G|--------|--------|--------|--------|--------|-0---0---0--0--0--0--5---5--5---5--5--5--|
D|--------|--------|--------|--------|--------|-2---2---2--2--2--2--7---7--7---7--7--7--|
A|--------|--------|--------|--------|--------|-2---2---2--2--2--2--0---0--0------------|
E|--------|--------|--------|--------|--------|-0---0---0--0--0--0-------------5--5--5--|


E|-------------------3---3--3--------------|-0---0---0--0--0--0--7---7--7---7--7--7--|
B|-7---7---7--7--7---3---3--3--3--3--3--3--|-0---0---0--0--0--0--5---5--5---5--5--5--|
G|-7---7---7--7--7---0---0--0--2--2--2--2--|-0---0---0--0--0--0--5---5--5---5--5--5--|
D|-7---7---7--7--7---0---0--0--0--0--0--0--|-2---2---2--2--2--2--7---7--7---7--7--7--|
A|-5---5---5--5--5---2---2--2--0--0--0--0--|-2---2---2--2--2--2--0---0--0------------|
E|-------------------3---3--3--2--2--2--2--|-0---0---0--0--0--0-------------5--5--5--|


E|-------------------3---3--3--------------|-0---0---0--0--0--0--7---7--7---7--7--7--|
B|-7---7---7--7--7---3---3--3--3--3--3--3--|-0---0---0--0--0--0--5---5--5---5--5--5--|
G|-7---7---7--7--7---0---0--0--2--2--2--2--|-0---0---0--0--0--0--5---5--5---5--5--5--|
D|-7---7---7--7--7---0---0--0--0--0--0--0--|-2---2---2--2--2--2--7---7--7---7--7--7--|
A|-5---5---5--5--5---2---2--2--0--0--0--0--|-2---2---2--2--2--2--0---0--0------------|
E|-------------------3---3--3--2--2--2--2--|-0---0---0--0--0--0-------------5--5--5--|


E|-------------------3---3--3--------------|-0---0---0--0--0--0--7---7--7---7--7--7--|
B|-7---7---7--7--7---3---3--3--3--3--3--3--|-0---0---0--0--0--0--5---5--5---5--5--5--|
G|-7---7---7--7--7---0---0--0--2--2--2--2--|-0---0---0--0--0--0--5---5--5---5--5--5--|
D|-7---7---7--7--7---0---0--0--0--0--0--0--|-2---2---2--2--2--2--7---7--7---7--7--7--|
A|-5---5---5--5--5---2---2--2--0--0--0--0--|-2---2---2--2--2--2--0---0--0------------|
E|-------------------3---3--3--2--2--2--2--|-0---0---0--0--0--0-------------5--5--5--|


E|---------------------------2--2--2----|--------|--------|--------|--------|--------|
B|-7---7--7--7--7--7---7--7--0--0--0----|--------|--------|--------|--------|--------|
G|-7---7--7--7--7--7---4--4--2--2--2----|--------|--------|--------|--------|--------|
D|-7---7--7--7--7--7---7--7--1--1--1----|--------|--------|--------|--------|--------|
A|-5---5--5--5--5--5---6--6--2--2--2----|--------|--------|--------|--------|--------|
E|---------------------7--7-------------|--------|--------|--------|--------|--------|


E|--------|--------|--------|--------|--------|--------|-------0---0---0--0--0--0--|
B|--------|--------|--------|--------|--------|--------|-------0---0---0--0--0--0--|
G|--------|--------|--------|--------|--------|--------|-------0---0---0--0--0--0--|
D|--------|--------|--------|--------|--------|--------|-------2---2---2--2--2--2--|
A|--------|--------|--------|--------|--------|--------|-------2---2---2--2--2--2--|
E|--------|--------|--------|--------|--------|--------|-------0---0---0--0--0--0--|


E|-7---7--7--7--7--7--7----------------------|-3---3--3--------------0---0---0--0--0--0--|
B|-5---5--5--5--5--5--5--7---7--7--7--7--7---|-3---3--3--3--3--3--3--0---0---0--0--0--0--|
G|-5---5--5--5--5--5--5--7---7--7--7--7--7---|-0---0--0--2--2--2--2--0---0---0--0--0--0--|
D|-7---7--7--7--7--7--7--7---7--7--7--7--7---|-0---0--0--0--0--0--0--2---2---2--2--2--2--|
A|-0---0--0--------------5---5--5--5--5--5---|-2---2--2--0--0--0--0--2---2---2--2--2--2--|
E|-----------5--5--5--5----------------------|-3---3--3--2--2--2--2--0---0---0--0--0--0--|


E|-7---7--7--7--7--7--7----------------------|-3---3--3--------------0---0---0--0--0--0--|
B|-5---5--5--5--5--5--5--7---7--7--7--7--7---|-3---3--3--3--3--3--3--0---0---0--0--0--0--|
G|-5---5--5--5--5--5--5--7---7--7--7--7--7---|-0---0--0--2--2--2--2--0---0---0--0--0--0--|
D|-7---7--7--7--7--7--7--7---7--7--7--7--7---|-0---0--0--0--0--0--0--2---2---2--2--2--2--|
A|-0---0--0--------------5---5--5--5--5--5---|-2---2--2--0--0--0--0--2---2---2--2--2--2--|
E|-----------5--5--5--5----------------------|-3---3--3--2--2--2--2--0---0---0--0--0--0--|


E|-7---7--7--7--7--7--7------------------3---|-3---3--3--------------0---0---0--0--0--0--|
B|-5---5--5--5--5--5--5--7---7--7--7--7--3---|-3---3--3--3--3--3--3--0---0---0--0--0--0--|
G|-5---5--5--5--5--5--5--7---7--7--7--7--0---|-0---0--0--2--2--2--2--0---0---0--0--0--0--|
D|-7---7--7--7--7--7--7--7---7--7--7--7--0---|-0---0--0--0--0--0--0--2---2---2--2--2--2--|
A|-0---0--0--------------5---5--5--5--5--2---|-2---2--2--0--0--0--0--2---2---2--2--2--2--|
E|-----------5--5--5--5------------------3---|-3---3--3--2--2--2--2--0---0---0--0--0--0--|


E|-7---7--7--7--7--7--7----------------------|-3---3--3--------------0---0---0--0--0--0--|
B|-5---5--5--5--5--5--5--7---7--7--7--7--7---|-3---3--3--3--3--3--3--0---0---0--0--0--0--|
G|-5---5--5--5--5--5--5--7---7--7--7--7--7---|-0---0--0--2--2--2--2--0---0---0--0--0--0--|
D|-7---7--7--7--7--7--7--7---7--7--7--7--7---|-0---0--0--0--0--0--0--2---2---2--2--2--2--|
A|-0---0--0--------------5---5--5--5--5--5---|-2---2--2--0--0--0--0--2---2---2--2--2--2--|
E|-----------5--5--5--5----------------------|-3---3--3--2--2--2--2--0---0---0--0--0--0--|


E|-7---7--7--7--7--7--7----------------------|-3---3--3--------------------|--------|
B|-5---5--5--5--5--5--5--7---7--7--7--7--7---|-3---3--3--3--3--3--3--------|--------|
G|-5---5--5--5--5--5--5--7---7--7--7--7--7---|-0---0--0--2--2--2--2--------|--------|
D|-7---7--7--7--7--7--7--7---7--7--7--7--7---|-0---0--0--0--0--0--0--------|--------|
A|-0---0--0--------------5---5--5--5--5--5---|-2---2--2--0--0--0--0--------|--------|
E|-----------5--5--5--5----------------------|-3---3--3--2--2--2--2--------|--------|


E|--------|
B|--------|
G|--------|
D|--------|
A|--------|
E|--------|









Track 3: Solo
Back to top
E|--------|--------|--------|--------|--------|--------|--------|--------|--------|
B|--------|--------|--------|--------|--------|--------|--------|--------|--------|
G|--------|--------|--------|--------|--------|--------|--------|--------|--------|
D|--------|--------|--------|--------|--------|--------|--------|--------|--------|
A|--------|--------|--------|--------|--------|--------|--------|--------|--------|
E|--------|--------|--------|--------|--------|--------|--------|--------|--------|


E|--------|--------|--------|--------|--------|--------|--------|--------|--------|
B|--------|--------|--------|--------|--------|--------|--------|--------|--------|
G|--------|--------|--------|--------|--------|--------|--------|--------|--------|
D|--------|--------|--------|--------|--------|--------|--------|--------|--------|
A|--------|--------|--------|--------|--------|--------|--------|--------|--------|
E|--------|--------|--------|--------|--------|--------|--------|--------|--------|


E|--------|--------|--------|--------|--------|--------|--------|--------|--------|
B|--------|--------|--------|--------|--------|--------|--------|--------|--------|
G|--------|--------|--------|--------|--------|--------|--------|--------|--------|
D|--------|--------|--------|--------|--------|--------|--------|--------|--------|
A|--------|--------|--------|--------|--------|--------|--------|--------|--------|
E|--------|--------|--------|--------|--------|--------|--------|--------|--------|


E|--------|--------|--------|--------|--------|--------|--------|--------|--------|
B|--------|--------|--------|--------|--------|--------|--------|--------|--------|
G|--------|--------|--------|--------|--------|--------|--------|--------|--------|
D|--------|--------|--------|--------|--------|--------|--------|--------|--------|
A|--------|--------|--------|--------|--------|--------|--------|--------|--------|
E|--------|--------|--------|--------|--------|--------|--------|--------|--------|


E|--------|--------|--------|--------|--------|--------|--------|--------|--------|
B|--------|--------|--------|--------|--------|--------|--------|--------|--------|
G|--------|--------|--------|--------|--------|--------|--------|--------|--------|
D|--------|--------|--------|--------|--------|--------|--------|--------|--------|
A|--------|--------|--------|--------|--------|--------|--------|--------|--------|
E|--------|--------|--------|--------|--------|--------|--------|--------|--------|


E|--------|--------|--------|--------|--------|--------|--------------------|----------------------------------|
B|--------|--------|--------|--------|--------|--------|--------------------|------------4--5--7---7---7---4---|
G|--------|--------|--------|--------|--------|--------|---------------4----|-4----4--4------------------------|
D|--------|--------|--------|--------|--------|--------|--------------------|----------------------------------|
A|--------|--------|--------|--------|--------|--------|--------------------|----------------------------------|
E|--------|--------|--------|--------|--------|--------|--------------------|----------------------------------|


E|-------6---6---7--6--6---6-4-6-4-|----------------------------4----|-6---------------------------11-----------------14-|
B|-4-------------------------------|-5----5--7--7-7-4-7-4----4-------|------4--------------------------15----------15----|
G|---------------------------------|---------------------------------|---------2-4-2-4-2-4-2-4-4----------14-14-14-------|
D|---------------------------------|---------------------------------|---------------------------------------------------|
A|---------------------------------|---------------------------------|---------------------------------------------------|
E|---------------------------------|---------------------------------|---------------------------------------------------|


E|-12-----17-17---------------------|-----------17-17---24-24---24--24------|-24---24--24-----24---24--24-----|
B|-----14---------15-1915-----------|-11-1714---------------------------24--|-------------22--------------22--|
G|-----------------------16-11-11---|--------14-----------------------------|---------------------------------|
D|----------------------------------|---------------------------------------|---------------------------------|
A|----------------------------------|---------------------------------------|---------------------------------|
E|----------------------------------|---------------------------------------|---------------------------------|


E|-------------|--------|--------|--------|--------|--------|--------|--------|--------|
B|-19----------|--------|--------|--------|--------|--------|--------|--------|--------|
G|-------------|--------|--------|--------|--------|--------|--------|--------|--------|
D|-------------|--------|--------|--------|--------|--------|--------|--------|--------|
A|-------------|--------|--------|--------|--------|--------|--------|--------|--------|
E|-------------|--------|--------|--------|--------|--------|--------|--------|--------|


E|--------|--------|--------|--------|
B|--------|--------|--------|--------|
G|--------|--------|--------|--------|
D|--------|--------|--------|--------|
A|--------|--------|--------|--------|
E|--------|--------|--------|--------|



← Back to top