Cry For Freedom

by White Lion

Guitar Pro Tab  |  v3.00  |  Posted on March 29, 2007, 10:59 a.m. ← Back

Guitar Pro Tab Summary

Album

Big Game

Song Author

Vito Bratta & Mike Tramp

Tabbed by

C´┐Żneyt Aliustao´┐Żlu (30/September/2002)

Instruments

1st → Rhytm 1
2nd → Solo

File Size

12 KB

Views

4,997

Notice

LYRICS ----------------------------------------------------------------------- THE FIRE IS BURNING WE LAY OUR WEAPONS DOWN TO REST THIS WAR AIN'T OVER 'TILL ALL THE PEOPLE WILL BE FREE STRAIGHT FROM OUR HEARTS WE CRY THIS WAR HAS STOLEN TOO MANY LIVES CAUSE FOR THE SAKE OF FREEDOM WE WILL DIE OUR SONGS WILL CARRY ON OH LORD WE TRY, WE TRY TO KEEP OUR DREAM ALIVE AND VOICES WILL BE HEARD ALL AROUND THE WORLD SO STAND UP AND CRY FOR FREEDOM AND KEEP THE DREAM ALIVE YEAH, STAND UP AND CRY FOR FREEDOM AND KEEP THE DREAM ALIVE OUR BROTHERS IN PRISON BUT NO CRIME WAS EVER DONE I CALL IT RACISM ASHAMED I FACE MY FELLOW MAN THE CHILDREN ARE TAKEN AWAY AND FAMILIES DESTROYED AND MILLIONS HAVE DIED FROM STARVATION WE CAN'T GO ON THIS WAY OH LORD WE PRAY , WE PRAY THAT MAYBE SOON SOMEDAY THE WORLD WILL SMILE AGAIN AND THEY SHALL BE RELASED SO STAND UP AND CRY FOR FREEDOM AND KEEP THE DREAM ALIVE YEAH, STAND UP AND CRY FOR FREEDOM AND KEEP THE DREAM ALIVE SO STAND UP AND CRY FOR FREEDOM AND KEEP THE DREAM ALIVE YEAH, STAND UP AND CRY FOR FREEDOM AND KEEP THE DREAM ALIVE BRIDGE SO STAND UP AND CRY FOR FREEDOM AND KEEP THE DREAM ALIVE YEAH, STAND UP AND CRY FOR FREEDOM AND KEEP OUR DREAM ALIVE SO STAND UP AND CRY FOR FREEDOM AND KEEP THE DREAM ALIVE YEAH, STAND UP AND CRY FOR FREEDOM AND LET 'EM KNOW THAT WE ARE HERE OH NO, WE CAN'T GO ON THIS WAY AND WE WILL NEVER GIVE UP FIGHTING FOR FREEDOM YEAH, AND WE WILL KEEP THIS DREAM ALIVE






Related guitar pro tabs

Tablature Sheet

Title: Cry For Freedom
Artist: White Lion
Album: Big Game
Author: Vito Bratta & Mike Tramp






Track 1: Rhytm
Back to top
E|--------|--------|--------|--------|--------|-1------|-1------|-1------|--------|
B|--------|--------|--------|--------|-1------|-1------|-4------|-3------|-1------|
G|--------|--------|--------|--------|-0------|-1------|-3------|-3------|-0------|
D|--------|--------|--------|--------|-1------|-3------|--------|--------|-1------|
A|--------|--------|--------|--------|-3------|-3------|-1------|-1------|-3------|
E|--------|--------|--------|--------|--------|--------|--------|--------|--------|


E|--------|--------|--------|----------------|----------------|------------------|
B|-1------|-1------|-1------|----------------|--------4-------|-4------4------3--|
G|-0------|-0------|-0------|-0------0----1--|-1------3-------|-3------3------3--|
D|-1------|-1------|-1------|-1------1----3--|-3--------------|------------------|
A|-3------|-3------|-3------|-3------3----3--|-3--------------|-1------1------1--|
E|--------|--------|--------|----------------|----------------|------------------|


E|--------|----------------|----------------|------------------|-----------------------|
B|-3------|----------------|--------4-------|-4------4------3--|-3-----3---4---3-------|
G|-3------|-0------0----1--|-1------3-------|-3------3------3--|-3-----3---3---3-------|
D|--------|-1------1----1--|-1--------------|------------------|-----------------------|
A|-1------|-3------3----3--|-3--------------|-1------1------1--|-1-----1---------------|
E|--------|----------------|----------------|------------------|-----------------------|


E|----------------|--------|------------------|--------1-------|----------------|----------------|
B|----------------|--------|-4------4------3--|-3------3-------|----------------|--------4-------|
G|-0------0----1--|-1------|-3------3------3--|-3--------------|-0------0----1--|-1------3-------|
D|-1------1----3--|-3------|------------------|----------------|-1------1----3--|-3--------------|
A|-3------3----3--|-3------|-1------1------1--|-1--------------|-3------3----3--|-3--------------|
E|----------------|--------|------------------|----------------|----------------|----------------|


E|------------------|----------------|----------------|----------------|----------------|
B|-4------4------3--|-3------4-------|-4------4-------|----------------|----------------|
G|-3------3------3--|-3------3-------|-3------3----7--|-7------7-------|-5------5----7--|
D|------------------|----------------|-5------5----8--|-8------8-------|-6------6----8--|
A|-1------1------1--|-1--------------|-6------6----8--|-8------8-------|-6------6----8--|
E|------------------|----------------|-------------6--|-6------6-------|-4------4----6--|


E|----------------|------------------|----------------|----------------|-3------|-8------8------8--|
B|----------------|-8------8------6--|-6------6-------|--------4-------|-3------|-8------8------8--|
G|-7------7-------|-8------8------7--|-7------7-------|-5------5-------|-4------|-8------8------8--|
D|-8------8-------|-8------8------8--|-8------8-------|-6------6-------|-5------|-10-----10-----10-|
A|-8------8-------|-6------6------8--|-8------8-------|-6------6-------|-3------|-10---------------|
E|-6------6-------|------------------|----------------|-4--------------|-3------|-8----------------|


E|-8------8-------|-6------|-3--3--3--3--3-------3--3--3--3--3-------|-8------8------8--|
B|-9------9-------|-6------|-4--4--4--4--4-------3--3--3--3--3-------|-8------8------8--|
G|-10-----10------|-7------|-3--3--3--3--3-------3--3--3--3--3-------|-8------8------8--|
D|-10-----10------|-8------|-5--5--5--5--5-------5--5--5--5--5-------|-10-----10-----10-|
A|-8--------------|-8------|-6--6--6--6--6-------5--5--5--5--5-------|-10---------------|
E|----------------|--------|-----------------------------------------|-8----------------|


E|-8------8-------|-6------|-3-----3-----|-8------|-8------|-8------|--------|--------------------|
B|-9------9-------|-6------|-4-----3-----|-8------|-8------|-8------|--------|--------------------|
G|-10-----10------|-7------|-3-----3-----|-10-----|-10-----|-10-----|--------|-0------3--3-----1--|
D|-10-----10------|-8------|-5-----5-----|-10-----|-10-----|-10-----|--------|-1------1--1-----3--|
A|-8--------------|-8------|-6-----5-----|-8------|-8------|-8------|--------|-3---------------3--|
E|----------------|--------|-------------|--------|--------|--------|--------|--------------------|


E|------------------|------------------|----------------|----------------|----------------|
B|--------4--4------|-4------4------3--|-3------3-------|----------------|--------4-------|
G|-1------3--3------|-3------3------3--|-3------3-------|-0------3---1---|-1------3-------|
D|-3----------------|------------------|----------------|-1------1---3---|-3--------------|
A|-3----------------|-1------1------1--|-1------1-------|-3----------3---|-3--------------|
E|------------------|------------------|----------------|----------------|----------------|


E|--------------------|----------------|----------------|------------------|--------------------|
B|-4------4--4-----3--|-3------3-------|----------------|--------4--4------|-4------4--4-----3--|
G|-3------3--3-----3--|-3------3-------|-0------3---1---|-1------3--3------|-3------3--3-----3--|
D|--------------------|----------------|-1------1---3---|-3----------------|--------------------|
A|-1---------------1--|-1------1-------|-3----------3---|-3----------------|-1---------------1--|
E|--------------------|----------------|----------------|------------------|--------------------|


E|----------------|----------------|--------|------------------|----------------|-3------3-------|
B|-3------3-------|----------------|--------|-4------4---0--3--|-3------4-------|-4------4----6--|
G|-3------3-------|-0------0----1--|-1------|-3------3---0--3--|-3------3-------|-3------3----7--|
D|----------------|-1------1----3--|-3------|------------------|----------------|-5------5----8--|
A|-1------1-------|-3------3----3--|-3------|-1------1---0--1--|-1--------------|-6------6----8--|
E|----------------|----------------|--------|------------------|----------------|----------------|


E|--------6-------|-4------4----6--|-6------6-------|-3------3---------|--------6-------|
B|-6------6-------|-4------4----6--|-6------6-------|-4------4------6--|-6------6-------|
G|-7------7-------|-5------5----7--|-7------7-------|-3------3------7--|-7------7-------|
D|-8------8-------|-6------6----8--|-8------8-------|-5------5------8--|-8------8-------|
A|-8--------------|-6------6----8--|-8------8-------|-6------6------8--|-8--------------|
E|----------------|----------------|----------------|------------------|----------------|


E|-4------|-3------3----|-8------8------8--|-8------8-------|-6------|-3-----3-----|
B|-4------|-3------3----|-8------8------8--|-9------9-------|-6------|-4-----3-----|
G|-5------|-4------4----|-8------8------8--|-10-----10------|-7------|-3-----3-----|
D|-6------|-5------5----|-10-----10-----10-|-10-----10------|-8------|-5-----5-----|
A|-6------|-5------5----|-10---------------|-8--------------|--------|-6-----5-----|
E|--------|-------------|-8----------------|----------------|--------|-------------|


E|-8------8------8--|-8------8-------|-6------|-3-----3-----|-8------|-8------|--------|
B|-8------8------8--|-9------9-------|-6------|-4-----3-----|-8------|-8------|--------|
G|-8------8------8--|-10-----10------|-7------|-3-----3-----|-8------|-8------|--------|
D|-10-----10-----10-|-10-----10------|-8------|-5-----5-----|-10-----|-10-----|--------|
A|-10---------------|-8--------------|-8------|-5-----5-----|-10-----|-10-----|--------|
E|-8----------------|----------------|--------|-------------|-8------|-8------|--------|


E|--------|--------|--------|--------|--------|--------|--------|--------|--------|
B|--------|--------|--------|--------|--------|--------|--------|--------|--------|
G|--------|--------|--------|--------|--------|--------|--------|--------|--------|
D|--------|--------|--------|--------|--------|--------|--------|--------|--------|
A|--------|--------|--------|--------|--------|--------|--------|--------|--------|
E|--------|--------|--------|--------|--------|--------|--------|--------|--------|


E|------------------|-----------------------|-------------------------|----------------|
B|------------------|-----------------------|-4-----4-------4------3--|-3------3-------|
G|-0------3------1--|-1-----1-------1-------|-3-----3-------3------3--|-3------3-------|
D|-1------1------3--|-3-----3-------3-------|-------------------------|----------------|
A|-3-------------3--|-3-----3---3-----------|-1-----1---1----------1--|-1------1-------|
E|------------------|-----------------------|-------------------------|----------------|


E|------------0--1--|-1-----1---------------|----------------|-3------|-8------8------8--|
B|-1------1---0--1--|-1-----1---------------|-4------4-------|-3------|-8------8------8--|
G|-0------0---0--1--|-1-----1-------1-------|-3------3-------|-4------|-8------8------8--|
D|-1------1---0--3--|-3-----3-------3-------|----------------|-5------|-10-----10-----10-|
A|-3------3---0--3--|-3-----3---3-----------|-1------1-------|-5------|-10---------------|
E|------------------|-----------------------|----------------|--------|-8----------------|


E|-8------8-------|-6------|-3-----3-----|-8------8------8--|-8------8-------|-6------|
B|-9------9-------|-6------|-4-----3-----|-8------8------8--|-9------9-------|-6------|
G|-10-----10------|-7------|-3-----3-----|-8------8------8--|-10-----10------|-7------|
D|-10-----10------|-8------|-5-----5-----|-10-----10-----10-|-10-----10------|-8------|
A|-8--------------|--------|-6-----5-----|-10---------------|-8--------------|-8------|
E|----------------|--------|-------------|-8----------------|----------------|--------|


E|-3-----3-----|-8------8------8--|-8------8-------|-6------6-------|-3-----3-----|
B|-4-----3-----|-8------8------8--|-9------9-------|-6------6-------|-4-----3-----|
G|-3-----3-----|-8------8------8--|-10-----10------|-7------7-------|-3-----3-----|
D|-5-----5-----|-10-----10-----10-|-10-----10------|-8------8-------|-5-----5-----|
A|-5-----5-----|-10---------------|-8------8-------|-8--------------|-6-----5-----|
E|-------------|-8----------------|----------------|----------------|-------------|


E|-8------8------8--|-8------8-------|-6------6-------|-3-----3-----|-3------|-3------|
B|-8------8------8--|-9------9-------|-6------6-------|-4-----3-----|-4------|-4------|
G|-8------8------8--|-10-----10------|-7------7-------|-3-----3-----|-5------|-5------|
D|-10-----10-----10-|-10-----10------|-8------8-------|-5-----5-----|-5------|-5------|
A|-10---------------|-8------8-------|-8------8-------|-6-----5-----|-3------|-3------|
E|-8----------------|----------------|----------------|-------------|--------|--------|


E|--------|--------|--------|-3-----6-----|--------|-1------|-1------|-3----6----------|
B|-4------|-6------|-6------|-4-----8-----|-4------|-1------|-3------|-4----8----------|
G|-5------|--------|-3------|-3-----7-----|-5------|-1------|-3------|-3----7----------|
D|--------|-3------|--------|-------------|-5------|--------|--------|-5----8----------|
A|--------|--------|--------|-------------|--------|--------|--------|-----------------|
E|--------|--------|--------|-------------|--------|--------|--------|-----------------|


E|--------|-1------|-1------|-3-----3-----|--------|-1------|-1------|-3-----3-----|
B|-1------|-1------|-3------|-4-----3-----|-1------|-1------|-3------|-4-----3-----|
G|-0------|-1------|-3------|-3-----3-----|-0------|-1------|-3------|-3-----3-----|
D|-1------|-3------|-3------|-5-----5-----|-1------|-3------|-3------|-5-----5-----|
A|-3------|-3------|-1------|-6-----5-----|-3------|-3------|-1------|-6-----5-----|
E|--------|--------|--------|-------------|--------|--------|--------|-------------|


E|--------|-1------|-1------|-3-----3-----|-------------|-------------|-------------|
B|-1------|-1------|-3------|-4-----3-----|-------------|-------------|-------------|
G|-0------|-1------|-3------|-3-----3-----|-------------|-------------|-------------|
D|-1------|-3------|-3------|-5-----5-----|-------------|-------------|-------------|
A|-3------|-3------|-1------|-6-----5-----|-------------|-------------|-------------|
E|--------|--------|--------|-------------|-------------|-------------|-------------|


E|-------------|-------------|-------------|-------------|-------------|-------------|
B|-------------|-------------|-------------|-------------|-------------|-------------|
G|-------------|-------------|-------------|-------------|-------------|-------------|
D|-------------|-------------|-------------|-------------|-------------|-------------|
A|-------------|-------------|-------------|-------------|-------------|-------------|
E|-------------|-------------|-------------|-------------|-------------|-------------|


E|-------------|-------------|-------------|
B|-------------|-------------|-------------|
G|-------------|-------------|-------------|
D|-------------|-------------|-------------|
A|-------------|-------------|-------------|
E|-------------|-------------|-------------|









Track 2: Solo
Back to top
E|--------|--------|--------|--------|--------|--------|--------|--------|--------|
B|--------|--------|--------|--------|--------|--------|--------|--------|--------|
G|--------|--------|--------|--------|--------|--------|--------|--------|--------|
D|--------|--------|--------|--------|--------|--------|--------|--------|--------|
A|--------|--------|--------|--------|--------|--------|--------|--------|--------|
E|--------|--------|--------|--------|--------|--------|--------|--------|--------|


E|--------|--------|--------|--------|--------|--------|--------|--------|--------|
B|--------|--------|--------|--------|--------|--------|--------|--------|--------|
G|--------|--------|--------|--------|--------|--------|--------|--------|--------|
D|--------|--------|--------|--------|--------|--------|--------|--------|--------|
A|--------|--------|--------|--------|--------|--------|--------|--------|--------|
E|--------|--------|--------|--------|--------|--------|--------|--------|--------|


E|--------|--------|--------|--------|--------|--------|--------|--------|--------|
B|--------|--------|--------|--------|--------|--------|--------|--------|--------|
G|--------|--------|--------|--------|--------|--------|--------|--------|--------|
D|--------|--------|--------|--------|--------|--------|--------|--------|--------|
A|--------|--------|--------|--------|--------|--------|--------|--------|--------|
E|--------|--------|--------|--------|--------|--------|--------|--------|--------|


E|--------|--------|--------|--------|--------|--------|--------|--------|--------|
B|--------|--------|--------|--------|--------|--------|--------|--------|--------|
G|--------|--------|--------|--------|--------|--------|--------|--------|--------|
D|--------|--------|--------|--------|--------|--------|--------|--------|--------|
A|--------|--------|--------|--------|--------|--------|--------|--------|--------|
E|--------|--------|--------|--------|--------|--------|--------|--------|--------|


E|--------|--------|--------|--------|--------|--------|--------|--------|--------|
B|--------|--------|--------|--------|--------|--------|--------|--------|--------|
G|--------|--------|--------|--------|--------|--------|--------|--------|--------|
D|--------|--------|--------|--------|--------|--------|--------|--------|--------|
A|--------|--------|--------|--------|--------|--------|--------|--------|--------|
E|--------|--------|--------|--------|--------|--------|--------|--------|--------|


E|--------|--------|--------|--------|--------|--------|--------|--------|--------|
B|--------|--------|--------|--------|--------|--------|--------|--------|--------|
G|--------|--------|--------|--------|--------|--------|--------|--------|--------|
D|--------|--------|--------|--------|--------|--------|--------|--------|--------|
A|--------|--------|--------|--------|--------|--------|--------|--------|--------|
E|--------|--------|--------|--------|--------|--------|--------|--------|--------|


E|--------|--------|--------|--------|--------|--------|--------|--------|--------|
B|--------|--------|--------|--------|--------|--------|--------|--------|--------|
G|--------|--------|--------|--------|--------|--------|--------|--------|--------|
D|--------|--------|--------|--------|--------|--------|--------|--------|--------|
A|--------|--------|--------|--------|--------|--------|--------|--------|--------|
E|--------|--------|--------|--------|--------|--------|--------|--------|--------|


E|--------|--------|--------|--------|--------|--------|--------|--------|--------|
B|--------|--------|--------|--------|--------|--------|--------|--------|--------|
G|--------|--------|--------|--------|--------|--------|--------|--------|--------|
D|--------|--------|--------|--------|--------|--------|--------|--------|--------|
A|--------|--------|--------|--------|--------|--------|--------|--------|--------|
E|--------|--------|--------|--------|--------|--------|--------|--------|--------|


E|--------|--------|--------|--------|--------|--------|--------|--------|--------|
B|--------|--------|--------|--------|--------|--------|--------|--------|--------|
G|--------|--------|--------|--------|--------|--------|--------|--------|--------|
D|--------|--------|--------|--------|--------|--------|--------|--------|--------|
A|--------|--------|--------|--------|--------|--------|--------|--------|--------|
E|--------|--------|--------|--------|--------|--------|--------|--------|--------|


E|--------|--------|-------------------|---------------------------------------------|
B|--------|--------|-------------------|---------------------------------------------|
G|--------|--------|-------------------|---------------------------------------------|
D|--------|--------|-------------------|---------------------------------------------|
A|--------|--------|-------0-----------|--------------------------------------3---2--|
E|--------|--------|-------0--------3--|-3--3--4--3--1--3---3--4--3--1--3--3---------|


E|-------------------------------------------|---------------------------------------------|
B|-------------------------------------------|---------------------------------------------|
G|-------------------------------------------|---------------------------------------------|
D|-------------------------------------------|---------------------------------------------|
A|-2-----------------------------------------|--------------------------------------3---2--|
E|-----4--3--1--3---3--4--3--1--1--1--2---3--|-3--3--4--3--1--3---3--4--3--1--3--3---------|


E|----------------------------------|---------------------------------------------|
B|----------------------------------|---------------------------------------------|
G|----------------------------------|---------------------------------------------|
D|----------------------------------|---------------------------------------------|
A|-2--------------------------------|--------------------------------------3---2--|
E|-----4--3--1--3----------------3--|-3--3--4--3--1--3---3--4--3--1--3--3---------|


E|-------------------------------------------|---------------------------------------------|
B|-------------------------------------------|---------------------------------------------|
G|-------------------------------------------|---------------------------------------------|
D|-------------------------------------------|---------------------------------------------|
A|-2-----------------------------------------|--------------------------------------3---2--|
E|-----4--3--1--3---3--4--3--1--1--1--2---3--|-3--3--4--3--1--3---3--4--3--1--3--3---------|


E|---------------------------|--------|--------|--------|--------|--------|--------|
B|---------------------------|--------|--------|--------|--------|--------|--------|
G|---------------------------|--------|--------|--------|--------|--------|--------|
D|---------------------------|--------|--------|--------|--------|--------|--------|
A|-2-------------------------|--------|--------|--------|--------|--------|--------|
E|-----4--3--1--3------------|--------|--------|--------|--------|--------|--------|


E|--------|--------|--------|--------|--------|--------|--------|--------|--------|
B|--------|--------|--------|--------|--------|--------|--------|--------|--------|
G|--------|--------|--------|--------|--------|--------|--------|--------|--------|
D|--------|--------|--------|--------|--------|--------|--------|--------|--------|
A|--------|--------|--------|--------|--------|--------|--------|--------|--------|
E|--------|--------|--------|--------|--------|--------|--------|--------|--------|


E|--------|--------|--------|--------|--------|--------|--------|--------|--------|
B|--------|--------|--------|--------|--------|--------|--------|--------|--------|
G|--------|--------|--------|--------|--------|--------|--------|--------|--------|
D|--------|--------|--------|--------|--------|--------|--------|--------|--------|
A|--------|--------|--------|--------|--------|--------|--------|--------|--------|
E|--------|--------|--------|--------|--------|--------|--------|--------|--------|


E|--------|--------|--------|--------|--------|--------|--------|--------|--------|
B|--------|--------|--------|--------|--------|--------|--------|--------|--------|
G|--------|--------|--------|--------|--------|--------|--------|--------|--------|
D|--------|--------|--------|--------|--------|--------|--------|--------|--------|
A|--------|--------|--------|--------|--------|--------|--------|--------|--------|
E|--------|--------|--------|--------|--------|--------|--------|--------|--------|


E|---------------15-15-15-|-15--------------------|-------------------15--|-13---------------|
B|------------------------|-------16-16-16--------|---------------16------|-------15---------|
G|------------------------|------------------17---|-----------17----------|-------------15---|
D|------------------------|-----------------------|-18----18--------------|------------------|
A|------------------------|-----------------------|-----------------------|------------------|
E|------------------------|-----------------------|-----------------------|------------------|


E|-------------------------|-15--------------------|-----18----18---18---18---|-18--18----18-----------|
B|-------------------------|-------16-16-16--------|--------------------------|----------------18--16--|
G|-12---12---131212--------|------------------17---|--------------------------|------------------------|
D|-------------------15----|-----------------------|-18-----------------------|------------------------|
A|-------------------------|-----------------------|--------------------------|------------------------|
E|-------------------------|-----------------------|--------------------------|------------------------|


E|-----------------------------|-------22---22---22-|-22--23-22-16----16--18-15-18-|
B|-18---18---18---18---18--16--|-20-----------------|------------------------------|
G|-----------------------------|--------------------|------------------------------|
D|-----------------------------|--------------------|------------------------------|
A|-----------------------------|--------------------|------------------------------|
E|-----------------------------|--------------------|------------------------------|


E|-15----16-----------------|-----------------|---------------------------------------------------------------|
B|-----------18---16---15---|-----------------|---------------------------------------------------------------|
G|--------------------------|-12----13--15----|-------12----------12----------12----------12----------12------|
D|--------------------------|-----------------|-10--------10--10------10--10------10--10------10--10------10--|
A|--------------------------|-----------------|---------------------------------------------------------------|
E|--------------------------|-----------------|---------------------------------------------------------------|


E|-----------------------------------------------------------|-------------------------------------|
B|-----------------------------------------------------------|-------------------------------------|
G|-------13----------13----------13----------13-13--12-13-12-|-10----10--10------101010------10----|
D|-10--------10--10------10--10------10--10------------------|---------------8-----------8---------|
A|-----------------------------------------------------------|-------------------------------------|
E|-----------------------------------------------------------|-------------------------------------|


E|---------------------------------------------------------------|---------------------------------------------------------------|
B|---------------------------------------------------------------|---------------------------------------------------------------|
G|-12--12------12--12------12--12--12--12----------12--12--------|-------12----------12----------12----------12----------12------|
D|---------13----------13------------------12--12----------12----|-10--------10--10------10--10------10--10------10--10------10--|
A|---------------------------------------------------------------|---------------------------------------------------------------|
E|---------------------------------------------------------------|---------------------------------------------------------------|


E|----------------------------------------------------------|--------------------------------------------|
B|----------------------------------------------------------|--------------------------------------------|
G|-------13----------13----------13----------13-13--12101210|-12-10---10---10--10------101010------10----|
D|-10--------10--10------10--10------10--10-----------------|----------------------8-----------8---------|
A|----------------------------------------------------------|--------------------------------------------|
E|----------------------------------------------------------|--------------------------------------------|


E|---------------------------------------------------------------|---------------------------------------------------------------|
B|---------------------------------------------------------------|---------------------------------------------------------------|
G|-12--12------12--12------12--12--12--12----------12--12--------|-------12----------12----------12----------12----------12------|
D|---------13----------13------------------12--12----------12----|-10--------10--10------10--10------10--10------10--10------10--|
A|---------------------------------------------------------------|---------------------------------------------------------------|
E|---------------------------------------------------------------|---------------------------------------------------------------|


E|------------------------------------------------------------|--------|-3-----3-----|
B|------------------------------------------------------------|--------|-4-----3-----|
G|-------13----------13----------13----------13--13--12-13-12-|-10-----|-3-----3-----|
D|-10--------10--10------10--10------10--10-------------------|--------|-5-----5-----|
A|------------------------------------------------------------|--------|-------------|
E|------------------------------------------------------------|--------|-------------|



← Back to top