When The Children Cry

by White Lion

Guitar Pro Tab  |  v3.00  |  Posted on March 29, 2007, 10:58 a.m. ← Back

Guitar Pro Tab Summary

Album

Pride

Song Author

Vito Bratta & Mike Tramp

Tabbed by

C´┐Żneyt Aliustao´┐Żlu (22/November/2002)

Instruments

1st → Acoustic Guitar
2nd → Guitar Solo
3rd → Guitar Fills
4th → Vocal

File Size

18 KB

Views

15,965

Notice

little child dry your crying eyes how can I explain the fear you feel inside cause you were born into this evil world where mas is killing man and no one knows just why what we have become just look what we have done all that we destroyed you must build again when the children cry let them know we tried cause when the children sing then the new world begins little child you must show the way to a better day for all the young cause you were born for all the world to see that we all can live with love and peace no more presidents and all the wars will end one united world under god when the children cry let them know we tried cause when the children sing then the new world begins what we have become just look what we have done all that we destroyed you must build again no more presidents and all the wars will end one united world under god when the children cry let them know we tried when the children fight let them know it ain't right when the children pray let them know the way cause when the children sing then the new world begins






Related guitar pro tabs

Tablature Sheet

Title: When The Children Cry
Artist: White Lion
Album: Pride
Author: Vito Bratta & Mike Tramp






Track 1: Acoustic Guitar
Back to top
E|-0--------0--12-------12-|-10-------10-8--8--7--7--|-10-------10-8--------8--|-7--------7--3--3--2--2--|
B|----0-----0-----0-----0--|----0-----0-----0-----0--|----0-----0-----0-----0--|----0-----0-----0-----0--|
G|-------0-----------0-----|-------0-----------------|-------0-----------0-----|-------0-----------------|
D|-------------------------|-------------------------|-------------------------|-------------------------|
A|-------------------------|-------------------------|-------------------------|-------------------------|
E|-0--------0--------------|-------------------------|-0--------0--------------|-------------3--3--2--2--|


E|-0--------0--12-------12-|-10-------10-8--8--7--7--|-10-------10-8--------8--|-7--------7----------|
B|----0-----0-----0-----0--|----0-----0-----0-----0--|----0-----0-----0-----0--|----0--------0---3---|
G|-------0-----------0-----|-------0-----------------|-------0-----------0-----|-------0-----0---2---|
D|-------------------------|-------------------------|-------------------------|----------0----------|
A|-------------------------|-------------------------|-------------------------|---------------------|
E|-0--------0--------------|-------------------------|-0--------0--------------|-------------3---2---|


E|-0---------------------|-------------2-----------|-------------------0-----|-------------------------|
B|-0---------------0-----|----3-----------3--------|-1-----------3--------3--|-3--3-----------3--------|
G|-----------0-----------|-------4-----------4-----|----0-----0-----0--------|-------0--------------0--|
D|--------4-----4--------|----------4-----------0--|-------2-----------------|----------0--------------|
A|-----2--------------0--|-2-----------------------|-3-----------------------|-------------------------|
E|-0---------------------|-------------------------|-------------------------|-3-----------3-----2-----|


E|---------------------|-------------2-----------|-----------------0---|-2-----------2-3-2-0--------|
B|---------------------|----3-----------3--------|-1---------3---------|----3-----3----------3------|
G|-----------0-----0---|-------4-----------4-----|-----0--------0------|-------2----------------2-7-|
D|--------4-----4------|----------4-----------0--|--------2------------|-0--------------------------|
A|-----2---------------|-2-----------------------|-3-------------------|----------------------------|
E|-0-------------------|-------------------------|---------------------|----------------------------|


E|-5--------10---------|----------------------------|-------------------------|----------------------------|
B|----7-----10-7-------|-0-----------0--1--0-1-0----|-------3-----------3-----|----------------------------|
G|-------7-----7-------|----0-----0--------------0--|-2--------2-----2-----0--|-0-----------0--2--0-2-0----|
D|---------------------|-------0--------------------|----0--------0-----------|----2-----2--------------4--|
A|---------------------|----------------------------|-------------------------|-------2--------------------|
E|---------------------|-3--------------------------|-2-----------------------|-0--------------------------|


E|-------------2-----------|-------------------0-----|-------------------------|-----------------------|
B|----3-----------3--------|-1-----------3--------3--|-3--3-----------3--------|-----------------0-----|
G|-------2-----------2-----|----0-----0-----0--------|-------0--------------0--|-----------0--------0--|
D|----------4-----------0--|-------2-----------------|----------0--------------|--------4-----4--------|
A|-2-----------------------|-3-----------------------|-------------------------|-----2-----------------|
E|-------------------------|-------------------------|-3-----------3-----2-----|-0---------------------|


E|-2-----------2-3-2-0-------|----------------------------|-------------------------|
B|----3-----3----------3-----|-0-----------0--1--0-1-0----|-------3-----------3-----|
G|-------2----------------0--|----0-----0--------------0--|-2--------2-----2-----0--|
D|-0-------------------------|-------0--------------------|----0--------0-----------|
A|---------------------------|----------------------------|-------------------------|
E|---------------------------|-3--------------------------|-2-----------------------|


E|----------------------------|-------------2-----------|-------------------0-----|
B|----------------------------|----3-----------3--------|-1-----------3--------3--|
G|-0-----------0--2--0-2-0----|-------2-----------2-----|----0-----0-----0--------|
D|----2-----2--------------4--|----------4-----------0--|-------2-----------------|
A|-------2--------------------|-2-----------------------|-3-----------------------|
E|-0--------------------------|-------------------------|-------------------------|


E|-------------------------|-----------------------|-2-----------2-3-2-0-------|-0-----------3-----------|
B|-3--3-----------3--------|-----------------0-----|----3-----3----------3-----|----1-----1-----1--------|
G|-------0--------------0--|-----------0--------0--|-------2----------------0--|-------0-----------0-----|
D|----------0--------------|--------4-----4--------|-0-------------------------|-3--------------------0--|
A|-------------------------|-----2-----------------|---------------------------|-------------------------|
E|-3-----------3-----2-----|-0---------------------|---------------------------|-------------------------|


E|-------------2-----------|-----------------------|-------------2-----------|-------------------0-----|
B|----3-----------3--------|-----------------------|----3-----------3--------|-1-----------3--------3--|
G|-------4-----------4-----|-----------0-----0-----|-------4-----------4-----|----0-----0-----0--------|
D|----------4-----------4--|--------4-----4--------|----------4-----------0--|-------2-----------------|
A|-2-----------------------|-----2-----------------|-2-----------------------|-3-----------------------|
E|-------------------------|-0---------------------|-------------------------|-------------------------|


E|-------------------------|-----------------------|-2-----------3-----------|-2-----|
B|-3--3--------------------|-----------------0-----|----3-----3-----3-----3--|-------|
G|-------0--------0-----0--|-----------0--------0--|-------2-----------2-----|-------|
D|----------0--------------|--------4-----4--------|-0-----------------------|-------|
A|-------------------------|-----2-----------------|-------------------------|-------|
E|-3-----------3-----2-----|-0---------------------|-------------------------|-------|


E|-----------------------|-------------2-----------|-------------------0-----|-------------------------|
B|-----------------0-----|----3-----------3--------|-1-----------3--------3--|-3--3--------------------|
G|-----------0-----------|-------4-----------4-----|----0-----0-----0--------|-------0--------0-----0--|
D|--------4-----4-----4--|----------4-----------0--|-------2-----------------|----------0--------------|
A|-----2-----------------|-2-----------------------|-3-----------------------|-------------------------|
E|-0---------------------|-------------------------|-------------------------|-3-----------3-----2-----|


E|-----------------------|-------------2-----------|-------------------0-----|----2--------2-3-2-0---------|
B|-----------------0-----|----3-----------3--------|-1-----------3-----------|-3--------3----------3-------|
G|-----------0-----------|-------4-----------4-----|----0-----0-----0--------|-------2----------------0-7--|
D|--------4-----4-----4--|----------4-----------0--|-------2-----------------|-0---------------------------|
A|-----2-----------------|-2-----------------------|-3--------------------0--|-----------------------------|
E|-0---------------------|-------------------------|-------------------------|-----------------------------|


E|-5-----------10----|----------------------------|-------------------------|----------------------------|
B|----7--------------|-0-----------0--1--0-1-0----|-------3-----------3-----|----------------------------|
G|-------7--11-11----|----0-----0--------------0--|-2--------2-----2-----0--|-0-----------0--2--0-2-0----|
D|-------------------|-------0--------------------|----0--------0-----------|----2-----2--------------4--|
A|-------------------|----------------------------|-------------------------|-------2--------------------|
E|-------------------|-3--------------------------|-2-----------------------|-0--------------------------|


E|-------------2-----------|-------------------0-----|-------------------------|-----------------------|
B|----3-----------3--------|-1-----------3--------3--|-3--3-----------3--------|-----------------0-----|
G|-------2-----------2-----|----0-----0-----0--------|-------0--------------0--|-----------0--------0--|
D|----------4-----------0--|-------2-----------------|----------0--------------|--------4-----4--------|
A|-2-----------------------|-3-----------------------|-------------------------|-----2-----------------|
E|-------------------------|-------------------------|-3-----------3-----2-----|-0---------------------|


E|-2-----------2-3-2-0-------|----------------------------|-------------------------|
B|----3-----3----------3-----|-0-----------0--1--0-1-0----|-------3-----------3-----|
G|-------2----------------0--|----0-----0--------------0--|-2--------2-----2-----0--|
D|-0-------------------------|-------0--------------------|----0--------0-----------|
A|---------------------------|----------------------------|-------------------------|
E|---------------------------|-3--------------------------|-2-----------------------|


E|----------------------------|-------------2-----------|-------------------0-----|
B|----------------------------|----3-----------3--------|-1-----------3--------3--|
G|-0-----------0--2--0-2-0----|-------2-----------2-----|----0-----0-----0--------|
D|----2-----2--------------4--|----------4-----------0--|-------2-----------------|
A|-------2--------------------|-2-----------------------|-3-----------------------|
E|-0--------------------------|-------------------------|-------------------------|


E|-------------------------|-----------------------|-2-----------3--2--------|-0-----------0-----------|
B|-3--3-----------3--------|-----------------0-----|----3-----3--------3-----|----1-----------1--------|
G|-------0--------------0--|-----------0--------0--|-------2--------------0--|-------0-----------0-----|
D|----------0--------------|--------4-----4--------|-0-----------------------|----------2-----------0--|
A|-------------------------|-----2-----------------|-------------------------|-3-----------------------|
E|-3-----------3-----2-----|-0---------------------|-------------------------|-------------------------|


E|----------------------------|-------------------------|----------------------------|
B|-0-----------0--1--0-1-0----|-------3-----------3-----|----------------------------|
G|----0-----0--------------0--|-2--------2-----2-----0--|-0-----------0--2--0-2-0----|
D|-------0--------------------|----0--------0-----------|----2-----2--------------4--|
A|----------------------------|-------------------------|-------2--------------------|
E|-3--------------------------|-2-----------------------|-0--------------------------|


E|-------------2-----------|-------------------0-----|-------------------------|-----------------------|
B|----3-----------3--------|-1-----------3--------3--|-3--3-----------3--------|-----------------0-----|
G|-------2-----------2-----|----0-----0-----0--------|-------0--------------0--|-----------0--------0--|
D|----------4-----------0--|-------2-----------------|----------0--------------|--------4-----4--------|
A|-2-----------------------|-3-----------------------|-------------------------|-----2-----------------|
E|-------------------------|-------------------------|-3-----------3-----2-----|-0---------------------|


E|-2-----------2-3-2-0-------|-----------------------|-------------2-----------|-------------------0-----|
B|----3-----3----------3-----|-----------------0-----|----3-----------3--------|-1-----------3--------3--|
G|-------2----------------0--|-----------0-----------|-------4-----------4-----|----0-----0-----0--------|
D|-0-------------------------|--------4-----4-----4--|----------4-----------0--|-------2-----------------|
A|---------------------------|-----2-----------------|-2-----------------------|-3-----------------------|
E|---------------------------|-0---------------------|-------------------------|-------------------------|


E|-------------------------|-----------------------|-------------2-----------|-------------------0-----|
B|-3--3--------------------|-----------------0-----|----3-----------3--------|-1-----------3-----------|
G|-------0--------0-----0--|-----------0-----------|-------4-----------4-----|----0-----0-----0--------|
D|----------0--------------|--------4-----4-----4--|----------4-----------0--|-------2-----------------|
A|-------------------------|-----2-----------------|-2-----------------------|-3--------------------0--|
E|-3-----------3-----2-----|-0---------------------|-------------------------|-------------------------|


E|----2--------2-3-2-0---------|-2-----------3-----------|-2-----------3-----------|
B|-3--------3----------3-------|----3-----------3-----3--|----3-----3-----3--------|
G|-------2----------------0-7--|----------2--------2-----|-------2-----------2-----|
D|-0---------------------------|-0-----0-----------------|----------------------0--|
A|-----------------------------|-------------------------|-------------------------|
E|-----------------------------|-------------------------|-------------------------|


E|----------------------------|-------------------------|------------------------------|
B|-0-----------0--1--0-1-0----|-------3-----------3-----|------------------------------|
G|----0-----0--------------0--|-2--------2-----2-----0--|-0-----------0--2--0-2-0------|
D|-------0--------------------|----0--------0-----------|----2-----2--------------2-4--|
A|----------------------------|-------------------------|-------2----------------------|
E|----------------------------|-------------------------|------------------------------|


E|-------------2-----------|-------------------0-----|-------------------------|-----------------------|
B|----3-----------3--------|-1-----------3--------3--|-3--3-----------3--------|-----------------0-----|
G|-------2-----------2-----|----0-----0-----0--------|-------0--------------0--|-----------0--------0--|
D|----------4-----------0--|-------2-----------------|----------0--------------|--------4-----4--------|
A|-2-----------------------|-3-----------------------|-------------------------|-----2-----------------|
E|-------------------------|-------------------------|-3-----------3-----2-----|-0---------------------|


E|-2-----------2-3-2-0-------|----------------------------|-------------------------|
B|----3-----3----------3-----|-0-----------0--1--0-1-1----|-------3-----------3-----|
G|-------2----------------0--|----0-----0--------------0--|-2--------2-----2-----0--|
D|-0-------------------------|-------0--------------------|----0--------0-----------|
A|---------------------------|----------------------------|-------------------------|
E|---------------------------|-3--------------------------|-2-----------------------|


E|----------------------------|-------------2-----------|-------------------0-----|
B|----------------------------|----3-----------3--------|-1-----------3--------3--|
G|-0-----------0--2--0-2-0----|-------2-----------2-----|----0-----0-----0--------|
D|----2-----2--------------4--|----------4-----------0--|-------2-----------------|
A|-------2--------------------|-2-----------------------|-3-----------------------|
E|-0--------------------------|-------------------------|-------------------------|


E|-------------------------|-----------------------|-2-----------3--2--------|-0-----------0-----------|
B|-3--3-----------3--------|-----------------0-----|----3-----3--------3-----|----1-----------1--------|
G|-------0--------------0--|-----------0--------0--|-------2--------------0--|-------0-----------0-----|
D|----------0--------------|--------4-----4--------|-0-----------------------|----------2-----------0--|
A|-------------------------|-----2-----------------|-------------------------|-3-----------------------|
E|-3-----------3-----2-----|-0---------------------|-------------------------|-------------------------|


E|-------------2-----------|-----------------------|-------------2-----------|-------------------0-----|
B|----3-----------3--------|-----------------0-----|----3-----------3--------|-1-----------3--------3--|
G|-------4-----------4-----|-----------0-----------|-------4-----------4-----|----0-----0-----0--------|
D|----------4-----------4--|--------4-----4-----4--|----------4-----------0--|-------2-----------------|
A|-2-----------------------|-----2-----------------|-2-----------------------|-3-----------------------|
E|-------------------------|-0---------------------|-------------------------|-------------------------|


E|-------------------------|---------------------|-2-----------3--2--------|-0-----------0-----------|
B|-3--3--------------------|-----------------0---|----3-----3--------3-----|----1-----------1--------|
G|-------0--------0-----0--|-----------0---------|-------2--------------0--|-------0-----------0-----|
D|----------0--------------|--------4-----4------|-0-----------------------|----------2-----------0--|
A|-------------------------|-----2---------------|-------------------------|-3-----------------------|
E|-3-----------3-----2-----|-0-------------------|-------------------------|-------------------------|


E|-------------2-----------|-----------------------|-------------2-----------|-------------------0-----|
B|----3-----------3--------|-----------------0-----|----3-----------3--------|-1-----------3--------3--|
G|-------4-----------4-----|-----------0-----------|-------4-----------4-----|----0-----0-----0--------|
D|----------4-----------4--|--------4-----4-----4--|----------4-----------0--|-------2-----------------|
A|-2-----------------------|-----2-----------------|-2-----------------------|-3-----------------------|
E|-------------------------|-0---------------------|-------------------------|-------------------------|


E|-------------------------|---------------------|-2-----------3-----------|-2-----|
B|-3--3-----------3--------|-----------------0---|----3-----3-----3-----3--|-------|
G|-------0--------------0--|-----------0---------|-------2-----------2-----|-------|
D|----------0--------------|--------4-----4------|-0-----------------------|-------|
A|-------------------------|-----2---------------|-------------------------|-------|
E|-3-----------3-----2-----|-0-------------------|-------------------------|-------|


E|-----------------------|-------------2-----------|-------------------0-----|-------------------------|
B|-----------------0-----|----3-----------3--------|-1-----------3--------3--|-3--3--------------------|
G|-----------0-----------|-------2-----------2-----|----0-----0-----0--------|-------0--------0-----0--|
D|--------4-----4--------|----------4-----------0--|-------2-----------------|----------0--------------|
A|-----2--------------0--|-2-----------------------|-3-----------------------|-------------------------|
E|-0---------------------|-------------------------|-------------------------|-3-----------3-----2-----|


E|-----------------------|-------------2-----------|-------------------0-----|-2-----------------------|
B|-----------------0-----|----3-----------3--------|-1-----------3-----------|----3-----3--------------|
G|-----------0-----------|-------4-----------4-----|----0-----0-----0--------|-------2--------0-----0--|
D|--------4-----4-----4--|----------4-----------0--|-------2-----------------|-0-----------------------|
A|-----2-----------------|-2-----------------------|-3--------------------0--|-------------------------|
E|-0---------------------|-------------------------|-------------------------|-------------3-----2-----|


E|-----------------------|-------------2-----------|-------------------0-----|-------------------------|
B|-----------------0-----|----3-----------3--------|-1-----------3--------3--|-3--3--------------------|
G|-----------0-----------|-------2-----------2-----|----0-----0-----0--------|-------0--------0-----0--|
D|--------4-----4--------|----------4-----------0--|-------2-----------------|----------0--------------|
A|-----2--------------0--|-2-----------------------|-3-----------------------|-------------------------|
E|-0---------------------|-------------------------|-------------------------|-3-----------3-----2-----|


E|-----------------------|-------------2-----------|-------------------0-----|----2--------2-3-2-0-0-------|
B|-----------------0-----|----3-----------3--------|-1-----------3-----------|-3--------3-------------0-7--|
G|-----------0-----------|-------4-----------4-----|----0-----0-----0--------|-------2---------------------|
D|--------4-----4-----4--|----------4-----------0--|-------2-----------------|-----------------------------|
A|-----2-----------------|-2-----------------------|-3--------------------0--|-0---------------------------|
E|-0---------------------|-------------------------|-------------------------|-----------------------------|


E|-5---------10------|
B|----7------10-7----|
G|-------7-11---7----|
D|-------------------|
A|-------------------|
E|-------------------|









Track 2: Guitar Fills
Back to top
E|-------|-------|-------|-------|-------|-------|-------|-------|-------|-------|
B|-------|-------|-------|-------|-------|-------|-------|-------|-------|-------|
G|-------|-------|-------|-------|-------|-------|-------|-------|-------|-------|
D|-------|-------|-------|-------|-------|-------|-------|-------|-------|-------|
A|-------|-------|-------|-------|-------|-------|-------|-------|-------|-------|
E|-------|-------|-------|-------|-------|-------|-------|-------|-------|-------|


E|-------|-------|-------|-------|-------|-------|-------|-------|-------|-------|
B|-------|-------|-------|-------|-------|-------|-------|-------|-------|-------|
G|-------|-------|-------|-------|-------|-------|-------|-------|-------|-------|
D|-------|-------|-------|-------|-------|-------|-------|-------|-------|-------|
A|-------|-------|-------|-------|-------|-------|-------|-------|-------|-------|
E|-------|-------|-------|-------|-------|-------|-------|-------|-------|-------|


E|-------|-------|-------|-------|-------|-------|-------|-------|-------|-------|
B|-------|-------|-------|-------|-------|-------|-------|-------|-------|-------|
G|-------|-------|-------|-------|-------|-------|-------|-------|-------|-------|
D|-------|-------|-------|-------|-------|-------|-------|-------|-------|-------|
A|-------|-------|-------|-------|-------|-------|-------|-------|-------|-------|
E|-------|-------|-------|-------|-------|-------|-------|-------|-------|-------|


E|-------|-------|-------|-------|-------|-------|-------|-------|-------|-------|
B|-------|-------|-------|-------|-------|-------|-------|-------|-------|-------|
G|-------|-------|-------|-------|-------|-------|-------|-------|-------|-------|
D|-------|-------|-------|-------|-------|-------|-------|-------|-------|-------|
A|-------|-------|-------|-------|-------|-------|-------|-------|-------|-------|
E|-------|-------|-------|-------|-------|-------|-------|-------|-------|-------|


E|-------|-------|-------|-------|-------|-------|-------|-------|-------|-------|
B|-------|-------|-------|-------|-------|-------|-------|-------|-------|-------|
G|-------|-------|-------|-------|-------|-------|-------|-------|-------|-------|
D|-------|-------|-------|-------|-------|-------|-------|-------|-------|-------|
A|-------|-------|-------|-------|-------|-------|-------|-------|-------|-------|
E|-------|-------|-------|-------|-------|-------|-------|-------|-------|-------|


E|--------|-------|-------|-------|-------|-------|-------|-------|-------|-------|
B|--------|-------|-------|-------|-------|-------|-------|-------|-------|-3-----|
G|--------|-------|-------|-------|-4-----|-------|-------|-------|-------|-------|
D|--------|-5-----|-4-----|-2-----|-------|-------|-------|-------|-------|-5-----|
A|--------|-------|-------|-------|-------|-------|-------|-------|-------|-------|
E|--------|-------|-------|-------|-------|-------|-------|-------|-------|-------|


E|-------|-------|-------|-------|-------|--------------|-------|-------|-------|-------|
B|-------|-------|-3-----|-5-----|-3-----|-3------------|-------|-------|-------|-------|
G|-5-----|-4-----|-4-----|-5-----|-4-----|-4----0---4---|-------|-------|-------|-------|
D|-4-----|-2-----|-------|-------|-------|--------------|-------|-------|-------|-------|
A|-------|-------|-------|-------|-------|--------------|-------|-------|-------|-------|
E|-------|-------|-------|-------|-------|--------------|-------|-------|-------|-------|


E|-------|-------|-------|-------|-------|-------|-----------|-------|--------------|
B|-------|-------|-------|-------|-------|-------|-----------|-------|--------------|
G|-------|-------|-------|-------|-------|-------|-----------|-------|--------------|
D|-------|-------|-------|-------|-------|-------|-2----5----|-4-----|-5----5--5----|
A|-------|-------|-------|-------|-------|-------|-----------|-------|--------------|
E|-------|-------|-------|-------|-------|-------|-----------|-------|--------------|


E|--------------|-------|-------|--------------|-------|-------|-------|-------|-------|
B|--------------|-------|-------|--------------|-------|-------|-------|-------|-------|
G|--------------|-------|-------|-5------------|-2-----|-2-----|-------|-------|-------|
D|-5----5---4---|-2-----|-4-----|------5--5----|-------|-------|-------|-------|-------|
A|--------------|-------|-------|--------------|-------|-------|-------|-------|-------|
E|--------------|-------|-------|--------------|-------|-------|-------|-------|-------|


E|-------|-------|-------|-------|-------|-------|-------|-------|-------|-------|
B|-------|-------|-------|-------|-------|-------|-------|-------|-------|-------|
G|-------|-------|-------|-------|-------|-------|-------|-------|-------|-------|
D|-------|-------|-------|-------|-------|-------|-------|-------|-------|-------|
A|-------|-------|-------|-------|-------|-------|-------|-------|-------|-------|
E|-------|-------|-------|-------|-------|-------|-------|-------|-------|-------|


E|-------|-------|-------|-------|-------|-------|-------|-------|-------|-------|
B|-------|-------|-------|-------|-------|-------|-------|-------|-------|-------|
G|-------|-------|-------|-------|-------|-------|-------|-------|-------|-------|
D|-------|-------|-------|-------|-------|-------|-------|-------|-------|-------|
A|-------|-------|-------|-------|-------|-------|-------|-------|-------|-------|
E|-------|-------|-------|-------|-------|-------|-------|-------|-------|-------|


E|-------|-------|-------|------19--17--15--|-14---------------|-----------------------|
B|-------|-------|-------|------------------|-----15--15--15---|-15-15----17-15--13-12-|
G|-------|-------|-------|------------------|------------------|-----------------------|
D|-------|-------|-------|------------------|------------------|-----------------------|
A|-------|-------|-------|------------------|------------------|-----------------------|
E|-------|-------|-------|------------------|------------------|-----------------------|


E|--------------|-------|-------|-------|-------|-------|-------|-------|-------|-------|
B|----12---12---|-12----|-------|-------|-------|-------|-------|-------|-------|-------|
G|--------------|-------|-------|-------|-------|-------|-------|-------|-------|-------|
D|--------------|-------|-------|-------|-------|-------|-------|-------|-------|-------|
A|--------------|-------|-------|-------|-------|-------|-------|-------|-------|-------|
E|--------------|-------|-------|-------|-------|-------|-------|-------|-------|-------|


E|-------|-------|-----------|-------|-------|-------|-----------|-------|-------|
B|-------|-------|-----------|-------|-------|-------|-----------|-------|-------|
G|-------|-------|-----------|-------|-------|-------|-----------|-------|-------|
D|-------|-5-----|-7---------|-2-----|-4-----|-5-----|-5-----4---|-2-----|-4-----|
A|-------|-------|-------4---|-------|-------|-------|-----------|-------|-------|
E|-------|-------|-----------|-------|-------|-------|-----------|-------|-------|


E|-------|-------|-------|
B|-------|-------|-------|
G|-------|-------|-------|
D|-5-----|-7-----|-7-----|
A|-------|-------|-------|
E|-------|-------|-------|









Track 3: Guitar Solo
Back to top
E|-------|-------|-------|-------|-------|-------|-------|-------|-------|-------|
B|-------|-------|-------|-------|-------|-------|-------|-------|-------|-------|
G|-------|-------|-------|-------|-------|-------|-------|-------|-------|-------|
D|-------|-------|-------|-------|-------|-------|-------|-------|-------|-------|
A|-------|-------|-------|-------|-------|-------|-------|-------|-------|-------|
E|-------|-------|-------|-------|-------|-------|-------|-------|-------|-------|


E|-------|-------|-------|-------|-------|-------|-------|-------|-------|-------|
B|-------|-------|-------|-------|-------|-------|-------|-------|-------|-------|
G|-------|-------|-------|-------|-------|-------|-------|-------|-------|-------|
D|-------|-------|-------|-------|-------|-------|-------|-------|-------|-------|
A|-------|-------|-------|-------|-------|-------|-------|-------|-------|-------|
E|-------|-------|-------|-------|-------|-------|-------|-------|-------|-------|


E|-------|-------|-------|-------|-------|-------|-------|-------|-------|-------|
B|-------|-------|-------|-------|-------|-------|-------|-------|-------|-------|
G|-------|-------|-------|-------|-------|-------|-------|-------|-------|-------|
D|-------|-------|-------|-------|-------|-------|-------|-------|-------|-------|
A|-------|-------|-------|-------|-------|-------|-------|-------|-------|-------|
E|-------|-------|-------|-------|-------|-------|-------|-------|-------|-------|


E|-------|-------|-------|-------|-------|-------|-------|-------|-------|-------|
B|-------|-------|-------|-------|-------|-------|-------|-------|-------|-------|
G|-------|-------|-------|-------|-------|-------|-------|-------|-------|-------|
D|-------|-------|-------|-------|-------|-------|-------|-------|-------|-------|
A|-------|-------|-------|-------|-------|-------|-------|-------|-------|-------|
E|-------|-------|-------|-------|-------|-------|-------|-------|-------|-------|


E|-------|-------|-------|-------|-------|-------|-------|-------|-------|-------|
B|-------|-------|-------|-------|-------|-------|-------|-------|-------|-------|
G|-------|-------|-------|-------|-------|-------|-------|-------|-------|-------|
D|-------|-------|-------|-------|-------|-------|-------|-------|-------|-------|
A|-------|-------|-------|-------|-------|-------|-------|-------|-------|-------|
E|-------|-------|-------|-------|-------|-------|-------|-------|-------|-------|


E|--------|-------|-------|-------|-------|-------|-------|-------|-------|-------|
B|--------|-------|-------|-------|-------|-------|-------|-------|-------|-------|
G|--------|-------|-------|-------|-------|-------|-------|-------|-------|-------|
D|--------|-------|-------|-------|-------|-------|-------|-------|-------|-------|
A|--------|-------|-------|-------|-------|-------|-------|-------|-------|-------|
E|--------|-------|-------|-------|-------|-------|-------|-------|-------|-------|


E|-------|-------|-------|-------|-------|-------|-------|-------|-------|-------|
B|-------|-------|-------|-------|-------|-------|-------|-------|-------|-------|
G|-------|-------|-------|-------|-------|-------|-------|-------|-------|-------|
D|-------|-------|-------|-------|-------|-------|-------|-------|-------|-------|
A|-------|-------|-------|-------|-------|-------|-------|-------|-------|-------|
E|-------|-------|-------|-------|-------|-------|-------|-------|-------|-------|


E|-------|-------|-------|-------|-------|-------|-------|-------|-------|-------|
B|-------|-------|-------|-------|-------|-------|-------|-------|-------|-------|
G|-------|-------|-------|-------|-------|-------|-------|-------|-------|-------|
D|-------|-------|-------|-------|-------|-------|-------|-------|-------|-------|
A|-------|-------|-------|-------|-------|-------|-------|-------|-------|-------|
E|-------|-------|-------|-------|-------|-------|-------|-------|-------|-------|


E|-------|-------|-------|-------|-------|-------------------|-----------|-----------|
B|-------|-------|-------|-------|-------|-----------8-8--15-|-15----17--|-13----15--|
G|-------|-------|-------|-------|-------|---------7---------|-----------|-----------|
D|-------|-------|-------|-------|-------|-------------------|-----------|-----------|
A|-------|-------|-------|-------|-------|-------------------|-----------|-----------|
E|-------|-------|-------|-------|-------|-------------------|-----------|-----------|


E|-------------|-----------|--------------|-------------|------17---|-17---17---|-19--19--19---|
B|-12----------|-----------|-15---15--15--|-15----17-13-|-12--------|-----------|--------------|
G|-------14-12-|-11--------|--------------|-------------|-----------|-----------|--------------|
D|-------------|------12---|--------------|-------------|-----------|-----------|--------------|
A|-------------|-----------|--------------|-------------|-----------|-----------|--------------|
E|-------------|-----------|--------------|-------------|-----------|-----------|--------------|


E|-20--20-20-20--19-20-|-19--------------|--------------|----------------|-----------------|
B|---------------------|-----20--20--20--|-19---17-15---|-15----15-13-12-|-13-12---12------|
G|---------------------|-----------------|--------------|----------------|-------------14--|
D|---------------------|-----------------|--------------|----------------|-----------------|
A|---------------------|-----------------|--------------|----------------|-----------------|
E|---------------------|-----------------|--------------|----------------|-----------------|


E|---------------|-------|-------|-------|-------|-------|-------|-------|-------|
B|----------15---|-15----|-15----|-15----|-------|-------|-------|-------|-------|
G|-14---1412-----|-------|-------|-------|-------|-------|-------|-------|-------|
D|---------------|-------|-------|-------|-------|-------|-------|-------|-------|
A|---------------|-------|-------|-------|-------|-------|-------|-------|-------|
E|---------------|-------|-------|-------|-------|-------|-------|-------|-------|


E|-------|-------|-------|-------|-------|-------|-------|-------|-------|-------|
B|-------|-------|-------|-------|-------|-------|-------|-------|-------|-------|
G|-------|-------|-------|-------|-------|-------|-------|-------|-------|-------|
D|-------|-------|-------|-------|-------|-------|-------|-------|-------|-------|
A|-------|-------|-------|-------|-------|-------|-------|-------|-------|-------|
E|-------|-------|-------|-------|-------|-------|-------|-------|-------|-------|


E|-------|-------|-------|-------|-------|-------|-------|-------|-------|-------|
B|-------|-------|-------|-------|-------|-------|-------|-------|-------|-------|
G|-------|-------|-------|-------|-------|-------|-------|-------|-------|-------|
D|-------|-------|-------|-------|-------|-------|-------|-------|-------|-------|
A|-------|-------|-------|-------|-------|-------|-------|-------|-------|-------|
E|-------|-------|-------|-------|-------|-------|-------|-------|-------|-------|


E|-------|-------|-------|-------|-------|-------|-------|
B|-------|-------|-------|-------|-------|-------|-------|
G|-------|-------|-------|-------|-------|-------|-------|
D|-------|-------|-------|-------|-------|-------|-------|
A|-------|-------|-------|-------|-------|-------|-------|
E|-------|-------|-------|-------|-------|-------|-------|









Track 4: Vocal
Back to top
E|-------|-------|-------|-------|-------|-------|-------|-------|-------|-------|
B|-------|-------|-------|-------|-------|-------|-------|-------|-------|-------|
G|-------|-------|-------|-------|-------|-------|-------|-------|-------|-------|
D|-------|-------|-------|-------|-------|-------|-------|-------|-------|-------|
A|-------|-------|-------|-------|-------|-------|-------|-------|-------|-------|
E|-------|-------|-------|-------|-------|-------|-------|-------|-------|-------|


E|-------|-------|-------|-------|-------|-------|-------|------7--8---8--|-10----|
B|-------|-------|-------|-------|-------|-------|-------|----------------|-------|
G|-------|-------|-------|-------|-------|-------|-------|----------------|-------|
D|-------|-------|-------|-------|-------|-------|-------|----------------|-------|
A|-------|-------|-------|-------|-------|-------|-------|----------------|-------|
E|-------|-------|-------|-------|-------|-------|-------|----------------|-------|


E|------14--15-14-|-14-------------|---------12--12-10-|-10----------------|-------------------|
B|----------------|----15--15---15-|-15----------------|----12--12------10-|-12--12-12--13--12-|
G|----------------|----------------|-------------------|-------------------|-------------------|
D|----------------|----------------|-------------------|-------------------|-------------------|
A|----------------|----------------|-------------------|-------------------|-------------------|
E|----------------|----------------|-------------------|-------------------|-------------------|


E|----------------|------7--7--8---10-|-10----10----|------12--14--15-|-14-----------|
B|-12-10---10-----|-------------------|-------------|-----------------|-----15--15---|
G|----------------|-------------------|-------------|-----------------|--------------|
D|----------------|-------------------|-------------|-----------------|--------------|
A|----------------|-------------------|-------------|-----------------|--------------|
E|----------------|-------------------|-------------|-----------------|--------------|


E|------12-12--12-10-|-10----------------|-----------------|--------------|------12--12--|
B|-------------------|----12--12------10-|-12--12-12---13--|-12-10--------|--------------|
G|-------------------|-------------------|-----------------|--------------|--------------|
D|-------------------|-------------------|-----------------|--------------|--------------|
A|-------------------|-------------------|-----------------|--------------|--------------|
E|-------------------|-------------------|-----------------|--------------|--------------|


E|-14--15-14-------|-------15--15--14-12--|-10----------------|------12--12-10-|-10-----------|
B|-----------------|----------------------|-----12-12---12----|----------------|-----12--12---|
G|-----------------|----------------------|-------------------|----------------|--------------|
D|-----------------|----------------------|-------------------|----------------|--------------|
A|-----------------|----------------------|-------------------|----------------|--------------|
E|-----------------|----------------------|-------------------|----------------|--------------|


E|-------------------|--------------|--------------|------12--10-10-|-10-------7--7--|
B|-12--12------12-13-|-12--10-------|----------10--|-12-------------|----------------|
G|-------------------|--------------|------12------|----------------|----------------|
D|-------------------|--------------|--------------|----------------|----------------|
A|-------------------|--------------|--------------|----------------|----------------|
E|-------------------|--------------|--------------|----------------|----------------|


E|-10---8--8---7--5--|-7--------7--7--7--|-7----12--10-10-|-10-------7--7--|-10---8--8---7--7--|
B|-------------------|-------------------|----------------|----------------|-------------------|
G|-------------------|-------------------|----------------|----------------|-------------------|
D|-------------------|-------------------|----------------|----------------|-------------------|
A|-------------------|-------------------|----------------|----------------|-------------------|
E|-------------------|-------------------|----------------|----------------|-------------------|


E|-7--5---------|------------|------7--8---8--|-10--------|------14--15--|-14--12-10---10-|
B|--------------|------------|----------------|-----------|--------------|----------------|
G|--------------|------------|----------------|-----------|--------------|----------------|
D|--------------|------------|----------------|-----------|--------------|----------------|
A|--------------|------------|----------------|-----------|--------------|----------------|
E|--------------|------------|----------------|-----------|--------------|----------------|


E|------12--12-10-|-10----------------|--------------|-----------|----------------10-|
B|----------------|-----12-12--12--12-|-12---13------|-----------|---------12-13-----|
G|----------------|-------------------|-----------14-|-14--------|------14-----------|
D|----------------|-------------------|--------------|-----------|-------------------|
A|----------------|-------------------|--------------|-----------|-------------------|
E|----------------|-------------------|--------------|-----------|-------------------|


E|-10--------|------14--15--|-14---15--14-14--|-12-------15-15-|-15-----------------12-|
B|-----------|--------------|-----------------|----------------|----15-15-15-----15----|
G|-----------|--------------|-----------------|----------------|-----------------------|
D|-----------|--------------|-----------------|----------------|-----------------------|
A|-----------|--------------|-----------------|----------------|-----------------------|
E|-----------|--------------|-----------------|----------------|-----------------------|


E|-12------15---14-|-14-12-14-------|------12--12--|-14--15-14-------|------15-14-12-12-10-|
B|-----------------|----------------|--------------|-----------------|---------------------|
G|-----------------|----------------|--------------|-----------------|---------------------|
D|-----------------|----------------|--------------|-----------------|---------------------|
A|-----------------|----------------|--------------|-----------------|---------------------|
E|-----------------|----------------|--------------|-----------------|---------------------|


E|-10--------------|------12--12-10-|-10----------------|----------------|--------------|
B|-----12-12-------|----------------|----12-12-12-------|------12--13-12-|-12-10--------|
G|-----------------|----------------|-------------------|----------------|--------------|
D|-----------------|----------------|-------------------|----------------|--------------|
A|-----------------|----------------|-------------------|----------------|--------------|
E|-----------------|----------------|-------------------|----------------|--------------|


E|--------------|-7----12--10-10-|-10-------7--7--|-10---8--8---7--5--|-7--------7--7--7--|
B|------8---10--|----------------|----------------|-------------------|-------------------|
G|--------------|----------------|----------------|-------------------|-------------------|
D|--------------|----------------|----------------|-------------------|-------------------|
A|--------------|----------------|----------------|-------------------|-------------------|
E|--------------|----------------|----------------|-------------------|-------------------|


E|-7----12--10-10-|-10-------7--7--|-10---8--8---7--7--|-7--5---------|-------|-------|
B|----------------|----------------|-------------------|--------------|-------|-------|
G|----------------|----------------|-------------------|--------------|-------|-------|
D|----------------|----------------|-------------------|--------------|-------|-------|
A|----------------|----------------|-------------------|--------------|-------|-------|
E|----------------|----------------|-------------------|--------------|-------|-------|


E|-------|-------|-------|-------|-------|-------|-------|-------|-------|-------|
B|-------|-------|-------|-------|-------|-------|-------|-------|-------|-------|
G|-------|-------|-------|-------|-------|-------|-------|-------|-------|-------|
D|-------|-------|-------|-------|-------|-------|-------|-------|-------|-------|
A|-------|-------|-------|-------|-------|-------|-------|-------|-------|-------|
E|-------|-------|-------|-------|-------|-------|-------|-------|-------|-------|


E|-------|-------|-------|-------|-------|------12--12--|-14--15-14-------|------19--1917-----|
B|-------|-------|-------|-------|-------|--------------|-----------------|------20--2019-20--|
G|-------|-------|-------|-------|-------|--------------|-----------------|---------------21--|
D|-------|-------|-------|-------|-------|--------------|-----------------|-------------------|
A|-------|-------|-------|-------|-------|--------------|-----------------|-------------------|
E|-------|-------|-------|-------|-------|--------------|-----------------|-------------------|


E|-----------------|----------------|-----------------|-------------------|--------------|
B|-19--------------|----------------|-----------------|-------------------|--------------|
G|-19--19-19-------|------21--21-19-|-19--------------|-------------------|--------------|
D|-----21-21-------|----------------|-----21-21-------|-21--21--21--22-21-|-21-19--------|
A|-----------------|----------------|-----------------|-------------------|--------------|
E|-----------------|----------------|-----------------|-------------------|--------------|


E|--------------|-14--15-14---14-|------19-17----------|-----------------|----------------|
B|------17--17--|----------------|------20-19-20-20-19-|-19---20-19-19---|------17--17-15-|
G|--------------|----------------|------------21-21-19-|-19---21-19-19---|----------------|
D|--------------|----------------|---------------------|-----------------|----------------|
A|--------------|----------------|---------------------|-----------------|----------------|
E|--------------|----------------|---------------------|-----------------|----------------|


E|------------------|----------------|--------------|--------------|------12--10-10-|
B|-15---------------|----------------|--------------|--------------|-12-------------|
G|----16-16-16------|------16--17-16-|-16-14--------|------12--14--|----------------|
D|------------------|----------------|--------------|--------------|----------------|
A|------------------|----------------|--------------|--------------|----------------|
E|------------------|----------------|--------------|--------------|----------------|


E|-10-------7--7--|-10---8--8---7--5--|-7--------7--7--7--|-7----12--10-10-|-10-------7--7--|
B|----------------|-------------------|-------------------|----------------|----------------|
G|----------------|-------------------|-------------------|----------------|----------------|
D|----------------|-------------------|-------------------|----------------|----------------|
A|----------------|-------------------|-------------------|----------------|----------------|
E|----------------|-------------------|-------------------|----------------|----------------|


E|-10---8--8---7--5--|-5--------7--7--|-7----12--10-10-|-10-------7--7--|-10---8--8---7--7--|
B|-------------------|----------------|----------------|----------------|-------------------|
G|-------------------|----------------|----------------|----------------|-------------------|
D|-------------------|----------------|----------------|----------------|-------------------|
A|-------------------|----------------|----------------|----------------|-------------------|
E|-------------------|----------------|----------------|----------------|-------------------|


E|-7------15-15--15----|-15---14-12-10-10-|-10------8--7--8--10-|-12---14-----15-15-|
B|---------------------|------------------|---------------------|---------13--------|
G|------------------16-|-16---------------|---------------------|-------------16-14-|
D|---------------------|------------------|---------------------|-------------------|
A|---------------------|------------------|---------------------|-------------------|
E|---------------------|------------------|---------------------|-------------------|


E|-17----|-15--------|-------|
B|-------|-----------|-------|
G|-------|-----------|-------|
D|-------|-----------|-------|
A|-------|-----------|-------|
E|-------|-----------|-------|



← Back to top